  0
SECTION
  2
HEADER
  9
$ACADVER
  1
AC1015
  9
$ACADMAINTVER
 70
    20
  9
$DWGCODEPAGE
  3
ANSI_1252
  9
$INSBASE
 10
0.0
 20
0.0
 30
0.0
  9
$EXTMIN
 10
0.0
 20
0.0
 30
0.0
  9
$EXTMAX
 10
1200.0
 20
454.786126881173
 30
0.0
  9
$LIMMIN
 10
0.0
 20
0.0
  9
$LIMMAX
 10
420.0
 20
297.0
  9
$ORTHOMODE
 70
     0
  9
$REGENMODE
 70
     1
  9
$FILLMODE
 70
     1
  9
$QTEXTMODE
 70
     0
  9
$MIRRTEXT
 70
     1
  9
$LTSCALE
 40
1.0
  9
$ATTMODE
 70
     1
  9
$TEXTSIZE
 40
5.0
  9
$TRACEWID
 40
1.0
  9
$TEXTSTYLE
  7
Standard
  9
$CLAYER
  8
0
  9
$CELTYPE
  6
ByLayer
  9
$CECOLOR
 62
   256
  9
$CELTSCALE
 40
1.0
  9
$DISPSILH
 70
     0
  9
$DIMSCALE
 40
1.0
  9
$DIMASZ
 40
2.5
  9
$DIMEXO
 40
0.625
  9
$DIMDLI
 40
3.75
  9
$DIMRND
 40
0.0
  9
$DIMDLE
 40
0.0
  9
$DIMEXE
 40
1.25
  9
$DIMTP
 40
0.0
  9
$DIMTM
 40
0.0
  9
$DIMTXT
 40
2.5
  9
$DIMCEN
 40
2.5
  9
$DIMTSZ
 40
0.0
  9
$DIMTOL
 70
     0
  9
$DIMLIM
 70
     0
  9
$DIMTIH
 70
     0
  9
$DIMTOH
 70
     0
  9
$DIMSE1
 70
     0
  9
$DIMSE2
 70
     0
  9
$DIMTAD
 70
     1
  9
$DIMZIN
 70
     8
  9
$DIMBLK
  1

  9
$DIMASO
 70
     1
  9
$DIMSHO
 70
     1
  9
$DIMPOST
  1

  9
$DIMAPOST
  1

  9
$DIMALT
 70
     0
  9
$DIMALTD
 70
     3
  9
$DIMALTF
 40
0.03937007874016
  9
$DIMLFAC
 40
1.0
  9
$DIMTOFL
 70
     1
  9
$DIMTVP
 40
0.0
  9
$DIMTIX
 70
     0
  9
$DIMSOXD
 70
     0
  9
$DIMSAH
 70
     0
  9
$DIMBLK1
  1

  9
$DIMBLK2
  1

  9
$DIMSTYLE
  2
ISO-25
  9
$DIMCLRD
 70
     0
  9
$DIMCLRE
 70
     0
  9
$DIMCLRT
 70
     0
  9
$DIMTFAC
 40
1.0
  9
$DIMGAP
 40
0.625
  9
$DIMJUST
 70
     0
  9
$DIMSD1
 70
     0
  9
$DIMSD2
 70
     0
  9
$DIMTOLJ
 70
     0
  9
$DIMTZIN
 70
     8
  9
$DIMALTZ
 70
     0
  9
$DIMALTTZ
 70
     0
  9
$DIMUPT
 70
     0
  9
$DIMDEC
 70
     2
  9
$DIMTDEC
 70
     2
  9
$DIMALTU
 70
     2
  9
$DIMALTTD
 70
     3
  9
$DIMTXSTY
  7
Standard
  9
$DIMAUNIT
 70
     0
  9
$DIMADEC
 70
     0
  9
$DIMALTRND
 40
0.0
  9
$DIMAZIN
 70
     0
  9
$DIMDSEP
 70
    44
  9
$DIMATFIT
 70
     3
  9
$DIMFRAC
 70
     0
  9
$DIMLDRBLK
  1

  9
$DIMLUNIT
 70
     2
  9
$DIMLWD
 70
    -2
  9
$DIMLWE
 70
    -2
  9
$DIMTMOVE
 70
     0
  9
$LUNITS
 70
     2
  9
$LUPREC
 70
     4
  9
$SKETCHINC
 40
1.0
  9
$FILLETRAD
 40
10.0
  9
$AUNITS
 70
     0
  9
$AUPREC
 70
     0
  9
$MENU
  1
.
  9
$ELEVATION
 40
0.0
  9
$PELEVATION
 40
0.0
  9
$THICKNESS
 40
0.0
  9
$LIMCHECK
 70
     0
  9
$CHAMFERA
 40
0.0
  9
$CHAMFERB
 40
0.0
  9
$CHAMFERC
 40
20.0
  9
$CHAMFERD
 40
0.0
  9
$SKPOLY
 70
     0
  9
$TDCREATE
 40
2453773.441523380
  9
$TDUCREATE
 40
2453773.399856713
  9
$TDUPDATE
 40
2454425.412792419
  9
$TDUUPDATE
 40
2454425.371125752
  9
$TDINDWG
 40
6.8325939005
  9
$TDUSRTIMER
 40
6.8325811690
  9
$USRTIMER
 70
     1
  9
$ANGBASE
 50
0.0
  9
$ANGDIR
 70
     0
  9
$PDMODE
 70
     0
  9
$PDSIZE
 40
0.0
  9
$PLINEWID
 40
0.0
  9
$SPLFRAME
 70
     0
  9
$SPLINETYPE
 70
     6
  9
$SPLINESEGS
 70
     8
  9
$HANDSEED
  5
7E0D
  9
$SURFTAB1
 70
     6
  9
$SURFTAB2
 70
     6
  9
$SURFTYPE
 70
     6
  9
$SURFU
 70
     6
  9
$SURFV
 70
     6
  9
$UCSBASE
  2

  9
$UCSNAME
  2

  9
$UCSORG
 10
0.0
 20
0.0
 30
0.0
  9
$UCSXDIR
 10
1.0
 20
0.0
 30
0.0
  9
$UCSYDIR
 10
0.0
 20
1.0
 30
0.0
  9
$UCSORTHOREF
  2

  9
$UCSORTHOVIEW
 70
     0
  9
$UCSORGTOP
 10
0.0
 20
0.0
 30
0.0
  9
$UCSORGBOTTOM
 10
0.0
 20
0.0
 30
0.0
  9
$UCSORGLEFT
 10
0.0
 20
0.0
 30
0.0
  9
$UCSORGRIGHT
 10
0.0
 20
0.0
 30
0.0
  9
$UCSORGFRONT
 10
0.0
 20
0.0
 30
0.0
  9
$UCSORGBACK
 10
0.0
 20
0.0
 30
0.0
  9
$PUCSBASE
  2

  9
$PUCSNAME
  2

  9
$PUCSORG
 10
0.0
 20
0.0
 30
0.0
  9
$PUCSXDIR
 10
1.0
 20
0.0
 30
0.0
  9
$PUCSYDIR
 10
0.0
 20
1.0
 30
0.0
  9
$PUCSORTHOREF
  2

  9
$PUCSORTHOVIEW
 70
     0
  9
$PUCSORGTOP
 10
0.0
 20
0.0
 30
0.0
  9
$PUCSORGBOTTOM
 10
0.0
 20
0.0
 30
0.0
  9
$PUCSORGLEFT
 10
0.0
 20
0.0
 30
0.0
  9
$PUCSORGRIGHT
 10
0.0
 20
0.0
 30
0.0
  9
$PUCSORGFRONT
 10
0.0
 20
0.0
 30
0.0
  9
$PUCSORGBACK
 10
0.0
 20
0.0
 30
0.0
  9
$USERI1
 70
     0
  9
$USERI2
 70
     0
  9
$USERI3
 70
     0
  9
$USERI4
 70
     0
  9
$USERI5
 70
     0
  9
$USERR1
 40
0.0
  9
$USERR2
 40
0.0
  9
$USERR3
 40
0.0
  9
$USERR4
 40
0.0
  9
$USERR5
 40
0.0
  9
$WORLDVIEW
 70
     1
  9
$SHADEDGE
 70
     3
  9
$SHADEDIF
 70
    70
  9
$TILEMODE
 70
     1
  9
$MAXACTVP
 70
    64
  9
$PINSBASE
 10
0.0
 20
0.0
 30
0.0
  9
$PLIMCHECK
 70
     0
  9
$PEXTMIN
 10
1.000000000000000E+20
 20
1.000000000000000E+20
 30
1.000000000000000E+20
  9
$PEXTMAX
 10
-1.000000000000000E+20
 20
-1.000000000000000E+20
 30
-1.000000000000000E+20
  9
$PLIMMIN
 10
0.0
 20
0.0
  9
$PLIMMAX
 10
420.0
 20
297.0
  9
$UNITMODE
 70
     0
  9
$VISRETAIN
 70
     1
  9
$PLINEGEN
 70
     0
  9
$PSLTSCALE
 70
     1
  9
$TREEDEPTH
 70
  3020
  9
$CMLSTYLE
  2
Standard
  9
$CMLJUST
 70
     0
  9
$CMLSCALE
 40
20.0
  9
$PROXYGRAPHICS
 70
     1
  9
$MEASUREMENT
 70
     1
  9
$CELWEIGHT
370
    -1
  9
$ENDCAPS
280
     0
  9
$JOINSTYLE
280
     0
  9
$LWDISPLAY
290
     0
  9
$INSUNITS
 70
     4
  9
$HYPERLINKBASE
  1

  9
$STYLESHEET
  1

  9
$XEDIT
290
     1
  9
$CEPSNTYPE
380
     0
  9
$PSTYLEMODE
290
     1
  9
$FINGERPRINTGUID
  2
{FDEAD578-A652-11D2-9A35-0060089B3A3F}
  9
$VERSIONGUID
  2
{E5239168-650A-4C9F-AAB4-6198057EEC9A}
  9
$EXTNAMES
290
     1
  9
$PSVPSCALE
 40
0.0
  9
$OLESTARTUP
290
     0
  0
ENDSEC
  0
SECTION
  2
CLASSES
  0
CLASS
  1
ACDBDICTIONARYWDFLT
  2
AcDbDictionaryWithDefault
  3
ObjectDBX Classes
 90
        0
280
     0
281
     0
  0
CLASS
  1
ACDBPLACEHOLDER
  2
AcDbPlaceHolder
  3
ObjectDBX Classes
 90
        0
280
     0
281
     0
  0
CLASS
  1
LAYOUT
  2
AcDbLayout
  3
ObjectDBX Classes
 90
        0
280
     0
281
     0
  0
CLASS
  1
DICTIONARYVAR
  2
AcDbDictionaryVar
  3
ObjectDBX Classes
 90
        0
280
     0
281
     0
  0
CLASS
  1
MATERIAL
  2
AcDbMaterial
  3
ObjectDBX Classes
 90
        0
280
     0
281
     0
  0
CLASS
  1
VISUALSTYLE
  2
AcDbVisualStyle
  3
ObjectDBX Classes
 90
     4095
280
     0
281
     0
  0
CLASS
  1
TABLESTYLE
  2
AcDbTableStyle
  3
ObjectDBX Classes
 90
     4095
280
     0
281
     0
  0
CLASS
  1
SORTENTSTABLE
  2
AcDbSortentsTable
  3
ObjectDBX Classes
 90
        0
280
     0
281
     0
  0
ENDSEC
  0
SECTION
  2
TABLES
  0
TABLE
  2
VPORT
  5
8
102
{ACAD_XDICTIONARY
360
7A81
102
}
330
0
100
AcDbSymbolTable
 70
     2
  0
VPORT
  5
7E02
330
8
100
AcDbSymbolTableRecord
100
AcDbViewportTableRecord
  2
*Active
 70
     0
 10
0.0
 20
0.0
 11
1.0
 21
1.0
 12
664.1209794951682
 22
252.7793713389938
 13
0.0
 23
0.0
 14
10.0
 24
10.0
 15
10.0
 25
10.0
 16
0.0
 26
0.0
 36
1.0
 17
0.0
 27
0.0
 37
0.0
 40
747.1992688573973
 41
2.164179104477611
 42
50.0
 43
0.0
 44
0.0
 50
0.0
 51
0.0
 71
     0
 72
   100
 73
     1
 74
     3
 75
     0
 76
     0
 77
     0
 78
     0
281
     0
 65
     1
110
0.0
120
0.0
130
0.0
111
1.0
121
0.0
131
0.0
112
0.0
122
1.0
132
0.0
 79
     0
146
0.0
  0
ENDTAB
  0
TABLE
  2
LTYPE
  5
5
330
0
100
AcDbSymbolTable
 70
     1
  0
LTYPE
  5
14
330
5
100
AcDbSymbolTableRecord
100
AcDbLinetypeTableRecord
  2
ByBlock
 70
     0
  3

 72
    65
 73
     0
 40
0.0
  0
LTYPE
  5
15
330
5
100
AcDbSymbolTableRecord
100
AcDbLinetypeTableRecord
  2
ByLayer
 70
     0
  3

 72
    65
 73
     0
 40
0.0
  0
LTYPE
  5
16
330
5
100
AcDbSymbolTableRecord
100
AcDbLinetypeTableRecord
  2
Continuous
 70
     0
  3
Solid line
 72
    65
 73
     0
 40
0.0
  0
ENDTAB
  0
TABLE
  2
LAYER
  5
2
330
0
100
AcDbSymbolTable
 70
     2
  0
LAYER
  5
10
102
{ACAD_XDICTIONARY
360
7A83
102
}
330
2
100
AcDbSymbolTableRecord
100
AcDbLayerTableRecord
  2
0
 70
     0
 62
     7
  6
Continuous
370
    -3
390
F
  0
LAYER
  5
76AD
102
{ACAD_XDICTIONARY
360
7AA5
102
}
330
2
100
AcDbSymbolTableRecord
100
AcDbLayerTableRecord
  2
Defpoints
 70
     0
 62
     7
  6
Continuous
290
     0
370
    -3
390
F
  0
ENDTAB
  0
TABLE
  2
STYLE
  5
3
330
0
100
AcDbSymbolTable
 70
     1
  0
STYLE
  5
11
330
3
100
AcDbSymbolTableRecord
100
AcDbTextStyleTableRecord
  2
Standard
 70
     0
 40
0.0
 41
1.0
 50
0.0
 71
     0
 42
5.0
  3
txt
  4

  0
ENDTAB
  0
TABLE
  2
VIEW
  5
6
330
0
100
AcDbSymbolTable
 70
     0
  0
ENDTAB
  0
TABLE
  2
UCS
  5
7
330
0
100
AcDbSymbolTable
 70
     0
  0
ENDTAB
  0
TABLE
  2
APPID
  5
9
330
0
100
AcDbSymbolTable
 70
     1
  0
APPID
  5
12
330
9
100
AcDbSymbolTableRecord
100
AcDbRegAppTableRecord
  2
ACAD
 70
     0
  0
ENDTAB
  0
TABLE
  2
DIMSTYLE
  5
A
330
0
100
AcDbSymbolTable
 70
     2
100
AcDbDimStyleTable
 71
     1
340
27
  0
DIMSTYLE
105
27
330
A
100
AcDbSymbolTableRecord
100
AcDbDimStyleTableRecord
  2
ISO-25
 70
     0
 41
2.5
 42
0.625
 43
3.75
 44
1.25
 73
     0
 74
     0
 77
     1
 78
     8
140
2.5
141
2.5
143
0.03937007874016
147
0.625
171
     3
172
     1
271
     2
272
     2
274
     3
278
    44
283
     0
284
     8
340
11
  0
DIMSTYLE
105
17CF
330
A
100
AcDbSymbolTableRecord
100
AcDbDimStyleTableRecord
  2
Standard
 70
     0
340
11
  0
ENDTAB
  0
TABLE
  2
BLOCK_RECORD
  5
1
330
0
100
AcDbSymbolTable
 70
     1
  0
BLOCK_RECORD
  5
1F
102
{ACAD_XDICTIONARY
360
7A67
102
}
330
1
100
AcDbSymbolTableRecord
100
AcDbBlockTableRecord
  2
*Model_Space
340
22
  0
BLOCK_RECORD
  5
1B
330
1
100
AcDbSymbolTableRecord
100
AcDbBlockTableRecord
  2
*Paper_Space
340
1E
  0
BLOCK_RECORD
  5
23
330
1
100
AcDbSymbolTableRecord
100
AcDbBlockTableRecord
  2
*Paper_Space0
340
26
  0
ENDTAB
  0
ENDSEC
  0
SECTION
  2
BLOCKS
  0
BLOCK
  5
20
330
1F
100
AcDbEntity
  8
0
100
AcDbBlockBegin
  2
*Model_Space
 70
     0
 10
0.0
 20
0.0
 30
0.0
  3
*Model_Space
  1

  0
ENDBLK
  5
21
330
1F
100
AcDbEntity
  8
0
100
AcDbBlockEnd
  0
BLOCK
  5
1C
330
1B
100
AcDbEntity
 67
     1
  8
0
100
AcDbBlockBegin
  2
*Paper_Space
 70
     0
 10
0.0
 20
0.0
 30
0.0
  3
*Paper_Space
  1

  0
ENDBLK
  5
1D
330
1B
100
AcDbEntity
 67
     1
  8
0
100
AcDbBlockEnd
  0
BLOCK
  5
24
330
23
100
AcDbEntity
  8
0
100
AcDbBlockBegin
  2
*Paper_Space0
 70
     0
 10
0.0
 20
0.0
 30
0.0
  3
*Paper_Space0
  1

  0
ENDBLK
  5
25
330
23
100
AcDbEntity
  8
0
100
AcDbBlockEnd
  0
ENDSEC
  0
SECTION
  2
ENTITIES
  0
LINE
  5
76C1
330
1F
100
AcDbEntity
  8
0
100
AcDbLine
 10
0.0000000000000036
 20
454.786126881173
 30
0.0
 11
0.0000000000000036
 21
254.786126881173
 31
0.0
  0
LINE
  5
76C2
330
1F
100
AcDbEntity
  8
0
100
AcDbLine
 10
0.0000000000000036
 20
254.786126881173
 30
0.0
 11
1200.0
 21
254.786126881173
 31
0.0
  0
LINE
  5
76C3
330
1F
100
AcDbEntity
  8
0
100
AcDbLine
 10
1200.0
 20
254.786126881173
 30
0.0
 11
1200.0
 21
454.786126881173
 31
0.0
  0
LINE
  5
76C4
330
1F
100
AcDbEntity
  8
0
100
AcDbLine
 10
1200.0
 20
454.786126881173
 30
0.0
 11
0.0000000000000036
 21
454.786126881173
 31
0.0
  0
ELLIPSE
  5
76C5
330
1F
100
AcDbEntity
  8
0
100
AcDbEllipse
 10
159.1660159004841
 20
326.2208209253033
 30
0.0
 11
0.0
 21
-55.06721501527465
 31
0.0
210
0.0
220
0.0
230
1.0
 40
0.9004162659336966
 41
1.570796326794896
 42
3.08105157695856
  0
ELLIPSE
  5
76C8
330
1F
100
AcDbEntity
  8
0
100
AcDbEllipse
 10
159.0636092574441
 20
321.2208209253033
 30
0.0
 11
0.0
 21
-63.9093808163179
 31
0.0
210
0.0
220
0.0
230
1.0
 40
0.7742370344440525
 41
6.345925395842812
 42
6.98142989681996
  0
ELLIPSE
  5
76C9
330
1F
100
AcDbEntity
  8
0
100
AcDbEllipse
 10
159.1660159004841
 20
319.2997790482084
 30
0.0
 11
0.0
 21
51.9882568923693
 31
0.0
210
0.0
220
0.0
230
0.9999999999999998
 40
0.6503290491705215
 41
3.588665592901882
 42
5.836499887836929
  0
ELLIPSE
  5
76CB
330
1F
100
AcDbEntity
  8
0
100
AcDbEllipse
 10
159.0636092574441
 20
321.2208209253033
 30
0.0
 11
0.0
 21
-63.9093808163179
 31
0.0
210
0.0
220
0.0
230
1.0
 40
0.7742370344440525
 41
7.499227862868262
 42
7.853981633974482
  0
ELLIPSE
  5
76CC
330
1F
100
AcDbEntity
  8
0
100
AcDbEllipse
 10
159.0636092574441
 20
321.2208209253033
 30
0.0
 11
0.0
 21
-63.9093808163179
 31
0.0
210
0.0
220
0.0
230
1.0
 40
0.7742370344440525
 41
7.034739311830827
 42
7.450939968105883
  0
LINE
  5
76CD
330
1F
100
AcDbEntity
  8
0
100
AcDbLine
 10
226.2596261157232
 20
418.9825061448363
 30
0.0
 11
191.2337505234027
 21
443.7570951041971
 31
0.0
  0
LINE
  5
76CE
330
1F
100
AcDbEntity
  8
0
100
AcDbLine
 10
200.1456069758715
 20
448.8856532861391
 30
0.0
 11
231.4863334812017
 21
426.7176530940913
 31
0.0
  0
LINE
  5
76CF
330
1F
100
AcDbEntity
  8
0
100
AcDbLine
 10
66.41296447495733
 20
270.215714643644
 30
0.0
 11
97.10786363092665
 21
269.4935145706204
 31
0.0
  0
LINE
  5
76D0
330
1F
100
AcDbEntity
  8
0
100
AcDbLine
 10
91.85834747380704
 20
258.9474082799871
 30
0.0
 11
58.42052332708863
 21
259.7341448291818
 31
0.0
  0
LINE
  5
76DD
330
1F
100
AcDbEntity
  8
0
100
AcDbLine
 10
208.7494320199057
 20
326.2208209253033
 30
0.0
 11
203.7494320199057
 21
326.2208209253033
 31
0.0
  0
LINE
  5
76DE
330
1F
100
AcDbEntity
  8
0
100
AcDbLine
 10
203.7494320199057
 20
326.2208209253033
 30
0.0
 11
203.5446187338257
 21
321.2208209253033
 31
0.0
  0
LINE
  5
76DF
330
1F
100
AcDbEntity
  8
0
100
AcDbLine
 10
203.5446187338257
 20
321.2208209253033
 30
0.0
 11
208.5446187338257
 21
321.2208209253033
 31
0.0
  0
LINE
  5
76E0
330
1F
100
AcDbEntity
  8
0
100
AcDbLine
 10
205.4635375607922
 20
299.021291701961
 30
0.0
 11
202.6108263742826
 21
299.9006427136921
 31
0.0
  0
LINE
  5
76E1
330
1F
100
AcDbEntity
  8
0
100
AcDbLine
 10
202.6108263742826
 20
299.9006427136921
 30
0.0
 11
201.7129305453727
 21
297.0381257946608
 31
0.0
  0
LINE
  5
76E2
330
1F
100
AcDbEntity
  8
0
100
AcDbLine
 10
201.7129305453727
 20
297.0381257946608
 30
0.0
 11
204.5939922815833
 21
296.1500356982717
 31
0.0
  0
LINE
  5
76E3
330
1F
100
AcDbEntity
  8
0
100
AcDbLine
 10
192.8630316406143
 20
274.5136573553793
 30
0.0
 11
190.5892453124234
 21
276.5011289005299
 31
0.0
  0
LINE
  5
76E4
330
1F
100
AcDbEntity
  8
0
100
AcDbLine
 10
190.5892453124234
 20
276.5011289005299
 30
0.0
 11
188.6299353995437
 21
274.2292347581376
 31
0.0
  0
LINE
  5
76E5
330
1F
100
AcDbEntity
  8
0
100
AcDbLine
 10
188.6299353995437
 20
274.2292347581376
 30
0.0
 11
190.8886948187009
 21
272.2548979362225
 31
0.0
  0
LINE
  5
76E7
330
1F
100
AcDbEntity
  8
0
100
AcDbLine
 10
26.5327883975233
 20
315.5423734314719
 30
0.0
 11
34.48266017813876
 21
283.7583180157035
 31
0.0
  0
LINE
  5
76E8
330
1F
100
AcDbEntity
  8
0
100
AcDbLine
 10
10.5316314355041
 20
302.1321886713768
 30
0.0
 11
10.78526384379075
 21
312.9120563092711
 31
0.0
  0
LINE
  5
76EB
330
1F
100
AcDbEntity
  8
0
100
AcDbLine
 10
58.39339245200335
 20
259.7347831736751
 30
0.0
 11
59.05163591639212
 21
262.6616783787658
 31
0.0
  0
LINE
  5
76EC
330
1F
100
AcDbEntity
  8
0
100
AcDbLine
 10
34.48266017813876
 20
283.7583180157035
 30
0.0
 11
66.41296447495733
 21
270.215714643644
 31
0.0
  0
LINE
  5
76ED
330
1F
100
AcDbEntity
  8
0
100
AcDbLine
 10
24.80195635778001
 20
274.4880536372648
 30
0.0
 11
10.5316314355041
 21
302.1321886713768
 31
0.0
  0
LINE
  5
76EE
330
1F
100
AcDbEntity
  8
0
100
AcDbLine
 10
24.8019563577791
 20
274.4880536372648
 30
0.0
 11
26.84181243575768
 21
276.6878234391161
 31
0.0
  0
LINE
  5
76EF
330
1F
100
AcDbEntity
  8
0
100
AcDbLine
 10
26.84181243575768
 20
276.6878234391161
 30
0.0
 11
29.04158223760806
 21
274.6479673611384
 31
0.0
  0
LINE
  5
76F0
330
1F
100
AcDbEntity
  8
0
100
AcDbLine
 10
29.04158223760806
 20
274.6479673611384
 30
0.0
 11
27.00172615962947
 21
272.4481975592862
 31
0.0
  0
LINE
  5
76F1
330
1F
100
AcDbEntity
  8
0
100
AcDbLine
 10
55.4878949255144
 20
260.3663557578093
 30
0.0
 11
27.00172615962947
 21
272.4481975592862
 31
0.0
  0
LINE
  5
76F2
330
1F
100
AcDbEntity
  8
0
100
AcDbLine
 10
59.05163591639212
 20
262.6616783787658
 30
0.0
 11
56.12115361589258
 21
263.3038443978267
 31
0.0
  0
LINE
  5
76F3
330
1F
100
AcDbEntity
  8
0
100
AcDbLine
 10
56.12115361589258
 20
263.3038443978267
 30
0.0
 11
55.46292701544553
 21
260.3769454001722
 31
0.0
  0
LINE
  5
76F4
330
1F
100
AcDbEntity
  8
0
100
AcDbLine
 10
244.8519505515705
 20
395.7636117376633
 30
0.0
 11
228.8250699136988
 21
415.7786695907678
 31
0.0
  0
LINE
  5
76F5
330
1F
100
AcDbEntity
  8
0
100
AcDbLine
 10
253.8354302923126
 20
394.9608840759684
 30
0.0
 11
256.6738802022519
 21
395.9320700050103
 31
0.0
  0
LINE
  5
76F6
330
1F
100
AcDbEntity
  8
0
100
AcDbLine
 10
236.4882736592408
 20
359.4129645983376
 30
0.0
 11
244.8519505515705
 21
395.7636117376633
 31
0.0
  0
LINE
  5
76F7
330
1F
100
AcDbEntity
  8
0
100
AcDbLine
 10
257.6450661312938
 20
393.0936200950719
 30
0.0
 11
257.1900348886465
 21
364.4006466843894
 31
0.0
  0
LINE
  5
76F8
330
1F
100
AcDbEntity
  8
0
100
AcDbLine
 10
257.6450661312956
 20
393.0936200950719
 30
0.0
 11
254.8066162213563
 21
392.1224341660281
 31
0.0
  0
LINE
  5
76F9
330
1F
100
AcDbEntity
  8
0
100
AcDbLine
 10
254.8066162213563
 20
392.1224341660281
 30
0.0
 11
253.8354302923126
 21
394.9608840759684
 31
0.0
  0
LINE
  5
76FA
330
1F
100
AcDbEntity
  8
0
100
AcDbLine
 10
245.2157525564635
 20
354.1722055972869
 30
0.0
 11
246.5027632020246
 21
356.3154749686473
 31
0.0
  0
LINE
  5
76FB
330
1F
100
AcDbEntity
  8
0
100
AcDbLine
 10
246.5027632020246
 20
356.3154749686473
 30
0.0
 11
250.7893019447456
 21
353.741453677525
 31
0.0
  0
LINE
  5
76FC
330
1F
100
AcDbEntity
  8
0
100
AcDbLine
 10
250.7893019447456
 20
353.741453677525
 30
0.0
 11
257.1900348886465
 21
364.4006466843894
 31
0.0
  0
LINE
  5
76FF
330
1F
100
AcDbEntity
  8
0
100
AcDbLine
 10
228.8250699136988
 20
415.7786695907678
 30
0.0
 11
226.2596261157232
 21
418.9825061448363
 31
0.0
  0
LINE
  5
7700
330
1F
100
AcDbEntity
  8
0
100
AcDbLine
 10
233.6698863125621
 20
424.6604469710546
 30
0.0
 11
256.6738802022519
 21
395.9320700050093
 31
0.0
  0
LINE
  5
7701
330
1F
100
AcDbEntity
  8
0
100
AcDbLine
 10
231.4863334812017
 20
426.7176530940896
 30
0.0
 11
229.4291273581657
 21
424.53410026273
 31
0.0
  0
LINE
  5
7702
330
1F
100
AcDbEntity
  8
0
100
AcDbLine
 10
229.4291273581657
 20
424.53410026273
 30
0.0
 11
231.6126801895261
 21
422.4768941396949
 31
0.0
  0
LINE
  5
7703
330
1F
100
AcDbEntity
  8
0
100
AcDbLine
 10
231.6126801895261
 20
422.4768941396949
 30
0.0
 11
233.6698863125621
 21
424.6604469710546
 31
0.0
  0
LINE
  5
7705
330
1F
100
AcDbEntity
  8
0
100
AcDbLine
 10
97.10786363092665
 20
269.4935145706204
 30
0.0
 11
96.97457325033973
 21
263.8284157378339
 31
0.0
  0
LINE
  5
7706
330
1F
100
AcDbEntity
  8
0
100
AcDbLine
 10
96.97457325033973
 20
263.8284157378339
 30
0.0
 11
91.97595663315039
 21
263.9460248971773
 31
0.0
  0
LINE
  5
7707
330
1F
100
AcDbEntity
  8
0
100
AcDbLine
 10
91.97595663315039
 20
263.9460248971773
 30
0.0
 11
91.85834747380793
 21
258.9474082799888
 31
0.0
  0
LINE
  5
7708
330
1F
100
AcDbEntity
  8
0
100
AcDbLine
 10
191.2337505234027
 20
443.7570951041971
 30
0.0
 11
193.4780579747384
 21
447.494558688476
 31
0.0
  0
LINE
  5
7709
330
1F
100
AcDbEntity
  8
0
100
AcDbLine
 10
193.4780579747384
 20
447.494558688476
 30
0.0
 11
197.7645967174594
 21
444.9205373973535
 31
0.0
  0
LINE
  5
770A
330
1F
100
AcDbEntity
  8
0
100
AcDbLine
 10
197.7645967174594
 20
444.9205373973535
 30
0.0
 11
200.1456069758715
 21
448.8856532861391
 31
0.0
  0
LINE
  5
770B
330
1F
100
AcDbEntity
  8
0
100
AcDbLine
 10
512.7403581534671
 20
441.4617255509861
 30
0.0
 11
481.3761830083022
 21
451.9873468043814
 31
0.0
  0
LINE
  5
770C
330
1F
100
AcDbEntity
  8
0
100
AcDbLine
 10
477.9350846177549
 20
438.8260378977427
 30
0.0
 11
522.1778024496052
 21
417.2778694411331
 31
0.0
  0
LINE
  5
770D
330
1F
100
AcDbEntity
  8
0
100
AcDbLine
 10
326.517347693647
 20
372.7319750786701
 30
0.0
 11
362.9253962570492
 21
380.0101149242664
 31
0.0
  0
LINE
  5
770E
330
1F
100
AcDbEntity
  8
0
100
AcDbLine
 10
358.9971680339677
 20
392.8219798747014
 30
0.0
 11
322.117823673334
 21
381.8279368168278
 31
0.0
  0
LINE
  5
7710
330
1F
100
AcDbEntity
  8
0
100
AcDbLine
 10
322.117823673334
 20
381.8279368168278
 30
0.0
 11
323.5028298396429
 21
379.1667795649356
 31
0.0
  0
LINE
  5
7711
330
1F
100
AcDbEntity
  8
0
100
AcDbLine
 10
288.8224088213629
 20
351.7742533436759
 30
0.0
 11
286.6030278666713
 21
353.7927548120824
 31
0.0
  0
LINE
  5
7712
330
1F
100
AcDbEntity
  8
0
100
AcDbLine
 10
290.8409102897693
 20
353.9936342983637
 30
0.0
 11
288.8224088213629
 21
351.7742533436759
 31
0.0
  0
LINE
  5
7713
330
1F
100
AcDbEntity
  8
0
100
AcDbLine
 10
288.6215293350779
 20
356.0121357667713
 30
0.0
 11
290.8409102897693
 21
353.9936342983637
 31
0.0
  0
LINE
  5
7714
330
1F
100
AcDbEntity
  8
0
100
AcDbLine
 10
277.0520056922414
 20
339.0642266896466
 30
0.0
 11
273.0474791268662
 21
331.839362437182
 31
0.0
  0
LINE
  5
7715
330
1F
100
AcDbEntity
  8
0
100
AcDbLine
 10
286.6030278666713
 20
353.7927548120824
 30
0.0
 11
277.0520056922414
 21
339.0642266896466
 31
0.0
  0
LINE
  5
7716
330
1F
100
AcDbEntity
  8
0
100
AcDbLine
 10
300.6459489355966
 20
331.7527897663176
 30
0.0
 11
298.9782076619485
 21
347.5597014861733
 31
0.0
  0
LINE
  5
7717
330
1F
100
AcDbEntity
  8
0
100
AcDbLine
 10
320.8416725877523
 20
377.7817733986284
 30
0.0
 11
319.4566664214453
 21
380.4429306505172
 31
0.0
  0
LINE
  5
7718
330
1F
100
AcDbEntity
  8
0
100
AcDbLine
 10
323.5028298396429
 20
379.1667795649356
 30
0.0
 11
320.8416725877523
 21
377.7817733986284
 31
0.0
  0
LINE
  5
7719
330
1F
100
AcDbEntity
  8
0
100
AcDbLine
 10
319.4566664214453
 20
380.4429306505172
 30
0.0
 11
288.6215293350779
 21
356.0121357667713
 31
0.0
  0
LINE
  5
771A
330
1F
100
AcDbEntity
  8
0
100
AcDbLine
 10
298.9782076619485
 20
347.5597014861733
 30
0.0
 11
326.517347693647
 21
372.7319750786701
 31
0.0
  0
LINE
  5
771B
330
1F
100
AcDbEntity
  8
0
100
AcDbLine
 10
561.264096537945
 20
404.5625986842118
 30
0.0
 11
550.4116985642268
 21
421.9975535420208
 31
0.0
  0
ARC
  5
771C
330
1F
100
AcDbEntity
  8
0
100
AcDbCircle
 10
514.3930568825435
 20
401.2942232110706
 30
0.0
 40
17.77861666023672
100
AcDbArc
 50
0.3280020559968951
 51
64.03186112557218
  0
LINE
  5
771D
330
1F
100
AcDbEntity
  8
0
100
AcDbLine
 10
514.3621186133278
 20
437.5412800392076
 30
0.0
 11
515.5114611392873
 21
440.3123830250263
 31
0.0
  0
LINE
  5
771E
330
1F
100
AcDbEntity
  8
0
100
AcDbLine
 10
511.5910156275075
 20
438.6906225651673
 30
0.0
 11
514.3621186133278
 21
437.5412800392076
 31
0.0
  0
LINE
  5
771F
330
1F
100
AcDbEntity
  8
0
100
AcDbLine
 10
512.740358153469
 20
441.4617255509878
 30
0.0
 11
511.5910156275075
 21
438.6906225651673
 31
0.0
  0
LINE
  5
7720
330
1F
100
AcDbEntity
  8
0
100
AcDbLine
 10
546.1737646399524
 20
421.7977635185466
 30
0.0
 11
548.1928365903532
 21
424.0166254924218
 31
0.0
  0
LINE
  5
7721
330
1F
100
AcDbEntity
  8
0
100
AcDbLine
 10
548.392626613826
 20
419.7786915681473
 30
0.0
 11
546.1737646399524
 21
421.7977635185466
 31
0.0
  0
LINE
  5
7722
330
1F
100
AcDbEntity
  8
0
100
AcDbLine
 10
550.4116985642284
 20
421.9975535420208
 30
0.0
 11
548.392626613826
 21
419.7786915681473
 31
0.0
  0
LINE
  5
7723
330
1F
100
AcDbEntity
  8
0
100
AcDbLine
 10
548.1928365903532
 20
424.0166254924218
 30
0.0
 11
515.5114611392873
 21
440.3123830250263
 31
0.0
  0
LINE
  5
7724
330
1F
100
AcDbEntity
  8
0
100
AcDbLine
 10
416.4860402094836
 20
391.5665938909615
 30
0.0
 11
417.9075307947385
 21
378.1785106484504
 31
0.0
  0
LINE
  5
7725
330
1F
100
AcDbEntity
  8
0
100
AcDbLine
 10
358.9971680339677
 20
392.8219798747014
 30
0.0
 11
359.5286833595219
 21
387.8159872237375
 31
0.0
  0
LINE
  5
7726
330
1F
100
AcDbEntity
  8
0
100
AcDbLine
 10
363.9728244388952
 20
393.3159517751374
 30
0.0
 11
364.5007361749104
 21
388.3438989597527
 31
0.0
  0
LINE
  5
7727
330
1F
100
AcDbEntity
  8
0
100
AcDbLine
 10
364.5007361749104
 20
388.3438989597527
 30
0.0
 11
359.5286833595219
 21
387.8159872237375
 31
0.0
  0
LINE
  5
7728
330
1F
100
AcDbEntity
  8
0
100
AcDbLine
 10
363.9727804095073
 20
393.3159532418758
 30
0.0
 11
364.3924792480957
 21
389.3380325683565
 31
0.0
  0
LINE
  5
7729
330
1F
100
AcDbEntity
  8
0
100
AcDbLine
 10
416.4860402094836
 20
391.5665938909615
 30
0.0
 11
363.9727804095073
 21
393.3159532418758
 31
0.0
  0
LINE
  5
772A
330
1F
100
AcDbEntity
  8
0
100
AcDbLine
 10
362.9253962570492
 20
380.0101149242664
 30
0.0
 11
417.9075307947385
 21
378.1785106484504
 31
0.0
  0
LINE
  5
772B
330
1F
100
AcDbEntity
  8
0
100
AcDbLine
 10
416.2966402147121
 20
403.7326921261665
 30
0.0
 11
424.0230397683061
 21
438.733789034726
 31
0.0
  0
LINE
  5
772C
330
1F
100
AcDbEntity
  8
0
100
AcDbLine
 10
424.6334018559918
 20
400.780369079642
 30
0.0
 11
424.5475315875737
 21
415.7801232875282
 31
0.0
  0
LINE
  5
772D
330
1F
100
AcDbEntity
  8
0
100
AcDbLine
 10
428.5474660430136
 20
415.8030220257734
 30
0.0
 11
428.6333363114281
 21
400.8032678178872
 31
0.0
  0
LINE
  5
772E
330
1F
100
AcDbEntity
  8
0
100
AcDbLine
 10
424.6334018559918
 20
400.780369079642
 30
0.0
 11
424.5475315875737
 21
415.7801232875282
 31
0.0
  0
LINE
  5
772F
330
1F
100
AcDbEntity
  8
0
100
AcDbLine
 10
444.342409430119
 20
400.9156096651439
 30
0.0
 11
444.2463241077947
 21
425.8987810793914
 31
0.0
  0
LINE
  5
7730
330
1F
100
AcDbEntity
  8
0
100
AcDbLine
 10
444.3424956205271
 20
400.893199273281
 30
0.0
 11
444.342409430119
 21
400.9156096651439
 31
0.0
  0
LINE
  5
7731
330
1F
100
AcDbEntity
  8
0
100
AcDbLine
 10
428.2656733495896
 20
438.7415540184337
 30
0.0
 11
426.1404740670967
 21
440.8589883172195
 31
0.0
  0
LINE
  5
7732
330
1F
100
AcDbEntity
  8
0
100
AcDbLine
 10
426.1482390508008
 20
436.6163547359404
 30
0.0
 11
428.2656733495896
 21
438.7415540184337
 31
0.0
  0
LINE
  5
7733
330
1F
100
AcDbEntity
  8
0
100
AcDbLine
 10
424.0230397683061
 20
438.7337890347278
 30
0.0
 11
426.1482390508008
 21
436.6163547359404
 31
0.0
  0
LINE
  5
7734
330
1F
100
AcDbEntity
  8
0
100
AcDbLine
 10
424.5475315875737
 20
415.7801232875282
 30
0.0
 11
428.5474660430136
 21
415.8030220257734
 31
0.0
  0
LINE
  5
7735
330
1F
100
AcDbEntity
  8
0
100
AcDbLine
 10
449.4520696862819
 20
432.429057561742
 30
0.0
 11
477.9350846177549
 21
438.8260378977427
 31
0.0
  0
ARC
  5
7736
330
1F
100
AcDbEntity
  8
0
100
AcDbCircle
 10
450.912941469227
 20
425.9244209017886
 30
0.0
 40
6.666666666649486
100
AcDbArc
 50
102.6579839253666
 51
180.2203585848667
  0
LINE
  5
7737
330
1F
100
AcDbEntity
  8
0
100
AcDbLine
 10
481.4037619374338
 20
447.1698801084643
 30
0.0
 11
481.3761830083022
 21
451.9873468043814
 31
0.0
  0
LINE
  5
7738
330
1F
100
AcDbEntity
  8
0
100
AcDbLine
 10
476.4038438681382
 20
447.1412566856591
 30
0.0
 11
481.4037619374338
 21
447.1698801084643
 31
0.0
  0
LINE
  5
7739
330
1F
100
AcDbEntity
  8
0
100
AcDbLine
 10
476.3752204453322
 20
452.1411747549538
 30
0.0
 11
476.4038438681382
 21
447.1412566856591
 31
0.0
  0
LINE
  5
773A
330
1F
100
AcDbEntity
  8
0
100
AcDbLine
 10
476.3752204453322
 20
452.1411747549538
 30
0.0
 11
426.1404740670967
 21
440.8589883172213
 31
0.0
  0
ELLIPSE
  5
773B
330
1F
100
AcDbEntity
  8
0
100
AcDbEllipse
 10
48.05604117785151
 20
404.7950890563375
 30
0.0
 11
-0.3495756630961769
 21
-44.7806858954368
 31
0.0
210
0.0
220
0.0
230
0.9999999999999998
 40
0.8615114600104773
 41
4.972680393628419
 42
5.420427185520638
  0
ELLIPSE
  5
773C
330
1F
100
AcDbEntity
  8
0
100
AcDbEllipse
 10
48.05604117785151
 20
404.7950890563375
 30
0.0
 11
-0.3495756630961769
 21
-44.7806858954368
 31
0.0
210
0.0
220
0.0
230
0.9999999999999998
 40
0.8615114600104773
 41
9.511676736819588
 42
11.14275154847392
  0
ELLIPSE
  5
773D
330
1F
100
AcDbEntity
  8
0
100
AcDbEllipse
 10
48.05604117785151
 20
404.7950890563375
 30
0.0
 11
-0.3495756630961769
 21
-44.7806858954368
 31
0.0
210
0.0
220
0.0
230
0.9999999999999998
 40
0.8615114600104773
 41
5.491780787241927
 42
6.214408588454152
  0
LINE
  5
773E
330
1F
100
AcDbEntity
  8
0
100
AcDbLine
 10
48.05604117785151
 20
402.3300201964421
 30
0.0
 11
32.05604117785151
 21
402.3300201964421
 31
0.0
  0
LINE
  5
773F
330
1F
100
AcDbEntity
  8
0
100
AcDbLine
 10
32.05604117785151
 20
405.3300201964421
 30
0.0
 11
48.05604117785151
 21
405.3300201964421
 31
0.0
  0
LINE
  5
7740
330
1F
100
AcDbEntity
  8
0
100
AcDbLine
 10
32.05604117785151
 20
402.3300201964421
 30
0.0
 11
32.05604117785151
 21
405.3300201964421
 31
0.0
  0
LINE
  5
7741
330
1F
100
AcDbEntity
  8
0
100
AcDbLine
 10
15.61718820239003
 20
394.4009937114993
 30
0.0
 11
10.68653486676885
 21
393.5612537720663
 31
0.0
  0
LINE
  5
7742
330
1F
100
AcDbEntity
  8
0
100
AcDbLine
 10
18.52252033643345
 20
375.9009799116243
 30
0.0
 11
20.88814817973981
 21
377.7459201306087
 31
0.0
  0
LINE
  5
7743
330
1F
100
AcDbEntity
  8
0
100
AcDbLine
 10
20.88814817973981
 20
377.7459201306087
 30
0.0
 11
22.73308851459479
 21
375.3802922729719
 31
0.0
  0
LINE
  5
7744
330
1F
100
AcDbEntity
  8
0
100
AcDbLine
 10
22.73308851459479
 20
375.3802922729719
 30
0.0
 11
20.36746060618862
 21
373.5353520032167
 31
0.0
  0
LINE
  5
7745
330
1F
100
AcDbEntity
  8
0
100
AcDbLine
 10
9.842782840683868
 20
398.5260658400198
 30
0.0
 11
14.77772533201824
 21
399.3300201964421
 31
0.0
  0
LINE
  5
7746
330
1F
100
AcDbEntity
  8
0
100
AcDbLine
 10
14.77772533201824
 20
399.3300201964421
 30
0.0
 11
15.61718820239003
 21
394.4009937114993
 31
0.0
  0
LINE
  5
7747
330
1F
100
AcDbEntity
  8
0
100
AcDbLine
 10
45.0560411778515
 20
439.5771393936097
 30
0.0
 11
48.0560411778515
 21
439.5771393936096
 31
0.0
  0
LINE
  5
7748
330
1F
100
AcDbEntity
  8
0
100
AcDbLine
 10
48.0560411778515
 20
439.5771393936096
 30
0.0
 11
48.05604117785151
 21
405.3300201964421
 31
0.0
  0
LINE
  5
7749
330
1F
100
AcDbEntity
  8
0
100
AcDbLine
 10
48.05604117785151
 20
402.3300201964421
 30
0.0
 11
48.05604117785151
 21
370.1409697555414
 31
0.0
  0
ELLIPSE
  5
774C
330
1F
100
AcDbEntity
  8
0
100
AcDbEllipse
 10
125.4689555855793
 20
320.8209482098808
 30
0.0
 11
17.40871750406757
 21
-61.49264599274218
 31
0.0
210
0.0
220
0.0
230
0.9999999999999998
 40
0.7742370344440525
 41
4.712388980384688
 42
5.067142751490909
  0
ELLIPSE
  5
774D
330
1F
100
AcDbEntity
  8
0
100
AcDbEllipse
 10
124.2055051962752
 20
325.6597683382083
 30
0.0
 11
15.00013891062287
 21
-52.98484691117365
 31
0.0
210
0.0
220
0.0
230
1.0
 40
0.9004162659336966
 41
3.202133730221043
 42
4.712388980384688
  0
ELLIPSE
  5
774E
330
1F
100
AcDbEntity
  8
0
100
AcDbEllipse
 10
126.0907755796397
 20
319.000445831668
 30
0.0
 11
-14.16144024880094
 21
50.02231966619125
 31
0.0
210
0.0
220
0.0
230
0.9999999999999998
 40
0.6503290491705214
 41
0.446685419342637
 42
2.694519714277681
  0
ELLIPSE
  5
774F
330
1F
100
AcDbEntity
  8
0
100
AcDbEllipse
 10
125.4689555855793
 20
320.8209482098808
 30
0.0
 11
17.40871750406757
 21
-61.49264599274218
 31
0.0
210
0.0
220
0.0
230
0.9999999999999998
 40
0.7742370344440525
 41
5.584940717539201
 42
6.224592080433201
  0
ELLIPSE
  5
7750
330
1F
100
AcDbEntity
  8
0
100
AcDbEllipse
 10
125.4689555855793
 20
320.8209482098808
 30
0.0
 11
17.40871750406757
 21
-61.49264599274218
 31
0.0
210
0.0
220
0.0
230
0.9999999999999998
 40
0.7742370344440525
 41
5.115430646253284
 42
5.531631302528341
  0
LINE
  5
7751
330
1F
100
AcDbEntity
  8
0
100
AcDbLine
 10
105.6815361448725
 20
266.6898151698419
 30
0.0
 11
107.3060871117895
 21
269.1881154589974
 31
0.0
  0
LINE
  5
7752
330
1F
100
AcDbEntity
  8
0
100
AcDbLine
 10
107.3060871117895
 20
269.1881154589974
 30
0.0
 11
109.8210434115572
 21
267.5525743221669
 31
0.0
  0
LINE
  5
7753
330
1F
100
AcDbEntity
  8
0
100
AcDbLine
 10
109.8210434115572
 20
267.5525743221669
 30
0.0
 11
108.1963831092007
 21
265.0543493797395
 31
0.0
  0
LINE
  5
7757
330
1F
100
AcDbEntity
  8
0
100
AcDbLine
 10
76.49708718944748
 20
312.1533992718182
 30
0.0
 11
81.30801206520846
 21
313.5153837944117
 31
0.0
  0
LINE
  5
7758
330
1F
100
AcDbEntity
  8
0
100
AcDbLine
 10
81.30801206520846
 20
313.5153837944117
 30
0.0
 11
82.6699965878015
 21
308.7044589186508
 31
0.0
  0
LINE
  5
7759
330
1F
100
AcDbEntity
  8
0
100
AcDbLine
 10
82.6699965878015
 20
308.7044589186508
 30
0.0
 11
77.85907171204053
 21
307.3424743960568
 31
0.0
  0
LINE
  5
775A
330
1F
100
AcDbEntity
  8
0
100
AcDbLine
 10
86.88832745016226
 20
286.8331025484195
 30
0.0
 11
89.38847587891723
 21
288.4529307410535
 31
0.0
  0
LINE
  5
775B
330
1F
100
AcDbEntity
  8
0
100
AcDbLine
 10
89.38847587891723
 20
288.4529307410535
 30
0.0
 11
91.0373134224037
 21
285.9465838502829
 31
0.0
  0
LINE
  5
775C
330
1F
100
AcDbEntity
  8
0
100
AcDbLine
 10
91.0373134224037
 20
285.9465838502829
 30
0.0
 11
88.51956108721331
 21
284.3153502132309
 31
0.0
  0
LINE
  5
775D
330
1F
100
AcDbEntity
  8
0
100
AcDbLine
 10
45.0560411778515
 20
449.4329407574996
 30
0.0
 11
45.0560411778515
 21
439.5771393936097
 31
0.0
  0
LINE
  5
775F
330
1F
100
AcDbEntity
  8
0
100
AcDbLine
 10
45.0560411778515
 20
360.1409697555408
 30
0.0
 11
45.0560411778515
 21
365.1006664601997
 31
0.0
  0
LINE
  5
7761
330
1F
100
AcDbEntity
  8
0
100
AcDbLine
 10
45.0560411778515
 20
360.1409697555408
 30
0.0
 11
45.0560411778515
 21
370.1409697555408
 31
0.0
  0
LINE
  5
7762
330
1F
100
AcDbEntity
  8
0
100
AcDbLine
 10
45.0560411778515
 20
370.1409697555408
 30
0.0
 11
48.05604117785151
 21
370.1409697555408
 31
0.0
  0
LINE
  5
7765
330
1F
100
AcDbEntity
  8
0
100
AcDbLine
 10
99.26612081060831
 20
360.1364217900805
 30
0.0
 11
113.3188008774887
 21
364.1147696642024
 31
0.0
  0
LINE
  5
7766
330
1F
100
AcDbEntity
  8
0
100
AcDbLine
 10
113.3188008774887
 20
364.1147696642024
 30
0.0
 11
111.9568163548947
 21
368.925694539963
 31
0.0
  0
LINE
  5
7767
330
1F
100
AcDbEntity
  8
0
100
AcDbLine
 10
159.1660159004841
 20
371.1871499774805
 30
0.0
 11
159.1660159004841
 21
366.1871499774804
 31
0.0
  0
LINE
  5
7768
330
1F
100
AcDbEntity
  8
0
100
AcDbLine
 10
159.1660159004841
 20
366.1871499774804
 30
0.0
 11
173.7709831674674
 21
366.1871499774804
 31
0.0
  0
LINE
  5
7769
330
1F
100
AcDbEntity
  8
0
100
AcDbLine
 10
109.0702614294396
 20
368.1085038264082
 30
0.0
 11
111.9568163548956
 21
368.9256945399638
 31
0.0
  0
LINE
  5
776A
330
1F
100
AcDbEntity
  8
0
100
AcDbLine
 10
106.3462923842517
 20
377.7303535779297
 30
0.0
 11
109.0702614294396
 21
368.1085038264082
 31
0.0
  0
LINE
  5
776B
330
1F
100
AcDbEntity
  8
0
100
AcDbLine
 10
162.1660159004841
 20
381.1871499774804
 30
0.0
 11
162.1660159004841
 21
371.1871499774805
 31
0.0
  0
LINE
  5
776C
330
1F
100
AcDbEntity
  8
0
100
AcDbLine
 10
159.1660159004841
 20
371.1871499774805
 30
0.0
 11
162.1660159004841
 21
371.1871499774805
 31
0.0
  0
LINE
  5
776D
330
1F
100
AcDbEntity
  8
0
100
AcDbLine
 10
124.7963301733134
 20
269.9129328275039
 30
0.0
 11
138.8603786933272
 21
273.8944991383328
 31
0.0
  0
LINE
  5
776E
330
1F
100
AcDbEntity
  8
0
100
AcDbLine
 10
138.8603786933272
 20
273.8944991383328
 30
0.0
 11
140.2223632159202
 21
269.0835742625714
 31
0.0
  0
LINE
  5
776F
330
1F
100
AcDbEntity
  8
0
100
AcDbLine
 10
159.1660159004859
 20
267.4211144897646
 30
0.0
 11
159.1660159004841
 21
272.4211144897643
 31
0.0
  0
LINE
  5
7770
330
1F
100
AcDbEntity
  8
0
100
AcDbLine
 10
159.1660159004841
 20
272.4211144897643
 30
0.0
 11
173.7827984144569
 21
272.4211144897643
 31
0.0
  0
LINE
  5
7771
330
1F
100
AcDbEntity
  8
0
100
AcDbLine
 10
137.3358082904633
 20
268.2663835490157
 30
0.0
 11
140.2223632159202
 21
269.0835742625714
 31
0.0
  0
LINE
  5
7772
330
1F
100
AcDbEntity
  8
0
100
AcDbLine
 10
140.0597773356494
 20
258.6445337974938
 30
0.0
 11
137.3358082904633
 21
268.2663835490157
 31
0.0
  0
LINE
  5
7773
330
1F
100
AcDbEntity
  8
0
100
AcDbLine
 10
162.1660159004841
 20
257.4371827001767
 30
0.0
 11
162.1660159004841
 21
267.4211144897642
 31
0.0
  0
LINE
  5
7774
330
1F
100
AcDbEntity
  8
0
100
AcDbLine
 10
159.1660159004823
 20
267.4211144897642
 30
0.0
 11
162.1660159004841
 21
267.4211144897642
 31
0.0
  0
LINE
  5
7775
330
1F
100
AcDbEntity
  8
0
100
AcDbLine
 10
138.8603786933272
 20
273.8944991383328
 30
0.0
 11
140.2223632159202
 21
269.0835742625714
 31
0.0
  0
LINE
  5
7776
330
1F
100
AcDbEntity
  8
0
100
AcDbLine
 10
159.1660159004841
 20
272.4211144897643
 30
0.0
 11
159.1660159004823
 21
267.4211144897642
 31
0.0
  0
LINE
  5
7777
330
1F
100
AcDbEntity
  8
0
100
AcDbLine
 10
20.85306257377397
 20
315.6760079608994
 30
0.0
 11
20.7824970781685
 21
312.6768379905862
 31
0.0
  0
LINE
  5
7778
330
1F
100
AcDbEntity
  8
0
100
AcDbLine
 10
20.7824970781685
 20
312.6768379905862
 30
0.0
 11
10.78526384379075
 21
312.9120563092711
 31
0.0
  0
LINE
  5
7779
330
1F
100
AcDbEntity
  8
0
100
AcDbLine
 10
13.76075608012434
 20
348.8371435511544
 30
0.0
 11
44.09042612508164
 21
341.9124421037813
 31
0.0
  0
LINE
  5
777A
330
1F
100
AcDbEntity
  8
0
100
AcDbLine
 10
37.52755767020062
 20
330.2255868489415
 30
0.0
 11
4.765164481692411
 21
329.9970424044586
 31
0.0
  0
LINE
  5
777B
330
1F
100
AcDbEntity
  8
0
100
AcDbLine
 10
46.61445940902011
 20
340.2909440366912
 30
0.0
 11
65.41916821122322
 21
315.7182836365891
 31
0.0
  0
LINE
  5
777C
330
1F
100
AcDbEntity
  8
0
100
AcDbLine
 10
58.60585988772982
 20
302.6819557483118
 30
0.0
 11
37.52755767020062
 21
330.2255868489415
 31
0.0
  0
LINE
  5
777D
330
1F
100
AcDbEntity
  8
0
100
AcDbLine
 10
46.61445940902011
 20
340.2909440366912
 30
0.0
 11
44.99296134193172
 21
337.7669107527536
 31
0.0
  0
LINE
  5
777E
330
1F
100
AcDbEntity
  8
0
100
AcDbLine
 10
44.99296134193172
 20
337.7669107527536
 30
0.0
 11
42.46892805799325
 21
339.3884088198439
 31
0.0
  0
LINE
  5
777F
330
1F
100
AcDbEntity
  8
0
100
AcDbLine
 10
42.46892805799325
 20
339.3884088198439
 30
0.0
 11
44.09042612508164
 21
341.9124421037813
 31
0.0
  0
LINE
  5
7780
330
1F
100
AcDbEntity
  8
0
100
AcDbLine
 10
66.96078231863975
 20
273.1371816196429
 30
0.0
 11
58.60585988772982
 21
302.6819557483118
 31
0.0
  0
LINE
  5
7783
330
1F
100
AcDbEntity
  8
0
100
AcDbLine
 10
72.41361226868504
 20
274.6791792353015
 30
0.0
 11
71.05302613721504
 21
279.490499779482
 31
0.0
  0
LINE
  5
7784
330
1F
100
AcDbEntity
  8
0
100
AcDbLine
 10
71.05302613721504
 20
279.490499779482
 30
0.0
 11
75.86434668139554
 21
280.8510859109519
 31
0.0
  0
LINE
  5
7785
330
1F
100
AcDbEntity
  8
0
100
AcDbLine
 10
72.41361226868504
 20
274.6791792353015
 30
0.0
 11
66.96078231863975
 21
273.1371816196429
 31
0.0
  0
LINE
  5
7786
330
1F
100
AcDbEntity
  8
0
100
AcDbLine
 10
66.76282054232252
 20
313.0360087787244
 30
0.0
 11
64.0805456844555
 21
311.6923564476256
 31
0.0
  0
LINE
  5
7787
330
1F
100
AcDbEntity
  8
0
100
AcDbLine
 10
64.0805456844555
 20
311.6923564476256
 30
0.0
 11
62.73689335335802
 21
314.3746313054903
 31
0.0
  0
LINE
  5
7788
330
1F
100
AcDbEntity
  8
0
100
AcDbLine
 10
62.73689335335802
 20
314.3746313054903
 30
0.0
 11
65.41916821122322
 21
315.7182836365882
 31
0.0
  0
LINE
  5
7789
330
1F
100
AcDbEntity
  8
0
100
AcDbLine
 10
66.76282054232252
 20
313.036008778724
 30
0.0
 11
75.86434668139554
 21
280.8510859109519
 31
0.0
  0
LINE
  5
778A
330
1F
100
AcDbEntity
  8
0
100
AcDbLine
 10
6.10597783478261
 20
336.2803029571178
 30
0.0
 11
3.219185508276498
 21
335.4639512782351
 31
0.0
  0
LINE
  5
778B
330
1F
100
AcDbEntity
  8
0
100
AcDbLine
 10
3.384805571842665
 20
345.9029440454783
 30
0.0
 11
6.10597783478261
 21
336.2803029571178
 31
0.0
  0
LINE
  5
778C
330
1F
100
AcDbEntity
  8
0
100
AcDbLine
 10
13.76075608012434
 20
348.8371435511544
 30
0.0
 11
3.384805571842665
 21
345.9029440454783
 31
0.0
  0
LINE
  5
778D
330
1F
100
AcDbEntity
  8
0
100
AcDbLine
 10
4.765164481692411
 20
329.9970424044586
 30
0.0
 11
3.219185508276498
 21
335.4639512782351
 31
0.0
  0
LINE
  5
778E
330
1F
100
AcDbEntity
  8
0
100
AcDbLine
 10
26.5327883975233
 20
315.5423734314719
 30
0.0
 11
20.85306257377397
 21
315.6760079608994
 31
0.0
  0
LINE
  5
778F
330
1F
100
AcDbEntity
  8
0
100
AcDbLine
 10
210.5925811928337
 20
420.3629736668284
 30
0.0
 11
213.8005583717277
 21
377.5809552299461
 31
0.0
  0
LINE
  5
7790
330
1F
100
AcDbEntity
  8
0
100
AcDbLine
 10
204.478425747764
 20
377.0821450936182
 30
0.0
 11
201.6079668741822
 21
415.3629736668285
 31
0.0
  0
LINE
  5
7792
330
1F
100
AcDbEntity
  8
0
100
AcDbLine
 10
244.6709032721974
 20
322.9651024512332
 30
0.0
 11
219.8379428171047
 21
337.3462655340222
 31
0.0
  0
LINE
  5
7793
330
1F
100
AcDbEntity
  8
0
100
AcDbLine
 10
222.1317941397447
 20
339.2797199838669
 30
0.0
 11
219.8379428171047
 21
337.3462655340213
 31
0.0
  0
LINE
  5
7794
330
1F
100
AcDbEntity
  8
0
100
AcDbLine
 10
220.1983396898995
 20
341.5735713065069
 30
0.0
 11
222.1317941397447
 21
339.2797199838669
 31
0.0
  0
LINE
  5
7795
330
1F
100
AcDbEntity
  8
0
100
AcDbLine
 10
217.9044883672613
 20
339.6401168566618
 30
0.0
 11
220.1983396898995
 21
341.5735713065069
 31
0.0
  0
LINE
  5
7796
330
1F
100
AcDbEntity
  8
0
100
AcDbLine
 10
208.0490174356164
 20
374.7906663137405
 30
0.0
 11
205.1179822017512
 21
374.1511098597525
 31
0.0
  0
LINE
  5
7797
330
1F
100
AcDbEntity
  8
0
100
AcDbLine
 10
207.4094609816293
 20
377.7217015476066
 30
0.0
 11
208.0490174356164
 21
374.7906663137405
 31
0.0
  0
LINE
  5
7798
330
1F
100
AcDbEntity
  8
0
100
AcDbLine
 10
204.478425747764
 20
377.0821450936182
 30
0.0
 11
207.4094609816293
 21
377.7217015476066
 31
0.0
  0
LINE
  5
7799
330
1F
100
AcDbEntity
  8
0
100
AcDbLine
 10
217.9044883672595
 20
339.6401168566608
 30
0.0
 11
205.1179822017493
 21
374.1511098597521
 31
0.0
  0
LINE
  5
779A
330
1F
100
AcDbEntity
  8
0
100
AcDbLine
 10
215.2265308831684
 20
373.7322316827984
 30
0.0
 11
224.1348886697633
 21
349.6884257155707
 31
0.0
  0
LINE
  5
779B
330
1F
100
AcDbEntity
  8
0
100
AcDbLine
 10
213.8005583717277
 20
377.5809552299461
 30
0.0
 11
215.2265308831684
 21
373.7322316827984
 31
0.0
  0
LINE
  5
779C
330
1F
100
AcDbEntity
  8
0
100
AcDbLine
 10
257.104236605499
 20
327.9651024512332
 30
0.0
 11
259.604236605499
 21
327.9651024512332
 31
0.0
  0
LINE
  5
779D
330
1F
100
AcDbEntity
  8
0
100
AcDbLine
 10
257.104236605499
 20
322.9651024512332
 30
0.0
 11
257.104236605499
 21
327.9651024512332
 31
0.0
  0
LINE
  5
779E
330
1F
100
AcDbEntity
  8
0
100
AcDbLine
 10
244.6709032721974
 20
322.9651024512332
 30
0.0
 11
257.104236605499
 21
322.9651024512327
 31
0.0
  0
LINE
  5
779F
330
1F
100
AcDbEntity
  8
0
100
AcDbLine
 10
224.1348886697633
 20
349.6884257155707
 30
0.0
 11
259.604236605499
 21
338.1452027851474
 31
0.0
  0
LINE
  5
77A0
330
1F
100
AcDbEntity
  8
0
100
AcDbLine
 10
206.2330456694199
 20
420.3629736668284
 30
0.0
 11
206.2330456694199
 21
415.3769712578633
 31
0.0
  0
LINE
  5
77A1
330
1F
100
AcDbEntity
  8
0
100
AcDbLine
 10
206.2330456694199
 20
420.3629736668284
 30
0.0
 11
210.5925811928337
 21
420.3629736668284
 31
0.0
  0
LINE
  5
77A2
330
1F
100
AcDbEntity
  8
0
100
AcDbLine
 10
201.6069172754415
 20
415.3769712578633
 30
0.0
 11
206.2330456694199
 21
415.3769712578633
 31
0.0
  0
LINE
  5
77A5
330
1F
100
AcDbEntity
  8
0
100
AcDbLine
 10
259.604236605499
 20
338.1452027851474
 30
0.0
 11
259.604236605499
 21
327.9651024512332
 31
0.0
  0
LINE
  5
77A6
330
1F
100
AcDbEntity
  8
0
100
AcDbLine
 10
245.2157525564635
 20
354.1722055972869
 30
0.0
 11
236.4882736592408
 21
359.4129645983376
 31
0.0
  0
LINE
  5
77A7
330
1F
100
AcDbEntity
  8
0
100
AcDbLine
 10
388.4406558964092
 20
341.0123516449014
 30
0.0
 11
385.5698765683192
 21
340.1413602273738
 31
0.0
  0
LINE
  5
77A8
330
1F
100
AcDbEntity
  8
0
100
AcDbLine
 10
389.8318764227933
 20
332.7452513544258
 30
0.0
 11
358.3037554512249
 21
314.1915634450465
 31
0.0
  0
LINE
  5
77AA
330
1F
100
AcDbEntity
  8
0
100
AcDbLine
 10
384.6635671313106
 20
343.1285474076966
 30
0.0
 11
349.5586159643462
 21
324.4404425603575
 31
0.0
  0
LINE
  5
77AB
330
1F
100
AcDbEntity
  8
0
100
AcDbLine
 10
385.5698765683192
 20
340.1413602273738
 30
0.0
 11
384.6988851507904
 21
343.0121395554634
 31
0.0
  0
LINE
  5
77AC
330
1F
100
AcDbEntity
  8
0
100
AcDbLine
 10
358.3037554512249
 20
314.1915634450465
 30
0.0
 11
358.8769662757313
 21
289.511984409055
 31
0.0
  0
LINE
  5
77AD
330
1F
100
AcDbEntity
  8
0
100
AcDbLine
 10
331.5211684021815
 20
304.8809304476963
 30
0.0
 11
331.8230265331548
 21
291.8844354714392
 31
0.0
  0
LINE
  5
77AE
330
1F
100
AcDbEntity
  8
0
100
AcDbLine
 10
349.0596874760521
 20
320.2272406468976
 30
0.0
 11
347.2025507634699
 21
322.5833058477756
 31
0.0
  0
LINE
  5
77AF
330
1F
100
AcDbEntity
  8
0
100
AcDbLine
 10
351.4157526769268
 20
322.0843773594816
 30
0.0
 11
349.0596874760521
 21
320.2272406468976
 31
0.0
  0
LINE
  5
77B0
330
1F
100
AcDbEntity
  8
0
100
AcDbLine
 10
349.5586159643462
 20
324.4404425603575
 30
0.0
 11
351.4157526769268
 21
322.0843773594816
 31
0.0
  0
LINE
  5
77B1
330
1F
100
AcDbEntity
  8
0
100
AcDbLine
 10
347.2025507634699
 20
322.5833058477756
 30
0.0
 11
331.5211684021815
 21
304.8809304476963
 31
0.0
  0
LINE
  5
77B2
330
1F
100
AcDbEntity
  8
0
100
AcDbLine
 10
487.8831707632215
 20
346.213024346074
 30
0.0
 11
435.7821167810997
 21
348.4529817763814
 31
0.0
  0
ARC
  5
77B3
330
1F
100
AcDbEntity
  8
0
100
AcDbCircle
 10
422.7117068463085
 20
327.3341777226099
 30
0.0
 40
6.666666666649574
100
AcDbArc
 50
1.330519341938547
 51
92.19543151212153
  0
ARC
  5
77B4
330
1F
100
AcDbEntity
  8
0
100
AcDbCircle
 10
449.3528975715071
 20
328.7406836264413
 30
0.0
 40
6.666666666649688
100
AcDbArc
 50
91.33051934199029
 51
181.3305193419385
  0
ARC
  5
77B5
330
1F
100
AcDbEntity
  8
0
100
AcDbCircle
 10
461.8309719702373
 20
328.9666672264987
 30
0.0
 40
6.666666666649462
100
AcDbArc
 50
1.330519341938547
 51
83.49762128226187
  0
LINE
  5
77B6
330
1F
100
AcDbEntity
  8
0
100
AcDbLine
 10
430.8995641482834
 20
343.3382305812811
 30
0.0
 11
430.7834648671395
 21
348.336882495239
 31
0.0
  0
LINE
  5
77B7
330
1F
100
AcDbEntity
  8
0
100
AcDbLine
 10
430.7992114482295
 20
347.6589138039474
 30
0.0
 11
430.8995641482834
 21
343.3382305812811
 31
0.0
  0
LINE
  5
77B8
330
1F
100
AcDbEntity
  8
0
100
AcDbLine
 10
435.7821167810997
 20
348.4529817763814
 30
0.0
 11
435.8982160622416
 21
343.454329862424
 31
0.0
  0
LINE
  5
77B9
330
1F
100
AcDbEntity
  8
0
100
AcDbLine
 10
435.8982160622416
 20
343.454329862424
 30
0.0
 11
430.8995641482834
 21
343.3382305812811
 31
0.0
  0
LINE
  5
77BA
330
1F
100
AcDbEntity
  8
0
100
AcDbLine
 10
461.6672135834086
 20
335.6951619874844
 30
0.0
 11
449.1980985299814
 21
335.4055528450345
 31
0.0
  0
LINE
  5
77BB
330
1F
100
AcDbEntity
  8
0
100
AcDbLine
 10
462.5859350585833
 20
335.5904482599754
 30
0.0
 11
461.6672135834086
 21
335.6951619874844
 31
0.0
  0
LINE
  5
77BC
330
1F
100
AcDbEntity
  8
0
100
AcDbLine
 10
387.5696644788841
 20
343.883130972991
 30
0.0
 11
388.4406558964092
 21
341.0123516449014
 31
0.0
  0
LINE
  5
77BF
330
1F
100
AcDbEntity
  8
0
100
AcDbLine
 10
430.7834648671395
 20
348.336882495239
 30
0.0
 11
387.5343464594024
 21
343.999538825226
 31
0.0
  0
LINE
  5
77C0
330
1F
100
AcDbEntity
  8
0
100
AcDbLine
 10
422.4563192957758
 20
333.9959508832089
 30
0.0
 11
389.8318764227933
 21
332.7452513544258
 31
0.0
  0
LINE
  5
77C1
330
1F
100
AcDbEntity
  8
0
100
AcDbLine
 10
469.3562173873107
 20
292.0779885750182
 30
0.0
 11
468.495841188831
 21
329.1214662680227
 31
0.0
  0
LINE
  5
77C2
330
1F
100
AcDbEntity
  8
0
100
AcDbLine
 10
430.2201479223586
 20
291.1690095923075
 30
0.0
 11
429.3765760649021
 21
327.4889767641357
 31
0.0
  0
LINE
  5
77C3
330
1F
100
AcDbEntity
  8
0
100
AcDbLine
 10
442.6880283529135
 20
328.5858845849134
 30
0.0
 11
443.5498863595494
 21
291.4786076753571
 31
0.0
  0
ARC
  5
77C4
330
1F
100
AcDbEntity
  8
0
100
AcDbCircle
 10
467.226343600496
 20
292.0285198742941
 30
0.0
 40
57.98849052426639
100
AcDbArc
 50
1.330519341938547
 51
69.13158944132125
  0
LINE
  5
77C5
330
1F
100
AcDbEntity
  8
0
100
AcDbLine
 10
485.1309290445751
 20
292.4443738955393
 30
0.0
 11
484.5504326388526
 21
317.4376334653307
 31
0.0
  0
LINE
  5
77C6
330
1F
100
AcDbEntity
  8
0
100
AcDbLine
 10
488.549354170018
 20
317.5305128902464
 30
0.0
 11
489.1298505757421
 21
292.5372533204548
 31
0.0
  0
LINE
  5
77C7
330
1F
100
AcDbEntity
  8
0
100
AcDbLine
 10
484.5504326388526
 20
317.4376334653307
 30
0.0
 11
488.549354170018
 21
317.5305128902464
 31
0.0
  0
LINE
  5
77C8
330
1F
100
AcDbEntity
  8
0
100
AcDbLine
 10
820.8806046369572
 20
260.1504038759976
 30
0.0
 11
872.9155997888629
 21
263.5995363580714
 31
0.0
  0
LINE
  5
77C9
330
1F
100
AcDbEntity
  8
0
100
AcDbLine
 10
772.5424344393594
 20
263.4823398120625
 30
0.0
 11
773.346531939349
 21
266.3725694241366
 31
0.0
  0
LINE
  5
77CA
330
1F
100
AcDbEntity
  8
0
100
AcDbLine
 10
815.8806046369573
 20
260.1504038759976
 30
0.0
 11
772.5424344393594
 21
263.4823398120625
 31
0.0
  0
LINE
  5
77CB
330
1F
100
AcDbEntity
  8
0
100
AcDbLine
 10
773.346531939349
 20
266.3725694241366
 30
0.0
 11
770.4563023272749
 21
267.1766669241242
 31
0.0
  0
LINE
  5
77CC
330
1F
100
AcDbEntity
  8
0
100
AcDbLine
 10
742.6275875987248
 20
292.6035483284413
 30
0.0
 11
774.5780220121032
 21
274.7869412487253
 31
0.0
  0
LINE
  5
77CD
330
1F
100
AcDbEntity
  8
0
100
AcDbLine
 10
715.636030036434
 20
301.2897831981973
 30
0.0
 11
731.7242310388881
 21
283.9563001070528
 31
0.0
  0
LINE
  5
77CE
330
1F
100
AcDbEntity
  8
0
100
AcDbLine
 10
715.636030036434
 20
314.7897831981518
 30
0.0
 11
715.636030036434
 21
301.2897831981973
 31
0.0
  0
LINE
  5
77CF
330
1F
100
AcDbEntity
  8
0
100
AcDbLine
 10
720.636030036434
 20
317.2897831981519
 30
0.0
 11
720.636030036434
 21
314.7897831981518
 31
0.0
  0
LINE
  5
77D0
330
1F
100
AcDbEntity
  8
0
100
AcDbLine
 10
720.636030036434
 20
314.7897831981518
 30
0.0
 11
715.636030036434
 21
314.7897831981518
 31
0.0
  0
LINE
  5
77D1
330
1F
100
AcDbEntity
  8
0
100
AcDbLine
 10
742.627587598723
 20
317.2897831981536
 30
0.0
 11
742.6275875987248
 21
292.6035483284413
 31
0.0
  0
LINE
  5
77D2
330
1F
100
AcDbEntity
  8
0
100
AcDbLine
 10
770.4563023272749
 20
267.1766669241242
 30
0.0
 11
769.6522048272854
 21
264.2864373120519
 31
0.0
  0
LINE
  5
77D3
330
1F
100
AcDbEntity
  8
0
100
AcDbLine
 10
734.1227834515048
 20
282.1543716057149
 30
0.0
 11
735.9247119528427
 21
284.5529240183314
 31
0.0
  0
LINE
  5
77D4
330
1F
100
AcDbEntity
  8
0
100
AcDbLine
 10
735.9247119528427
 20
284.5529240183314
 30
0.0
 11
733.5261595402263
 21
286.3548525196693
 31
0.0
  0
LINE
  5
77D5
330
1F
100
AcDbEntity
  8
0
100
AcDbLine
 10
733.5261595402263
 20
286.3548525196693
 30
0.0
 11
731.7242310388881
 21
283.9563001070528
 31
0.0
  0
LINE
  5
77D6
330
1F
100
AcDbEntity
  8
0
100
AcDbLine
 10
769.6522048272854
 20
264.2864373120519
 30
0.0
 11
734.1227834515048
 21
282.1543716057149
 31
0.0
  0
LINE
  5
77D7
330
1F
100
AcDbEntity
  8
0
100
AcDbLine
 10
853.1366338508505
 20
280.2363152525686
 30
0.0
 11
853.1366338508505
 21
317.2897831981519
 31
0.0
  0
LINE
  5
77D8
330
1F
100
AcDbEntity
  8
0
100
AcDbLine
 10
827.3233431157022
 20
317.2897831981554
 30
0.0
 11
827.3233431157022
 21
280.1724988300066
 31
0.0
  0
LINE
  5
77D9
330
1F
100
AcDbEntity
  8
0
100
AcDbLine
 10
813.9900097824011
 20
280.960020897237
 30
0.0
 11
813.9900097824011
 21
317.2897831981554
 31
0.0
  0
LINE
  5
77DA
330
1F
100
AcDbEntity
  8
0
100
AcDbLine
 10
774.5780220121032
 20
274.7869412487253
 30
0.0
 11
807.2227098371167
 21
274.2941138031147
 31
0.0
  0
ARC
  5
77DD
330
1F
100
AcDbEntity
  8
0
100
AcDbCircle
 10
846.4699671842009
 20
280.2363152525686
 30
0.0
 40
6.666666666650197
100
AcDbArc
 50
277.8328980595946
 51
0.0
  0
ARC
  5
77DE
330
1F
100
AcDbEntity
  8
0
100
AcDbCircle
 10
833.990009782352
 20
280.1724988300066
 30
0.0
 40
6.666666666649859
100
AcDbArc
 50
180.0
 51
270.0
  0
LINE
  5
77DF
330
1F
100
AcDbEntity
  8
0
100
AcDbLine
 10
833.990009782352
 20
273.5058321633569
 30
0.0
 11
846.462487630437
 21
273.5058321633569
 31
0.0
  0
LINE
  5
77E0
330
1F
100
AcDbEntity
  8
0
100
AcDbLine
 10
846.462487630437
 20
273.5058321633569
 30
0.0
 11
847.3785299647952
 21
273.6318502388112
 31
0.0
  0
ARC
  5
77E1
330
1F
100
AcDbEntity
  8
0
100
AcDbCircle
 10
807.3233431157515
 20
280.960020897237
 30
0.0
 40
6.666666666650347
100
AcDbArc
 50
269.135087829925
 51
0.0
  0
LINE
  5
77E2
330
1F
100
AcDbEntity
  8
0
100
AcDbLine
 10
820.8806046369572
 20
265.1504038759977
 30
0.0
 11
815.8806046369573
 21
265.1504038759977
 31
0.0
  0
LINE
  5
77E3
330
1F
100
AcDbEntity
  8
0
100
AcDbLine
 10
820.8806046369572
 20
260.1504038759976
 30
0.0
 11
820.8806046369572
 21
265.1504038759977
 31
0.0
  0
LINE
  5
77E4
330
1F
100
AcDbEntity
  8
0
100
AcDbLine
 10
815.8806046369573
 20
260.8285554086105
 30
0.0
 11
815.8806046369573
 21
265.1504038759977
 31
0.0
  0
LINE
  5
77E5
330
1F
100
AcDbEntity
  8
0
100
AcDbLine
 10
815.8806046369573
 20
265.1504038759977
 30
0.0
 11
815.8806046369573
 21
260.1504038759976
 31
0.0
  0
ARC
  5
77E6
330
1F
100
AcDbEntity
  8
0
100
AcDbCircle
 10
851.0061856585451
 20
317.2897831981554
 30
0.0
 40
57.98849052426639
100
AcDbArc
 50
292.1989299007361
 51
0.0
  0
LINE
  5
77E7
330
1F
100
AcDbEntity
  8
0
100
AcDbLine
 10
872.9155997888629
 20
292.2897831981519
 30
0.0
 11
868.9155997888629
 21
292.2897831981519
 31
0.0
  0
LINE
  5
77E8
330
1F
100
AcDbEntity
  8
0
100
AcDbLine
 10
872.9155997888629
 20
317.2897831981519
 30
0.0
 11
872.9155997888629
 21
292.2897831981519
 31
0.0
  0
LINE
  5
77E9
330
1F
100
AcDbEntity
  8
0
100
AcDbLine
 10
868.9155997888629
 20
292.2897831981519
 30
0.0
 11
868.9155997888629
 21
317.2897831981519
 31
0.0
  0
LINE
  5
77EA
330
1F
100
AcDbEntity
  8
0
100
AcDbLine
 10
331.8230265331548
 20
291.8844354714392
 30
0.0
 11
341.8203303610717
 21
292.1166340337279
 31
0.0
  0
LINE
  5
77EB
330
1F
100
AcDbEntity
  8
0
100
AcDbLine
 10
341.8203303610717
 20
292.1166340337279
 30
0.0
 11
341.8899899297576
 21
289.1174428853531
 31
0.0
  0
LINE
  5
77EC
330
1F
100
AcDbEntity
  8
0
100
AcDbLine
 10
525.1991994298314
 20
293.3750042871931
 30
0.0
 11
489.1298505757421
 21
292.5372533204548
 31
0.0
  0
LINE
  5
77ED
330
1F
100
AcDbEntity
  8
0
100
AcDbLine
 10
485.1309290445751
 20
292.4443738955393
 30
0.0
 11
469.3562173873107
 21
292.0779885750182
 31
0.0
  0
LINE
  5
77EE
330
1F
100
AcDbEntity
  8
0
100
AcDbLine
 10
443.5498863595494
 20
291.4786076753571
 30
0.0
 11
430.2201479223586
 21
291.1690095923075
 31
0.0
  0
LINE
  5
77EF
330
1F
100
AcDbEntity
  8
0
100
AcDbLine
 10
358.8769662757313
 20
289.511984409055
 30
0.0
 11
341.8899899297576
 21
289.1174428853531
 31
0.0
  0
LINE
  5
77F0
330
1F
100
AcDbEntity
  8
0
100
AcDbLine
 10
257.8318423106484
 20
313.7519125184317
 30
0.0
 11
273.5880442384641
 21
314.5991827721591
 31
0.0
  0
LINE
  5
77F1
330
1F
100
AcDbEntity
  8
0
100
AcDbLine
 10
256.7205743912382
 20
259.9243388283521
 30
0.0
 11
308.8657049094181
 21
259.2742630021785
 31
0.0
  0
LINE
  5
77F2
330
1F
100
AcDbEntity
  8
0
100
AcDbLine
 10
313.8584915057363
 20
259.542743920716
 30
0.0
 11
356.955226315922
 21
265.1969672854884
 31
0.0
  0
LINE
  5
77F3
330
1F
100
AcDbEntity
  8
0
100
AcDbLine
 10
356.9163748244791
 20
265.3122439621147
 30
0.0
 11
355.9582430802529
 21
268.1551269285246
 31
0.0
  0
LINE
  5
77F4
330
1F
100
AcDbEntity
  8
0
100
AcDbLine
 10
354.3155614906682
 20
276.375956507165
 30
0.0
 11
385.2632178210006
 21
295.882476306866
 31
0.0
  0
LINE
  5
77F5
330
1F
100
AcDbEntity
  8
0
100
AcDbLine
 10
355.9582430802529
 20
268.1551269285246
 30
0.0
 11
358.8011260466647
 21
269.1132586727508
 31
0.0
  0
LINE
  5
77F6
330
1F
100
AcDbEntity
  8
0
100
AcDbLine
 10
383.9376612183823
 20
320.533096821091
 30
0.0
 11
400.9047053878965
 21
321.4454786174392
 31
0.0
  0
LINE
  5
77F7
330
1F
100
AcDbEntity
  8
0
100
AcDbLine
 10
401.0657939390203
 20
318.4498066596479
 30
0.0
 11
400.9047053878965
 21
321.4454786174392
 31
0.0
  0
LINE
  5
77F8
330
1F
100
AcDbEntity
  8
0
100
AcDbLine
 10
385.2632178210006
 20
295.882476306866
 30
0.0
 11
383.9376612183823
 21
320.533096821091
 31
0.0
  0
LINE
  5
77F9
330
1F
100
AcDbEntity
  8
0
100
AcDbLine
 10
411.0513671316584
 20
318.9867684967266
 30
0.0
 11
401.0657939390203
 21
318.4498066596479
 31
0.0
  0
LINE
  5
77FA
330
1F
100
AcDbEntity
  8
0
100
AcDbLine
 10
411.7494175198588
 20
306.0055233463318
 30
0.0
 11
411.0513671316584
 21
318.9867684967266
 31
0.0
  0
LINE
  5
77FB
330
1F
100
AcDbEntity
  8
0
100
AcDbLine
 10
396.6151685474306
 20
287.8331719407796
 30
0.0
 11
411.7494175198588
 21
306.0055233463318
 31
0.0
  0
LINE
  5
77FC
330
1F
100
AcDbEntity
  8
0
100
AcDbLine
 10
394.3168331640098
 20
285.9050499360001
 30
0.0
 11
392.3887111592303
 21
288.2033853194207
 31
0.0
  0
LINE
  5
77FD
330
1F
100
AcDbEntity
  8
0
100
AcDbLine
 10
392.3887111592303
 20
288.2033853194207
 30
0.0
 11
394.6870465426509
 21
290.1315073242022
 31
0.0
  0
LINE
  5
77FE
330
1F
100
AcDbEntity
  8
0
100
AcDbLine
 10
394.6870465426509
 20
290.1315073242022
 30
0.0
 11
396.6151685474306
 21
287.8331719407796
 31
0.0
  0
LINE
  5
77FF
330
1F
100
AcDbEntity
  8
0
100
AcDbLine
 10
358.8011260466647
 20
269.1132586727508
 30
0.0
 11
359.759257790889
 21
266.2703757063409
 31
0.0
  0
LINE
  5
7800
330
1F
100
AcDbEntity
  8
0
100
AcDbLine
 10
359.7981092823338
 20
266.1550990297129
 30
0.0
 11
394.3168331640118
 21
285.9050499360001
 31
0.0
  0
LINE
  5
7801
330
1F
100
AcDbEntity
  8
0
100
AcDbLine
 10
299.3640946363303
 20
315.9852579735743
 30
0.0
 11
312.6781922264799
 21
316.7012070896762
 31
0.0
  0
LINE
  5
7802
330
1F
100
AcDbEntity
  8
0
100
AcDbLine
 10
273.5880442384641
 20
314.5991827721591
 30
0.0
 11
275.5776740602832
 21
277.5991711509832
 31
0.0
  0
LINE
  5
7803
330
1F
100
AcDbEntity
  8
0
100
AcDbLine
 10
301.3571511564987
 20
278.9215219965645
 30
0.0
 11
299.3640946363303
 21
315.9852579735743
 31
0.0
  0
LINE
  5
7804
330
1F
100
AcDbEntity
  8
0
100
AcDbLine
 10
312.6781922264799
 20
316.7012070896762
 30
0.0
 11
314.6289618170522
 21
280.4238570369798
 31
0.0
  0
LINE
  5
7805
330
1F
100
AcDbEntity
  8
0
100
AcDbLine
 10
321.7444324809767
 20
274.1309448996817
 30
0.0
 11
354.3155614906682
 21
276.375956507165
 31
0.0
  0
LINE
  5
7808
330
1F
100
AcDbEntity
  8
0
100
AcDbLine
 10
281.6821054074553
 20
271.3134224757487
 30
0.0
 11
282.6035928749152
 21
271.2367741816142
 31
0.0
  0
LINE
  5
7809
330
1F
100
AcDbEntity
  8
0
100
AcDbLine
 10
282.6035928749152
 20
271.2367741816142
 30
0.0
 11
295.0580769194748
 21
271.9064986434369
 31
0.0
  0
LINE
  5
780A
330
1F
100
AcDbEntity
  8
0
100
AcDbLine
 10
308.5972239908788
 20
264.2670495984967
 30
0.0
 11
313.590010587197
 21
264.5355305170342
 31
0.0
  0
LINE
  5
780B
330
1F
100
AcDbEntity
  8
0
100
AcDbLine
 10
308.8657049094181
 20
259.2742630021785
 30
0.0
 11
308.5972239908788
 21
264.2670495984967
 31
0.0
  0
LINE
  5
780C
330
1F
100
AcDbEntity
  8
0
100
AcDbLine
 10
313.8220773564591
 20
260.219917097178
 30
0.0
 11
313.590010587197
 21
264.5355305170342
 31
0.0
  0
LINE
  5
780D
330
1F
100
AcDbEntity
  8
0
100
AcDbLine
 10
313.590010587197
 20
264.5355305170342
 30
0.0
 11
313.8584915057363
 21
259.542743920716
 31
0.0
  0
ARC
  5
780E
330
1F
100
AcDbEntity
  8
0
100
AcDbCircle
 10
282.2347228553572
 20
277.9571457090333
 30
0.0
 40
6.666666666649462
100
AcDbArc
 50
183.0780450569353
 51
265.245146997332
  0
ARC
  5
780F
330
1F
100
AcDbEntity
  8
0
100
AcDbCircle
 10
294.700102361423
 20
278.5635474385108
 30
0.0
 40
6.666666666649688
100
AcDbArc
 50
273.0780450569369
 51
3.078045056935339
  0
ARC
  5
7810
330
1F
100
AcDbEntity
  8
0
100
AcDbCircle
 10
321.2860106121279
 20
280.7818315950317
 30
0.0
 40
6.666666666649574
100
AcDbArc
 50
183.0780450569353
 51
273.9429572270189
  0
LINE
  5
7811
330
1F
100
AcDbEntity
  8
0
100
AcDbLine
 10
217.8105872281394
 20
311.5998190695409
 30
0.0
 11
253.8376130335928
 21
313.5371277836002
 31
0.0
  0
ARC
  5
7812
330
1F
100
AcDbEntity
  8
0
100
AcDbCircle
 10
275.7154188742025
 20
314.7135797096689
 30
0.0
 40
57.98849052426639
100
AcDbArc
 50
183.0780450569353
 51
250.8791151562232
  0
LINE
  5
7813
330
1F
100
AcDbEntity
  8
0
100
AcDbLine
 10
255.1800176262895
 20
288.5731948020057
 30
0.0
 11
253.8376130335928
 21
313.5371277836002
 31
0.0
  0
LINE
  5
7814
330
1F
100
AcDbEntity
  8
0
100
AcDbLine
 10
257.8318423106484
 20
313.7519125184317
 30
0.0
 11
259.1742469033434
 21
288.7879795368371
 31
0.0
  0
LINE
  5
7815
330
1F
100
AcDbEntity
  8
0
100
AcDbLine
 10
259.1742469033434
 20
288.7879795368371
 30
0.0
 11
255.1800176262895
 21
288.5731948020057
 31
0.0
  0
LINE
  5
7816
330
1F
100
AcDbEntity
  8
0
100
AcDbLine
 10
908.9946761828123
 20
317.2897831981519
 30
0.0
 11
872.9155997888629
 21
317.2897831981519
 31
0.0
  0
LINE
  5
7817
330
1F
100
AcDbEntity
  8
0
100
AcDbLine
 10
868.9155997888629
 20
317.2897831981519
 30
0.0
 11
853.1366338508505
 21
317.2897831981519
 31
0.0
  0
LINE
  5
7818
330
1F
100
AcDbEntity
  8
0
100
AcDbLine
 10
827.3233431157022
 20
317.2897831981554
 30
0.0
 11
813.9900097824011
 21
317.2897831981554
 31
0.0
  0
LINE
  5
7819
330
1F
100
AcDbEntity
  8
0
100
AcDbLine
 10
742.627587598723
 20
317.2897831981536
 30
0.0
 11
720.636030036434
 21
317.2897831981519
 31
0.0
  0
LINE
  5
781A
330
1F
100
AcDbEntity
  8
0
100
AcDbLine
 10
891.8518038126894
 20
384.9012534394469
 30
0.0
 11
891.8518038126894
 21
359.9012534394469
 31
0.0
  0
LINE
  5
781B
330
1F
100
AcDbEntity
  8
0
100
AcDbLine
 10
887.8518038126895
 20
359.9012534394469
 30
0.0
 11
887.8518038126895
 21
384.9012534394469
 31
0.0
  0
ARC
  5
781C
330
1F
100
AcDbEntity
  8
0
100
AcDbCircle
 10
869.9423896823718
 20
384.9012534394505
 30
0.0
 40
57.98849052426639
100
AcDbArc
 50
292.1989299007361
 51
0.0
  0
LINE
  5
781D
330
1F
100
AcDbEntity
  8
0
100
AcDbLine
 10
846.2595471395287
 20
384.9012534394505
 30
0.0
 11
846.2595471395287
 21
347.7839690713017
 31
0.0
  0
LINE
  5
781E
330
1F
100
AcDbEntity
  8
0
100
AcDbLine
 10
832.9262138062276
 20
348.5714911385321
 30
0.0
 11
832.9262138062276
 21
384.9012534394505
 31
0.0
  0
LINE
  5
781F
330
1F
100
AcDbEntity
  8
0
100
AcDbLine
 10
872.0728378746771
 20
347.8477854938637
 30
0.0
 11
872.0728378746771
 21
384.9012534394469
 31
0.0
  0
LINE
  5
7820
330
1F
100
AcDbEntity
  8
0
100
AcDbLine
 10
734.5722340602605
 20
382.4012534394469
 30
0.0
 11
734.5722340602605
 21
368.9012534394923
 31
0.0
  0
LINE
  5
7821
330
1F
100
AcDbEntity
  8
0
100
AcDbLine
 10
761.5637916225494
 20
384.9012534394487
 30
0.0
 11
761.5637916225514
 21
360.2150185697365
 31
0.0
  0
LINE
  5
7822
330
1F
100
AcDbEntity
  8
0
100
AcDbLine
 10
887.8518038126895
 20
384.9012534394469
 30
0.0
 11
872.0728378746771
 21
384.9012534394469
 31
0.0
  0
LINE
  5
7823
330
1F
100
AcDbEntity
  8
0
100
AcDbLine
 10
739.5722340602604
 20
382.4012534394469
 30
0.0
 11
734.5722340602605
 21
382.4012534394469
 31
0.0
  0
LINE
  5
7824
330
1F
100
AcDbEntity
  8
0
100
AcDbLine
 10
739.5722340602604
 20
384.9012534394469
 30
0.0
 11
739.5722340602604
 21
382.4012534394469
 31
0.0
  0
LINE
  5
7825
330
1F
100
AcDbEntity
  8
0
100
AcDbLine
 10
761.5637916225494
 20
384.9012534394487
 30
0.0
 11
739.5722340602604
 21
384.9012534394469
 31
0.0
  0
LINE
  5
7826
330
1F
100
AcDbEntity
  8
0
100
AcDbLine
 10
846.2595471395287
 20
384.9012534394505
 30
0.0
 11
832.9262138062276
 21
384.9012534394505
 31
0.0
  0
LINE
  5
7827
330
1F
100
AcDbEntity
  8
0
100
AcDbLine
 10
927.9308802066388
 20
384.9012534394469
 30
0.0
 11
891.8518038126894
 21
384.9012534394469
 31
0.0
  0
LINE
  5
7828
330
1F
100
AcDbEntity
  8
0
100
AcDbLine
 10
839.8168086607839
 20
327.7618741172929
 30
0.0
 11
891.8518038126894
 21
331.2110065993666
 31
0.0
  0
LINE
  5
7829
330
1F
100
AcDbEntity
  8
0
100
AcDbLine
 10
792.2827359631757
 20
333.9840396654317
 30
0.0
 11
789.3925063511013
 21
334.7881371654194
 31
0.0
  0
LINE
  5
782A
330
1F
100
AcDbEntity
  8
0
100
AcDbLine
 10
761.5637916225514
 20
360.2150185697365
 30
0.0
 11
793.5142260359297
 21
342.3984114900203
 31
0.0
  0
LINE
  5
782B
330
1F
100
AcDbEntity
  8
0
100
AcDbLine
 10
734.5722340602605
 20
368.9012534394923
 30
0.0
 11
750.6604350627147
 21
351.567770348348
 31
0.0
  0
LINE
  5
782C
330
1F
100
AcDbEntity
  8
0
100
AcDbLine
 10
789.3925063511013
 20
334.7881371654194
 30
0.0
 11
788.588408851112
 21
331.8979075533471
 31
0.0
  0
LINE
  5
782D
330
1F
100
AcDbEntity
  8
0
100
AcDbLine
 10
753.0589874753314
 20
349.7658418470101
 30
0.0
 11
754.8609159766693
 21
352.1643942596266
 31
0.0
  0
LINE
  5
782E
330
1F
100
AcDbEntity
  8
0
100
AcDbLine
 10
754.8609159766693
 20
352.1643942596266
 30
0.0
 11
752.4623635640526
 21
353.9663227609644
 31
0.0
  0
LINE
  5
782F
330
1F
100
AcDbEntity
  8
0
100
AcDbLine
 10
752.4623635640526
 20
353.9663227609644
 30
0.0
 11
750.6604350627147
 21
351.567770348348
 31
0.0
  0
LINE
  5
7830
330
1F
100
AcDbEntity
  8
0
100
AcDbLine
 10
788.588408851112
 20
331.8979075533471
 30
0.0
 11
753.0589874753314
 21
349.7658418470101
 31
0.0
  0
LINE
  5
7831
330
1F
100
AcDbEntity
  8
0
100
AcDbLine
 10
791.4786384631861
 20
331.0938100533576
 30
0.0
 11
792.2827359631757
 21
333.9840396654317
 31
0.0
  0
LINE
  5
7832
330
1F
100
AcDbEntity
  8
0
100
AcDbLine
 10
834.8168086607836
 20
327.7618741172929
 30
0.0
 11
791.4786384631861
 21
331.0938100533576
 31
0.0
  0
LINE
  5
7833
330
1F
100
AcDbEntity
  8
0
100
AcDbLine
 10
793.5142260359297
 20
342.3984114900203
 30
0.0
 11
826.1589138609434
 21
341.9055840444098
 31
0.0
  0
ARC
  5
7836
330
1F
100
AcDbEntity
  8
0
100
AcDbCircle
 10
865.4061712080274
 20
347.8477854938637
 30
0.0
 40
6.666666666650197
100
AcDbArc
 50
277.8328980595946
 51
0.0
  0
ARC
  5
7837
330
1F
100
AcDbEntity
  8
0
100
AcDbCircle
 10
852.9262138061785
 20
347.7839690713017
 30
0.0
 40
6.666666666649859
100
AcDbArc
 50
180.0
 51
270.0
  0
LINE
  5
7838
330
1F
100
AcDbEntity
  8
0
100
AcDbLine
 10
852.9262138061785
 20
341.1173024046521
 30
0.0
 11
865.3986916542633
 21
341.1173024046521
 31
0.0
  0
LINE
  5
7839
330
1F
100
AcDbEntity
  8
0
100
AcDbLine
 10
865.3986916542633
 20
341.1173024046521
 30
0.0
 11
866.3147339886219
 21
341.2433204801064
 31
0.0
  0
ARC
  5
783A
330
1F
100
AcDbEntity
  8
0
100
AcDbCircle
 10
826.259547139578
 20
348.5714911385321
 30
0.0
 40
6.666666666650347
100
AcDbArc
 50
269.135087829925
 51
0.0
  0
LINE
  5
783B
330
1F
100
AcDbEntity
  8
0
100
AcDbLine
 10
839.8168086607839
 20
332.7618741172928
 30
0.0
 11
834.8168086607836
 21
332.7618741172928
 31
0.0
  0
LINE
  5
783C
330
1F
100
AcDbEntity
  8
0
100
AcDbLine
 10
839.8168086607839
 20
327.7618741172929
 30
0.0
 11
839.8168086607839
 21
332.7618741172928
 31
0.0
  0
LINE
  5
783D
330
1F
100
AcDbEntity
  8
0
100
AcDbLine
 10
834.8168086607836
 20
328.4400256499057
 30
0.0
 11
834.8168086607836
 21
332.7618741172928
 31
0.0
  0
LINE
  5
783E
330
1F
100
AcDbEntity
  8
0
100
AcDbLine
 10
834.8168086607836
 20
332.7618741172928
 30
0.0
 11
834.8168086607836
 21
327.7618741172929
 31
0.0
  0
LINE
  5
783F
330
1F
100
AcDbEntity
  8
0
100
AcDbLine
 10
891.8518038126894
 20
359.9012534394469
 30
0.0
 11
887.8518038126895
 21
359.9012534394469
 31
0.0
  0
LINE
  5
7840
330
1F
100
AcDbEntity
  8
0
100
AcDbLine
 10
273.0474791268662
 20
331.839362437182
 30
0.0
 11
282.9915847576358
 21
332.8951859092122
 31
0.0
  0
LINE
  5
7841
330
1F
100
AcDbEntity
  8
0
100
AcDbLine
 10
282.9915847576358
 20
332.8951859092122
 30
0.0
 11
283.3083317992477
 21
329.9119542199814
 31
0.0
  0
LINE
  5
7842
330
1F
100
AcDbEntity
  8
0
100
AcDbLine
 10
442.0563293353389
 20
371.9170909589284
 30
0.0
 11
479.1134954249299
 21
409.2549299289485
 31
0.0
  0
LINE
  5
7843
330
1F
100
AcDbEntity
  8
0
100
AcDbLine
 10
470.9520288593611
 20
419.9593723720645
 30
0.0
 11
432.1674023827163
 21
380.8809891412439
 31
0.0
  0
LINE
  5
7844
330
1F
100
AcDbEntity
  8
0
100
AcDbLine
 10
400.954210502985
 20
350.6955581326729
 30
0.0
 11
361.6614894470276
 21
347.3739558190036
 31
0.0
  0
LINE
  5
7845
330
1F
100
AcDbEntity
  8
0
100
AcDbLine
 10
400.681946419485
 20
361.2040131897848
 30
0.0
 11
363.3761847563146
 21
360.6315289262793
 31
0.0
  0
LINE
  5
7846
330
1F
100
AcDbEntity
  8
0
100
AcDbLine
 10
341.7015304298711
 20
360.3210008700044
 30
0.0
 11
333.7497047615416
 21
354.2582321016043
 31
0.0
  0
LINE
  5
7847
330
1F
100
AcDbEntity
  8
0
100
AcDbLine
 10
339.8825969957707
 20
362.7066834059506
 30
0.0
 11
341.7015304298711
 21
360.3210008700044
 31
0.0
  0
LINE
  5
7848
330
1F
100
AcDbEntity
  8
0
100
AcDbLine
 10
333.7497047615416
 20
354.2582321016043
 30
0.0
 11
341.5938054353919
 21
351.7737991971517
 31
0.0
  0
LINE
  5
7849
330
1F
100
AcDbEntity
  8
0
100
AcDbLine
 10
358.8978313198368
 20
350.5930437821571
 30
0.0
 11
358.6701420083719
 21
347.6016409112727
 31
0.0
  0
LINE
  5
784A
330
1F
100
AcDbEntity
  8
0
100
AcDbLine
 10
361.8891745392921
 20
350.3653032576603
 30
0.0
 11
358.8978313198368
 21
350.5930437821571
 31
0.0
  0
LINE
  5
784B
330
1F
100
AcDbEntity
  8
0
100
AcDbLine
 10
361.6614936662263
 20
347.3740112512305
 30
0.0
 11
361.8891745392921
 21
350.3653032576603
 31
0.0
  0
LINE
  5
784C
330
1F
100
AcDbEntity
  8
0
100
AcDbLine
 10
341.5938054353919
 20
351.7737991971517
 30
0.0
 11
358.6701462275686
 21
347.6016963434996
 31
0.0
  0
LINE
  5
784D
330
1F
100
AcDbEntity
  8
0
100
AcDbLine
 10
363.3761847563146
 20
360.6315289262793
 30
0.0
 11
353.747443821585
 21
373.2777602655724
 31
0.0
  0
LINE
  5
784E
330
1F
100
AcDbEntity
  8
0
100
AcDbLine
 10
432.1674023827163
 20
380.8809891412439
 30
0.0
 11
400.681946419485
 21
361.2040131897848
 31
0.0
  0
LINE
  5
784F
330
1F
100
AcDbEntity
  8
0
100
AcDbLine
 10
437.8452384098072
 20
368.706398017569
 30
0.0
 11
403.840486554147
 21
351.5137332707063
 31
0.0
  0
LINE
  5
7850
330
1F
100
AcDbEntity
  8
0
100
AcDbLine
 10
400.1360353649507
 20
353.5818341838321
 30
0.0
 11
400.954210502985
 21
350.695558132672
 31
0.0
  0
LINE
  5
7851
330
1F
100
AcDbEntity
  8
0
100
AcDbLine
 10
403.0223114161108
 20
354.4000093218666
 30
0.0
 11
400.1360353649507
 21
353.5818341838321
 31
0.0
  0
LINE
  5
7852
330
1F
100
AcDbEntity
  8
0
100
AcDbLine
 10
403.8154572972435
 20
351.5010785798377
 30
0.0
 11
403.0223114161108
 21
354.4000093218666
 31
0.0
  0
LINE
  5
7853
330
1F
100
AcDbEntity
  8
0
100
AcDbLine
 10
435.1000044741286
 20
372.9134302846079
 30
0.0
 11
438.1583898491462
 21
368.9021034044754
 31
0.0
  0
LINE
  5
7854
330
1F
100
AcDbEntity
  8
0
100
AcDbLine
 10
439.0761420340403
 20
375.9449860081049
 30
0.0
 11
442.1076977575376
 21
371.9688484481967
 31
0.0
  0
LINE
  5
7855
330
1F
100
AcDbEntity
  8
0
100
AcDbLine
 10
439.0761420340403
 20
375.9449860081049
 30
0.0
 11
435.1000044741286
 21
372.9134302846079
 31
0.0
  0
LINE
  5
7856
330
1F
100
AcDbEntity
  8
0
100
AcDbLine
 10
470.9520288593611
 20
419.9593723720645
 30
0.0
 11
479.1134954249299
 21
409.2549299289485
 31
0.0
  0
LINE
  5
7857
330
1F
100
AcDbEntity
  8
0
100
AcDbLine
 10
300.6459489355966
 20
331.7527897663176
 30
0.0
 11
283.3083317992477
 21
329.9119542199814
 31
0.0
  0
LINE
  5
7858
330
1F
100
AcDbEntity
  8
0
100
AcDbLine
 10
353.747443821585
 20
373.2777602655724
 30
0.0
 11
339.8825969957707
 21
362.7066834059506
 31
0.0
  0
LINE
  5
7859
330
1F
100
AcDbEntity
  8
0
100
AcDbLine
 10
419.3152427025469
 20
400.7499237971622
 30
0.0
 11
419.2980686488644
 21
403.74987463874
 31
0.0
  0
LINE
  5
785A
330
1F
100
AcDbEntity
  8
0
100
AcDbLine
 10
419.2980686488644
 20
403.74987463874
 30
0.0
 11
416.2966402147121
 21
403.7326921261665
 31
0.0
  0
LINE
  5
785B
330
1F
100
AcDbEntity
  8
0
100
AcDbLine
 10
558.2641456963665
 20
404.5454246305287
 30
0.0
 11
561.264096537945
 21
404.5625986842118
 31
0.0
  0
LINE
  5
785C
330
1F
100
AcDbEntity
  8
0
100
AcDbLine
 10
558.2813197500509
 20
401.5454737889507
 30
0.0
 11
558.2641456963665
 21
404.5454246305287
 31
0.0
  0
LINE
  5
785D
330
1F
100
AcDbEntity
  8
0
100
AcDbLine
 10
400.9984537199433
 20
438.3151830219174
 30
0.0
 11
350.6961813146463
 21
449.5086322844144
 31
0.0
  0
LINE
  5
785E
330
1F
100
AcDbEntity
  8
0
100
AcDbLine
 10
266.0810685629913
 20
401.325865695153
 30
0.0
 11
276.833254485593
 21
418.8222959288395
 31
0.0
  0
LINE
  5
785F
330
1F
100
AcDbEntity
  8
0
100
AcDbLine
 10
383.0686546651342
 20
423.2867672717365
 30
0.0
 11
383.021717637308
 21
398.3034551770979
 31
0.0
  0
ARC
  5
7860
330
1F
100
AcDbEntity
  8
0
100
AcDbCircle
 10
312.9700506015433
 20
398.325865695153
 30
0.0
 40
17.77861666023672
100
AcDbArc
 50
116.308416229171
 51
180.0
  0
LINE
  5
7861
330
1F
100
AcDbEntity
  8
0
100
AcDbLine
 10
279.0424925776351
 20
420.8518936852124
 30
0.0
 11
311.6271924958692
 21
437.2536723414122
 31
0.0
  0
LINE
  5
7862
330
1F
100
AcDbEntity
  8
0
100
AcDbLine
 10
278.8628522419658
 20
416.6130578367991
 30
0.0
 11
276.8332544855948
 21
418.8222959288395
 31
0.0
  0
LINE
  5
7863
330
1F
100
AcDbEntity
  8
0
100
AcDbLine
 10
281.0720903340079
 20
418.6426555931721
 30
0.0
 11
278.8628522419658
 21
416.6130578367991
 31
0.0
  0
LINE
  5
7864
330
1F
100
AcDbEntity
  8
0
100
AcDbLine
 10
279.0424925776351
 20
420.8518936852124
 30
0.0
 11
281.0720903340079
 21
418.6426555931721
 31
0.0
  0
LINE
  5
7865
330
1F
100
AcDbEntity
  8
0
100
AcDbLine
 10
345.6961813146463
 20
449.2170457287246
 30
0.0
 11
314.3912741812473
 21
438.4197994513597
 31
0.0
  0
LINE
  5
7866
330
1F
100
AcDbEntity
  8
0
100
AcDbLine
 10
349.3545282164578
 20
436.1477249090076
 30
0.0
 11
305.0905166419725
 21
414.2629970220768
 31
0.0
  0
LINE
  5
7867
330
1F
100
AcDbEntity
  8
0
100
AcDbLine
 10
312.7933196058166
 20
434.489590656034
 30
0.0
 11
311.6271924958692
 21
437.2536723414122
 31
0.0
  0
LINE
  5
7868
330
1F
100
AcDbEntity
  8
0
100
AcDbLine
 10
315.5574012911948
 20
435.6557177659815
 30
0.0
 11
312.7933196058166
 21
434.489590656034
 31
0.0
  0
LINE
  5
7869
330
1F
100
AcDbEntity
  8
0
100
AcDbLine
 10
314.3912741812455
 20
438.4197994513597
 30
0.0
 11
315.5574012911948
 21
435.6557177659815
 31
0.0
  0
LINE
  5
786A
330
1F
100
AcDbEntity
  8
0
100
AcDbLine
 10
345.6961813146463
 20
444.5086322844145
 30
0.0
 11
345.6961813146463
 21
449.2170457287246
 31
0.0
  0
LINE
  5
786B
330
1F
100
AcDbEntity
  8
0
100
AcDbLine
 10
350.6961813146463
 20
444.5086322844145
 30
0.0
 11
345.6961813146463
 21
444.5086322844145
 31
0.0
  0
LINE
  5
786C
330
1F
100
AcDbEntity
  8
0
100
AcDbLine
 10
350.6961813146463
 20
449.5086322844144
 30
0.0
 11
350.6961813146463
 21
444.5086322844145
 31
0.0
  0
ARC
  5
786D
330
1F
100
AcDbEntity
  8
0
100
AcDbCircle
 10
376.4019997639406
 20
423.2992921509611
 30
0.0
 40
6.666666666649872
100
AcDbArc
 50
359.8923565288828
 51
77.45473118851158
  0
LINE
  5
786E
330
1F
100
AcDbEntity
  8
0
100
AcDbLine
 10
349.3545282164578
 20
436.1477249090076
 30
0.0
 11
377.8500724827937
 21
429.8067901221584
 31
0.0
  0
LINE
  5
786F
330
1F
100
AcDbEntity
  8
0
100
AcDbLine
 10
269.0810685629913
 20
401.325865695153
 30
0.0
 11
269.0810685629913
 21
398.325865695153
 31
0.0
  0
LINE
  5
7870
330
1F
100
AcDbEntity
  8
0
100
AcDbLine
 10
266.0810685629913
 20
401.325865695153
 30
0.0
 11
269.0810685629913
 21
401.325865695153
 31
0.0
  0
LINE
  5
7871
330
1F
100
AcDbEntity
  8
0
100
AcDbLine
 10
403.1245415726206
 20
436.1986409262571
 30
0.0
 11
411.049422765529
 21
401.325865695153
 31
0.0
  0
LINE
  5
7872
330
1F
100
AcDbEntity
  8
0
100
AcDbLine
 10
402.7311764665519
 20
413.325865695153
 30
0.0
 11
402.7311764665519
 21
398.325865695153
 31
0.0
  0
LINE
  5
7873
330
1F
100
AcDbEntity
  8
0
100
AcDbLine
 10
398.7311764665519
 20
398.325865695153
 30
0.0
 11
398.7311764665519
 21
413.325865695153
 31
0.0
  0
LINE
  5
7874
330
1F
100
AcDbEntity
  8
0
100
AcDbLine
 10
402.7311764665519
 20
413.325865695153
 30
0.0
 11
402.7311764665519
 21
398.325865695153
 31
0.0
  0
LINE
  5
7875
330
1F
100
AcDbEntity
  8
0
100
AcDbLine
 10
400.9984537199433
 20
438.3151830219174
 30
0.0
 11
398.8819116242812
 21
436.1890951692402
 31
0.0
  0
LINE
  5
7876
330
1F
100
AcDbEntity
  8
0
100
AcDbLine
 10
401.0079994769567
 20
434.0725530735798
 30
0.0
 11
398.8819116242812
 21
436.1890951692402
 31
0.0
  0
LINE
  5
7877
330
1F
100
AcDbEntity
  8
0
100
AcDbLine
 10
403.1245415726206
 20
436.1986409262571
 30
0.0
 11
401.0079994769567
 21
434.0725530735798
 31
0.0
  0
LINE
  5
7878
330
1F
100
AcDbEntity
  8
0
100
AcDbLine
 10
398.7311764665519
 20
413.325865695153
 30
0.0
 11
402.7311764665519
 21
413.325865695153
 31
0.0
  0
LINE
  5
7879
330
1F
100
AcDbEntity
  8
0
100
AcDbLine
 10
408.0494227655307
 20
401.325865695153
 30
0.0
 11
408.0494227655307
 21
398.325865695153
 31
0.0
  0
LINE
  5
787A
330
1F
100
AcDbEntity
  8
0
100
AcDbLine
 10
411.049422765529
 20
401.325865695153
 30
0.0
 11
408.0494227655307
 21
401.325865695153
 31
0.0
  0
LINE
  5
787B
330
1F
100
AcDbEntity
  8
0
100
AcDbLine
 10
408.0494227655307
 20
398.325865695153
 30
0.0
 11
402.7311764665519
 21
398.325865695153
 31
0.0
  0
LINE
  5
787C
330
1F
100
AcDbEntity
  8
0
100
AcDbLine
 10
398.7311764665519
 20
398.325865695153
 30
0.0
 11
383.021717637308
 21
398.3034551770979
 31
0.0
  0
LINE
  5
787D
330
1F
100
AcDbEntity
  8
0
100
AcDbLine
 10
295.191433941307
 20
398.325865695153
 30
0.0
 11
269.0810685629913
 21
398.325865695153
 31
0.0
  0
LINE
  5
787E
330
1F
100
AcDbEntity
  8
0
100
AcDbLine
 10
419.3152427025469
 20
400.7499237971622
 30
0.0
 11
424.6334018559918
 21
400.780369079642
 31
0.0
  0
LINE
  5
787F
330
1F
100
AcDbEntity
  8
0
100
AcDbLine
 10
428.6333363114281
 20
400.8032678178872
 30
0.0
 11
444.3424956205271
 21
400.893199273281
 31
0.0
  0
LINE
  5
7880
330
1F
100
AcDbEntity
  8
0
100
AcDbLine
 10
532.1713822198635
 20
401.3960001833837
 30
0.0
 11
558.2813197500509
 21
401.5454737889507
 31
0.0
  0
LINE
  5
7881
330
1F
100
AcDbEntity
  8
0
100
AcDbLine
 10
555.5056871528758
 20
302.5383605150282
 30
0.0
 11
542.1474026602118
 21
295.7151475319042
 31
0.0
  0
ARC
  5
7882
330
1F
100
AcDbEntity
  8
0
100
AcDbCircle
 10
501.3167840347505
 20
375.6521245776748
 30
0.0
 40
17.77861666023672
100
AcDbArc
 50
53.36568540012027
 51
117.057269170974
  0
LINE
  5
7883
330
1F
100
AcDbEntity
  8
0
100
AcDbLine
 10
540.3278791980446
 20
299.2773567299482
 30
0.0
 11
553.6861636907068
 21
306.1005697130722
 31
0.0
  0
LINE
  5
7884
330
1F
100
AcDbEntity
  8
0
100
AcDbLine
 10
555.5056871528758
 20
302.5383605150282
 30
0.0
 11
542.1474026602118
 21
295.7151475319042
 31
0.0
  0
LINE
  5
7885
330
1F
100
AcDbEntity
  8
0
100
AcDbLine
 10
576.0540239910532
 20
312.5924361097341
 30
0.0
 11
548.6028706350098
 21
289.6719567590771
 31
0.0
  0
LINE
  5
7886
330
1F
100
AcDbEntity
  8
0
100
AcDbLine
 10
555.4322860213451
 20
324.5798880501943
 30
0.0
 11
533.1619892302207
 21
313.2572572985519
 31
0.0
  0
LINE
  5
7887
330
1F
100
AcDbEntity
  8
0
100
AcDbLine
 10
482.6595401992217
 20
418.7738579504575
 30
0.0
 11
503.1319900159997
 21
417.1572653809016
 31
0.0
  0
LINE
  5
7888
330
1F
100
AcDbEntity
  8
0
100
AcDbLine
 10
576.9717987387102
 20
315.4486030363278
 30
0.0
 11
564.0586095084564
 21
365.3370932864082
 31
0.0
  0
LINE
  5
7889
330
1F
100
AcDbEntity
  8
0
100
AcDbLine
 10
505.9443931005171
 20
416.1130485019883
 30
0.0
 11
535.3731913010814
 21
394.5555243324871
 31
0.0
  0
LINE
  5
788A
330
1F
100
AcDbEntity
  8
0
100
AcDbLine
 10
505.9443931005171
 20
416.1130485019883
 30
0.0
 11
504.9001762216011
 21
413.3006454174745
 31
0.0
  0
LINE
  5
788B
330
1F
100
AcDbEntity
  8
0
100
AcDbLine
 10
504.9001762216011
 20
413.3006454174745
 30
0.0
 11
502.0877731370874
 21
414.3448622963878
 31
0.0
  0
LINE
  5
788C
330
1F
100
AcDbEntity
  8
0
100
AcDbLine
 10
502.0877731370874
 20
414.3448622963878
 30
0.0
 11
503.1319900159997
 21
417.1572653809016
 31
0.0
  0
LINE
  5
788D
330
1F
100
AcDbEntity
  8
0
100
AcDbLine
 10
551.549730399176
 20
360.4542844267998
 30
0.0
 11
558.8648741836476
 21
332.1931420504152
 31
0.0
  0
ARC
  5
788E
330
1F
100
AcDbEntity
  8
0
100
AcDbCircle
 10
552.4109063296182
 20
330.522590230401
 30
0.0
 40
6.66666666664987
100
AcDbArc
 50
296.9496256998413
 51
14.51200035947413
  0
LINE
  5
788F
330
1F
100
AcDbEntity
  8
0
100
AcDbLine
 10
564.0586095084564
 20
365.3370932864082
 30
0.0
 11
559.6058480109021
 21
363.0626889587011
 31
0.0
  0
LINE
  5
7890
330
1F
100
AcDbEntity
  8
0
100
AcDbLine
 10
559.6058480109021
 20
363.0626889587011
 30
0.0
 11
557.331443683195
 21
367.5154504562552
 31
0.0
  0
LINE
  5
7891
330
1F
100
AcDbEntity
  8
0
100
AcDbLine
 10
557.331443683195
 20
367.5154504562552
 30
0.0
 11
561.5245321030725
 21
369.657217639131
 31
0.0
  0
LINE
  5
7892
330
1F
100
AcDbEntity
  8
0
100
AcDbLine
 10
537.6690163498405
 20
392.6244139406417
 30
0.0
 11
535.7379059579942
 21
390.3285888918826
 31
0.0
  0
LINE
  5
7893
330
1F
100
AcDbEntity
  8
0
100
AcDbLine
 10
535.7379059579942
 20
390.3285888918826
 30
0.0
 11
533.4420809092371
 21
392.259699283727
 31
0.0
  0
LINE
  5
7894
330
1F
100
AcDbEntity
  8
0
100
AcDbLine
 10
533.4420809092371
 20
392.259699283727
 30
0.0
 11
535.3731913010814
 21
394.5555243324871
 31
0.0
  0
LINE
  5
7895
330
1F
100
AcDbEntity
  8
0
100
AcDbLine
 10
551.549730399176
 20
360.4542844267998
 30
0.0
 11
511.9253837579543
 21
389.9187577566863
 31
0.0
  0
LINE
  5
7896
330
1F
100
AcDbEntity
  8
0
100
AcDbLine
 10
561.5245321030725
 20
369.657217639131
 30
0.0
 11
537.6690163498405
 21
392.6244139406417
 31
0.0
  0
LINE
  5
7897
330
1F
100
AcDbEntity
  8
0
100
AcDbLine
 10
553.6861636907068
 20
306.1005697130722
 30
0.0
 11
555.5056871528758
 21
302.5383605150282
 31
0.0
  0
LINE
  5
7898
330
1F
100
AcDbEntity
  8
0
100
AcDbLine
 10
576.0540239910532
 20
312.5924361097341
 30
0.0
 11
573.1978570644587
 21
313.5102108573974
 31
0.0
  0
LINE
  5
7899
330
1F
100
AcDbEntity
  8
0
100
AcDbLine
 10
573.1978570644587
 20
313.5102108573974
 30
0.0
 11
574.1156318121191
 21
316.3663777839893
 31
0.0
  0
LINE
  5
789A
330
1F
100
AcDbEntity
  8
0
100
AcDbLine
 10
576.9717987387102
 20
315.4486030363278
 30
0.0
 11
574.1156318121191
 21
316.3663777839893
 31
0.0
  0
LINE
  5
789B
330
1F
100
AcDbEntity
  8
0
100
AcDbLine
 10
540.3278791980446
 20
299.2773567299482
 30
0.0
 11
533.1619892302207
 21
313.2572572985519
 31
0.0
  0
LINE
  5
789C
330
1F
100
AcDbEntity
  8
0
100
AcDbLine
 10
493.2296315002075
 20
391.4849125265718
 30
0.0
 11
481.3525258973132
 21
414.7375584553009
 31
0.0
  0
LINE
  5
789D
330
1F
100
AcDbEntity
  8
0
100
AcDbLine
 10
484.0241827958451
 20
416.1022010519253
 30
0.0
 11
481.3525258973132
 21
414.7375584553009
 31
0.0
  0
LINE
  5
789E
330
1F
100
AcDbEntity
  8
0
100
AcDbLine
 10
482.6595401992217
 20
418.7738579504575
 30
0.0
 11
484.0241827958451
 21
416.1022010519253
 31
0.0
  0
LINE
  5
789F
330
1F
100
AcDbEntity
  8
0
100
AcDbLine
 10
544.566571139854
 20
290.9789710609839
 30
0.0
 11
542.1474026602118
 21
295.7151475319042
 31
0.0
  0
LINE
  5
78A0
330
1F
100
AcDbEntity
  8
0
100
AcDbLine
 10
547.2382280383863
 20
292.3436136576084
 30
0.0
 11
544.566571139854
 21
290.9789710609839
 31
0.0
  0
LINE
  5
78A1
330
1F
100
AcDbEntity
  8
0
100
AcDbLine
 10
548.6028706350098
 20
289.6719567590771
 30
0.0
 11
547.2382280383863
 21
292.3436136576084
 31
0.0
  0
LINE
  5
78A2
330
1F
100
AcDbEntity
  8
0
100
AcDbLine
 10
100.4440198926859
 20
438.5784823030453
 30
0.0
 11
100.4175653154598
 21
422.8690878519328
 31
0.0
  0
LINE
  5
78A3
330
1F
100
AcDbEntity
  8
0
100
AcDbLine
 10
151.4268152826507
 20
390.4575641534611
 30
0.0
 11
140.5171098159235
 21
440.7745175700829
 31
0.0
  0
LINE
  5
78A4
330
1F
100
AcDbEntity
  8
0
100
AcDbLine
 10
100.2696594971194
 20
335.0388865889099
 30
0.0
 11
100.2256897756897
 21
308.9285582330131
 31
0.0
  0
LINE
  5
78A5
330
1F
100
AcDbEntity
  8
0
100
AcDbLine
 10
122.7709667498238
 20
318.8502837635588
 30
0.0
 11
139.3084017225956
 21
351.4100328328686
 31
0.0
  0
LINE
  5
78A6
330
1F
100
AcDbEntity
  8
0
100
AcDbLine
 10
100.2256897756897
 20
308.9285582330131
 30
0.0
 11
103.2256855219284
 21
308.9235062483949
 31
0.0
  0
LINE
  5
78A7
330
1F
100
AcDbEntity
  8
0
100
AcDbLine
 10
103.2256855219284
 20
308.9235062483949
 30
0.0
 11
103.2206335373093
 21
305.9235105021567
 31
0.0
  0
LINE
  5
78A8
330
1F
100
AcDbEntity
  8
0
100
AcDbLine
 10
103.2206335373093
 20
305.9235105021567
 30
0.0
 11
120.7355114537604
 21
316.6464412697042
 31
0.0
  0
LINE
  5
78A9
330
1F
100
AcDbEntity
  8
0
100
AcDbLine
 10
120.5671242559674
 20
320.8857390596208
 30
0.0
 11
122.7709667498238
 21
318.8502837635588
 31
0.0
  0
LINE
  5
78AA
330
1F
100
AcDbEntity
  8
0
100
AcDbLine
 10
118.5316689599049
 20
318.6818965657667
 30
0.0
 11
120.5671242559674
 21
320.8857390596208
 31
0.0
  0
LINE
  5
78AB
330
1F
100
AcDbEntity
  8
0
100
AcDbLine
 10
120.7355114537604
 20
316.6464412697024
 30
0.0
 11
118.5316689599049
 21
318.6818965657667
 31
0.0
  0
LINE
  5
78AC
330
1F
100
AcDbEntity
  8
0
100
AcDbLine
 10
100.4175653154598
 20
422.8690878519328
 30
0.0
 11
100.4399757308383
 21
422.8690080093656
 31
0.0
  0
ARC
  5
78AD
330
1F
100
AcDbEntity
  8
0
100
AcDbCircle
 10
100.2995985964244
 20
352.8174780404851
 30
0.0
 40
17.77861666023672
100
AcDbArc
 50
269.9035141554447
 51
333.6073732250679
  0
LINE
  5
78AE
330
1F
100
AcDbEntity
  8
0
100
AcDbLine
 10
140.4782428203061
 20
354.1725446982
 30
0.0
 11
151.2359412038904
 21
385.4578784952747
 31
0.0
  0
LINE
  5
78AF
330
1F
100
AcDbEntity
  8
0
100
AcDbLine
 10
138.1004873731708
 20
388.9963898956353
 30
0.0
 11
116.2251317588889
 21
344.9145289806093
 31
0.0
  0
LINE
  5
78B0
330
1F
100
AcDbEntity
  8
0
100
AcDbLine
 10
136.5458898572642
 20
352.5798739305792
 30
0.0
 11
139.3084017225956
 21
351.4100328328686
 31
0.0
  0
LINE
  5
78B1
330
1F
100
AcDbEntity
  8
0
100
AcDbLine
 10
137.7157309549739
 20
355.3423857959128
 30
0.0
 11
136.5458898572642
 21
352.5798739305792
 31
0.0
  0
LINE
  5
78B2
330
1F
100
AcDbEntity
  8
0
100
AcDbLine
 10
140.4782428203088
 20
354.1725446982
 30
0.0
 11
137.7157309549739
 21
355.3423857959128
 31
0.0
  0
LINE
  5
78B3
330
1F
100
AcDbEntity
  8
0
100
AcDbLine
 10
100.4399757308383
 20
422.8690080093656
 30
0.0
 11
125.4231733594188
 21
422.7799992786139
 31
0.0
  0
LINE
  5
78B4
330
1F
100
AcDbEntity
  8
0
100
AcDbLine
 10
131.9147031080938
 20
417.5260160767066
 30
0.0
 11
138.1004873731708
 21
388.9963898956353
 31
0.0
  0
ARC
  5
78B5
330
1F
100
AcDbEntity
  8
0
100
AcDbCircle
 10
125.3994218852795
 20
416.1133749220379
 30
0.0
 40
6.666666666649486
100
AcDbArc
 50
12.23349602484547
 51
89.79587068436114
  0
LINE
  5
78B6
330
1F
100
AcDbEntity
  8
0
100
AcDbLine
 10
146.4184023978869
 20
385.4659912174275
 30
0.0
 11
151.2359412038904
 21
385.4578784952747
 31
0.0
  0
LINE
  5
78B7
330
1F
100
AcDbEntity
  8
0
100
AcDbLine
 10
146.426822372252
 20
390.4659841278262
 30
0.0
 11
146.4184023978869
 21
385.4659912174275
 31
0.0
  0
LINE
  5
78B8
330
1F
100
AcDbEntity
  8
0
100
AcDbLine
 10
151.4268152826507
 20
390.4575641534611
 30
0.0
 11
146.426822372252
 21
390.4659841278262
 31
0.0
  0
LINE
  5
78B9
330
1F
100
AcDbEntity
  8
0
100
AcDbLine
 10
100.4597117716776
 20
447.8967153894918
 30
0.0
 11
100.4507558721769
 21
442.578476631365
 31
0.0
  0
LINE
  5
78BA
330
1F
100
AcDbEntity
  8
0
100
AcDbLine
 10
100.4597117716776
 20
447.8967153894918
 30
0.0
 11
103.4597075179163
 21
447.8916634048732
 31
0.0
  0
LINE
  5
78BB
330
1F
100
AcDbEntity
  8
0
100
AcDbLine
 10
100.4507558721769
 20
442.578476631365
 30
0.0
 11
115.4507346033724
 21
442.5532167082692
 31
0.0
  0
LINE
  5
78BC
330
1F
100
AcDbEntity
  8
0
100
AcDbLine
 10
100.4507558721769
 20
442.578476631365
 30
0.0
 11
115.4507346033724
 21
442.5532167082692
 31
0.0
  0
LINE
  5
78BD
330
1F
100
AcDbEntity
  8
0
100
AcDbLine
 10
115.4439986238794
 20
438.553222379951
 30
0.0
 11
100.4440198926859
 21
438.5784823030453
 31
0.0
  0
LINE
  5
78BE
330
1F
100
AcDbEntity
  8
0
100
AcDbLine
 10
103.4597075179163
 20
447.8916634048732
 30
0.0
 11
103.4647619908337
 21
450.8931367658045
 31
0.0
  0
LINE
  5
78BF
330
1F
100
AcDbEntity
  8
0
100
AcDbLine
 10
103.4647619908337
 20
450.8931367658045
 30
0.0
 11
138.407656174526
 21
442.9076386015308
 31
0.0
  0
LINE
  5
78C0
330
1F
100
AcDbEntity
  8
0
100
AcDbLine
 10
138.3839887844788
 20
438.6650639286893
 30
0.0
 11
140.5171098159226
 21
440.7745175700833
 31
0.0
  0
LINE
  5
78C1
330
1F
100
AcDbEntity
  8
0
100
AcDbLine
 10
136.2745351430822
 20
440.7981849601346
 30
0.0
 11
138.3839887844788
 21
438.6650639286893
 31
0.0
  0
LINE
  5
78C2
330
1F
100
AcDbEntity
  8
0
100
AcDbLine
 10
138.4076561745287
 20
442.9076386015313
 30
0.0
 11
136.2745351430822
 21
440.7981849601346
 31
0.0
  0
LINE
  5
78C3
330
1F
100
AcDbEntity
  8
0
100
AcDbLine
 10
115.4507346033724
 20
442.5532167082692
 30
0.0
 11
115.4439986238794
 21
438.553222379951
 31
0.0
  0
LWPOLYLINE
  5
78C5
330
1F
100
AcDbEntity
  8
0
  6
Continuous
100
AcDbPolyline
 90
       61
 70
     0
 43
0.0
 10
995.048163496367
 20
392.1592609349555
 10
995.7939285027403
 20
392.1490580713951
 10
998.4376121607526
 20
392.1102673977456
 10
1001.091269045255
 20
392.0727155757331
 10
1003.747853330549
 20
392.0382346370786
 10
1006.405437329866
 20
392.0037776121859
 10
1009.069043527097
 20
391.9684643558347
 10
1011.733553783311
 20
391.9371738693451
 10
1014.399111581064
 20
391.903907868566
 10
1017.061598495467
 20
391.8735692685791
 10
1019.727108465706
 20
391.8423026958515
 10
1022.391594808152
 20
391.8120119233861
 10
1025.056081150607
 20
391.7817211509214
 10
1027.720615320577
 20
391.749430950407
 10
1030.388100805099
 20
391.7192119192259
 10
1033.05561020339
 20
391.68799317402
 10
1035.723071774151
 20
391.6587738568633
 10
1038.389581458417
 20
391.6275311978966
 10
1041.06008999878
 20
391.5963841939726
 10
1043.72955099759
 20
391.5672127043397
 10
1046.401035338216
 20
391.5370893282025
 10
1049.072543592605
 20
391.5059662380409
 10
1051.745027647257
 20
391.4758667756653
 10
1054.414464732308
 20
391.4476950000572
 10
1057.086924873199
 20
391.4185952517066
 10
1059.756361958252
 20
391.3904234760978
 10
1062.424823243043
 20
391.3612280727025
 10
1065.095307869644
 20
391.3310807828048
 10
1067.764721040934
 20
391.3039087212217
 10
1070.434182039749
 20
391.274737231588
 10
1073.106642180641
 20
391.2456374832375
 10
1075.776031438172
 20
391.2194651356792
 10
1078.44849157906
 20
391.1903653873289
 10
1081.117880836593
 20
391.1641930397702
 10
1083.786318207621
 20
391.1359973504005
 10
1086.458778348509
 20
391.1068976020506
 10
1089.131214575638
 20
391.0787975677249
 10
1091.800579919412
 20
391.053624934192
 10
1094.472016432513
 20
391.0255009861053
 10
1097.144380918362
 20
391.0004000938548
 10
1099.812818289389
 20
390.9722044044852
 10
1102.485230602753
 20
390.9451040841857
 10
1105.157595088601
 20
390.9200031919354
 10
1107.827032173654
 20
390.8918314163273
 10
1110.496373603664
 20
390.8676584968188
 10
1113.160788204834
 20
390.84036686643
 10
1115.82815412055
 20
390.815146405374
 10
1118.491569007692
 20
390.7878308612237
 10
1121.156983322884
 20
390.7605631445964
 10
1123.822325896792
 20
390.7362945700434
 10
1126.484669328625
 20
390.7119542542068
 10
1129.147084501741
 20
390.6846147962954
 10
1131.804429363446
 20
390.6601549116538
 10
1134.452776798931
 20
390.6354798031614
 10
1137.088127952083
 20
390.6104938157753
 10
1139.708483394863
 20
390.5851491219714
 10
1142.306773387805
 20
390.5622774674982
 10
1144.873096445704
 20
390.5376408586437
 10
1147.395432086496
 20
390.5119520442994
 10
1149.86166417308
 20
390.489922629457
 10
1151.583535094703
 20
390.4740945129343
  0
LWPOLYLINE
  5
78C6
330
1F
100
AcDbEntity
  8
0
  6
Continuous
100
AcDbPolyline
 90
       26
 70
     0
 43
0.0
 10
998.219599511729
 20
397.8040979395787
 10
997.8150130778702
 20
397.8047316721303
 10
995.0984888181283
 20
397.8061267488292
 10
992.37886723464
 20
397.8104212367803
 10
989.6593446074003
 20
397.8117173572314
 10
986.9427543768289
 20
397.8151113455965
 10
984.2231657787559
 20
397.8184063777139
 10
981.5036431515146
 20
397.819702498166
 10
978.7870859063602
 20
397.822097030697
 10
976.0695621907851
 20
397.8234591219812
 10
973.3580022247933
 20
397.8260185815921
 10
970.643509862135
 20
397.8264801732898
 10
967.9319169107293
 20
397.8300390887343
 10
965.2193574889006
 20
397.8325655629296
 10
962.5058645820772
 20
397.8330601400435
 10
959.797368954416
 20
397.8337196442358
 10
957.0878079000941
 20
397.8363450746792
 10
954.3823106399305
 20
397.8371035351202
 10
951.6878403793507
 20
397.8372253793023
 10
949.0043311475163
 20
397.8387095188923
 10
946.338845106098
 20
397.839787940135
 10
943.693381166755
 20
397.8405266138616
 10
941.0819317111544
 20
397.8413873358954
 10
938.514458312211
 20
397.8436994162284
 10
936.0051182786664
 20
397.8429273715164
 10
933.9870058404176
 20
397.8433593285054
  0
LWPOLYLINE
  5
78C7
330
1F
100
AcDbEntity
  8
0
  6
Continuous
100
AcDbPolyline
 90
       27
 70
     0
 43
0.0
 10
998.1919266691184
 20
427.9997635284622
 10
997.74145883685
 20
428.0000170748056
 10
994.9737945444903
 20
428.0025399305258
 10
992.2092636415326
 20
428.0011663942158
 10
989.442598778629
 20
428.0037230251974
 10
986.6760690167703
 20
428.0022819383656
 10
983.9124362174823
 20
428.0039404656759
 10
981.1448057003836
 20
428.0054638919428
 10
978.378275938523
 20
428.0040228051111
 10
975.6136774850419
 20
428.0046481277081
 10
972.8491465820896
 20
428.0032745913981
 10
970.0905447053283
 20
428.00410256556
 10
967.3280126612786
 20
428.0027965797726
 10
964.569410784521
 20
428.0036245539348
 10
961.8098094783071
 20
428.004418752836
 10
959.0492762931628
 20
428.0031803175696
 10
956.2937740305477
 20
428.0011113291561
 10
953.5361715832404
 20
428.0019730785793
 10
950.7836676089807
 20
428.0000054159477
 10
948.0421573587079
 20
427.9984092811869
 10
945.3126402618764
 20
427.9972184495577
 10
942.6001134657417
 20
427.9966017973638
 10
939.9096416680986
 20
427.9947293420044
 10
937.2511516129545
 20
427.993937694996
 10
934.6396685173711
 20
427.9937340557993
 10
932.0862874311076
 20
427.991491663924
 10
929.7730058404177
 20
427.9903593285053
  0
LWPOLYLINE
  5
78C8
330
1F
100
AcDbEntity
  8
0
  6
Continuous
100
AcDbPolyline
 90
       29
 70
     0
 43
0.0
 10
1080.729701093292
 20
362.2628393273509
 10
1081.52672164857
 20
362.2573382111232
 10
1084.341355085871
 20
362.2370499477229
 10
1087.155960910526
 20
362.2177613030208
 10
1089.967485041154
 20
362.201388676478
 10
1092.782090865808
 20
362.1821000317759
 10
1095.595614233831
 20
362.1657826305218
 10
1098.407193589748
 20
362.1474107665836
 10
1101.221799414405
 20
362.1281221218815
 10
1104.035295169786
 20
362.1128043393255
 10
1106.846874525701
 20
362.0944324753855
 10
1109.658398656327
 20
362.0780598488436
 10
1112.464979918754
 20
362.0595499216833
 10
1115.274477199338
 20
362.044121688552
 10
1118.080058843063
 20
362.025584148746
 10
1120.887612111546
 20
362.0081014529287
 10
1123.695110154738
 20
361.992617994505
 10
1126.49860972313
 20
361.9770240855069
 10
1129.302164516817
 20
361.9594309391114
 10
1132.101665610424
 20
361.9437265795314
 10
1134.891170517045
 20
361.9277460935064
 10
1137.666680761893
 20
361.9113790304636
 10
1140.426169494922
 20
361.895569783801
 10
1143.162639385246
 20
361.8801250650158
 10
1145.866094245886
 20
361.8647687476587
 10
1148.52256702771
 20
361.8481146360082
 10
1151.119951855759
 20
361.8338298531272
 10
1153.638283968714
 20
361.8203625274218
 10
1153.72733287079
 20
361.8198211966883
  0
LWPOLYLINE
  5
78C9
330
1F
100
AcDbEntity
  8
0
  6
Continuous
100
AcDbPolyline
 90
      260
 70
     0
 43
0.0
 10
972.2386484048255
 20
447.7552806551146
 10
971.330702341349
 20
447.6125398206476
 10
969.8612263919294
 20
447.3682992956105
 10
968.2482506074702
 20
447.0898857206006
 10
966.4777614715092
 20
446.7780873571623
 10
964.549774100058
 20
446.4319043195504
 10
962.4712272292926
 20
446.055441962851
 10
960.2560739116052
 20
445.6519115685058
 10
957.9252663996447
 20
445.22463023006
 10
955.4947726333212
 20
444.7758395752361
 10
952.985408821136
 20
444.3178556692977
 10
950.4202025672913
 20
443.8490264090841
 10
947.8169855390603
 20
443.3806226260666
 10
945.1868169437238
 20
442.9088110534189
 10
942.5356205156733
 20
442.4386818159613
 10
939.8693804533886
 20
441.9713254955262
 10
937.1871119871267
 20
441.5057270903529
 10
934.4907997723712
 20
441.0429167182154
 10
931.787488357386
 20
440.5800005339779
 10
929.0891461391092
 20
440.1191597013044
 10
926.3957126534803
 20
439.6643937631843
 10
923.7071879004924
 20
439.2157027196144
 10
921.0155727941799
 20
438.7729656424802
 10
918.3248971095546
 20
438.3342432243465
 10
915.6341458448585
 20
437.9005202349461
 10
912.9443188858347
 20
437.4718117902926
 10
910.2614004309526
 20
437.0492084722194
 10
907.5763915084879
 20
436.6325742365956
 10
904.8982608581372
 20
436.2240448990465
 10
902.2210545134567
 20
435.8205301062443
 10
899.5467873619581
 20
435.4210602044712
 10
896.8743688218127
 20
435.0316193921931
 10
894.2028594713228
 20
434.6481930104078
 10
891.5352589677313
 20
434.2708264071598
 10
888.8685223057601
 20
433.9024738916446
 10
886.198695290459
 20
433.5400753425656
 10
883.5307924665794
 20
433.1827064542484
 10
880.8667682575704
 20
432.8333971159604
 10
878.2056378936996
 20
432.4911323259421
 10
875.5433564839384
 20
432.1588512773746
 10
872.8829992655974
 20
431.831599889569
 10
870.2275356638875
 20
431.5114232820612
 10
867.5749356752858
 20
431.2002909943148
 10
864.9211997568126
 20
430.8981425622731
 10
862.2673277942011
 20
430.6049931019505
 10
859.6143499052395
 20
430.3188579578676
 10
856.9632810916846
 20
430.0387523602934
 10
854.3170454307018
 20
429.7697210860028
 10
851.6757185023653
 20
429.5067647062636
 10
849.0362099533504
 20
429.2558371875119
 10
846.3995952494714
 20
429.0119542170299
 10
843.7658290426861
 20
428.7781154520549
 10
841.1369111044932
 20
428.5543511246191
 10
838.5088570079131
 20
428.3396008849154
 10
835.8846512941761
 20
428.1349099667353
 10
833.2652787330117
 20
427.9412933718399
 10
830.6497696706994
 20
427.7567362127197
 10
828.040108762727
 20
427.5822686071533
 10
825.4343113536087
 20
427.4168604373629
 10
822.8413159510092
 20
427.2646472904647
 10
820.2561382422043
 20
427.1245537006412
 10
817.674763568204
 20
426.9975190895801
 10
815.0992219325162
 20
426.8815739178176
 10
812.5274833316252
 20
426.778687724818
 10
809.9685618532749
 20
426.6879966689648
 10
807.4194427242
 20
426.6104552879605
 10
804.8780808248594
 20
426.5490330070173
 10
802.3455516210834
 20
426.4987455134155
 10
799.8258093078058
 20
426.4626529284536
 10
797.3178388832711
 20
426.4417400218631
 10
794.8286395477024
 20
426.4361126057447
 10
792.3481973276247
 20
426.4466194057018
 10
789.8824813054853
 20
426.4753508893126
 10
787.4335366008144
 20
426.5193376313678
 10
785.0003330958442
 20
426.5805642873441
 10
782.5808861350978
 20
426.6580007394692
 10
780.1821646867628
 20
426.7537525713345
 10
777.8021085152921
 20
426.8717890938983
 10
775.4377935435203
 20
427.0070655303842
 10
773.0922194286939
 20
427.159627228837
 10
770.7743851425183
 20
427.3296102333851
 10
768.4862451084482
 20
427.520044433298
 10
766.2328592192842
 20
427.7270058656613
 10
764.014212358994
 20
427.9514944162223
 10
761.8402882690332
 20
428.1946611308712
 10
759.7191162674171
 20
428.4546271662316
 10
757.6496662363532
 20
428.7333771777817
 10
755.6318928278086
 20
429.0339108227611
 10
753.6738858238403
 20
429.3503497148067
 10
751.7765846461298
 20
429.6867085129183
 10
749.9410647605017
 20
430.0380029043781
 10
748.1733708294797
 20
430.4013239280343
 10
746.4795021675453
 20
430.7767622799715
 10
744.8604586604361
 20
431.1643330762066
 10
743.3203154312177
 20
431.5590973520634
 10
741.8561181706953
 20
431.9580101022587
 10
740.4748811951048
 20
432.3601772531477
 10
739.1706656540192
 20
432.7615085656581
 10
737.9474559744194
 20
433.1630643895937
 10
736.7993435379085
 20
433.5587547143886
 10
735.7252982267217
 20
433.9505641955216
 10
734.7193963064365
 20
434.3334027081718
 10
733.7805623112417
 20
434.7122545650594
 10
732.9028725067291
 20
435.0820296413653
 10
732.085327007153
 20
435.4427128210726
 10
731.3199267265406
 20
435.7941831760672
 10
730.6036266596147
 20
436.1393950155451
 10
729.9334422651392
 20
436.477303105716
 10
729.3093433110916
 20
436.8099072180738
 10
728.7213762880472
 20
437.1340565352332
 10
728.1695260799969
 20
437.4507509429409
 10
727.6517626834174
 20
437.7619599806611
 10
727.1640563232851
 20
438.0696229558301
 10
726.7104518906397
 20
438.3708006752645
 10
726.2798750621933
 20
438.6703262915394
 10
725.8783705004698
 20
438.9652908435005
 10
725.5008934286869
 20
439.2586184083156
 10
725.1474740788816
 20
439.5483092144923
 10
724.8120980205584
 20
439.8352724516893
 10
724.4987647967009
 20
440.1195685839652
 10
724.2044596340547
 20
440.4021521490235
 10
723.9272129931578
 20
440.6809931433408
 10
723.6700396472679
 20
440.955137029216
 10
723.4317129704158
 20
441.2395669768296
 10
723.2092333053624
 20
441.5342376381413
 10
723.0052352962046
 20
441.797184043824
 10
722.8216733664067
 20
442.0314360831467
 10
722.6587182496913
 20
442.3580101634675
 10
722.5229134370729
 20
442.7410010940007
 10
722.419992355617
 20
442.9334673273801
 10
722.3485212127289
 20
443.0964055848121
 10
722.3012829831532
 20
443.5087386415339
 10
722.2729670026782
 20
443.926358331264
 10
722.2661083041677
 20
444.0492686980146
 10
722.2728269864927
 20
444.2663950651554
 10
722.2955981039778
 20
444.7447939324288
 10
722.3433921395661
 20
445.0895557780004
 10
722.4209319761522
 20
445.1867389748098
 10
722.5297923935595
 20
445.4614158932463
 10
722.667092433874
 20
445.8395345240087
 10
722.8321429612715
 20
446.1020594245501
 10
723.0219163152886
 20
446.3169525936058
 10
723.2280679703981
 20
446.5730980505159
 10
723.4541417603668
 20
446.8345452564467
 10
723.7005155855548
 20
447.0762970677363
 10
723.9620842051316
 20
447.3052771045381
 10
724.246635080859
 20
447.5356046954198
 10
724.5483200584112
 20
447.7571902868279
 10
724.8701539110388
 20
447.9690793410604
 10
725.211136752994
 20
448.1712567421026
 10
725.5762680130101
 20
448.3637980700271
 10
725.9635932676393
 20
448.5436734355643
 10
726.3760819420877
 20
448.7129279582517
 10
726.8117796129116
 20
448.8685317488207
 10
727.2736405893027
 20
449.0135298125538
 10
727.7666340679661
 20
449.1499975010164
 10
728.2847153863802
 20
449.2808437753614
 10
728.8388379397148
 20
449.4092345689883
 10
729.4239871832177
 20
449.53609418757
 10
730.0470867370495
 20
449.6665278719411
 10
730.7101666047238
 20
449.7985660826374
 10
731.4181959829475
 20
449.9342841712246
 10
732.1741896449766
 20
450.0727275999987
 10
732.9791928246013
 20
450.2109118277353
 10
733.8452494988232
 20
450.3460185893691
 10
734.7753744408928
 20
450.4770933471941
 10
735.778627086589
 20
450.600272602358
 10
736.8620066361363
 20
450.715662166961
 10
738.0374663704497
 20
450.8264430904151
 10
739.3170351505212
 20
450.9307969934006
 10
740.7076668285318
 20
451.0318293452601
 10
742.2264199262245
 20
451.1257975752522
 10
743.8751430549508
 20
451.2227307728717
 10
745.6538815627554
 20
451.3196292808788
 10
747.5526819402166
 20
451.4133422818884
 10
749.5665901066439
 20
451.5007945385908
 10
751.6856979006552
 20
451.5758355763605
 10
753.8949465720016
 20
451.6422381979664
 10
756.1843523792303
 20
451.6988513575183
 10
758.5440071609609
 20
451.7395245803909
 10
760.9638364796538
 20
451.7691061351746
 10
763.4308418206073
 20
451.7873995136787
 10
765.9410538728661
 20
451.7923444803535
 10
768.4944272883894
 20
451.7869406924392
 10
771.0799482079383
 20
451.7720217595224
 10
773.6926172027923
 20
451.7475121015313
 10
776.3334492747035
 20
451.7124269487326
 10
779.0053987328791
 20
451.6698113064111
 10
781.6984062557876
 20
451.623513557407
 10
784.4115021897122
 20
451.5715188142126
 10
787.1436715328946
 20
451.5148118465603
 10
789.8969140568262
 20
451.4534228864799
 10
792.6701845277183
 20
451.3903364751953
 10
795.4544839738446
 20
451.3254165685771
 10
798.248767161429
 20
451.2616477078503
 10
801.0450198884736
 20
451.1999088506445
 10
803.8432572709933
 20
451.1392001112152
 10
806.6474939679974
 20
451.0785820678724
 10
809.4527003187213
 20
451.0199789120364
 10
812.2589216712004
 20
450.96039098647
 10
815.0631130201634
 20
450.902772600366
 10
817.869289024602
 20
450.8461843320378
 10
820.6754650290422
 20
450.78959606371
 10
823.4816410334786
 20
450.7330077953816
 10
826.2878472699483
 20
450.6744197555613
 10
829.0960230458768
 20
450.6178617192621
 10
831.9052138235711
 20
450.5603189132312
 10
834.714374369234
 20
450.5047758786936
 10
837.5225652611826
 20
450.4472179566483
 10
840.3337558103666
 20
450.3897053826453
 10
843.1449161275232
 20
450.3341925801368
 10
845.9580913321877
 20
450.2777101239103
 10
848.7722815386151
 20
450.2202428979516
 10
851.5854567432796
 20
450.1637604417251
 10
854.3966019444196
 20
450.1092475249619
 10
857.2107770348322
 20
450.0527801847496
 10
860.0219071199587
 20
449.9992671537341
 10
862.8330674371136
 20
449.9437543512249
 10
865.6442428702884
 20
449.8872416629696
 10
868.4553578394025
 20
449.8347285176999
 10
871.266518156557
 20
449.7792157151907
 10
874.079678245209
 20
449.7237331447103
 10
876.890808330334
 20
449.6702201136947
 10
879.7049531887187
 20
449.6157525449762
 10
882.5160681578308
 20
449.5632393997062
 10
885.3272133589761
 20
449.5087264829439
 10
888.1413733333721
 20
449.4532590284784
 10
890.9545183060073
 20
449.3987763437443
 10
893.7656181591046
 20
449.3472630842216
 10
896.5797630174874
 20
449.2927955155026
 10
899.3928626420784
 20
449.2413124880084
 10
902.2039927272071
 20
449.1877994569927
 10
905.0181224695752
 20
449.1343317740197
 10
907.8312220941679
 20
449.0828487465258
 10
910.6423521792947
 20
449.0293357155101
 10
913.453452032396
 20
448.9778224559867
 10
916.2595826887899
 20
448.9242338448989
 10
919.0676677686331
 20
448.8736751230795
 10
921.8737984250294
 20
448.8200865119911
 10
924.6809138511542
 20
448.7675129026628
 10
927.4869991595094
 20
448.7169239488148
 10
930.2900848106199
 20
448.6662896469225
 10
933.093200693762
 20
448.6136555735368
 10
935.892286801889
 20
448.5629608075873
 10
938.6813740525504
 20
448.5121148814928
 10
941.4574627885068
 20
448.4610724472099
 10
944.2155384650103
 20
448.4107578104129
 10
946.9515864230617
 20
448.3621103927912
 10
949.655653153237
 20
448.3119793769605
 10
952.3107103658221
 20
448.2621075621663
 10
954.9066987392873
 20
448.2163433312526
 10
957.4256807942566
 20
448.1704150529695
 10
959.8466135820052
 20
448.1270049482564
 10
962.1475147321307
 20
448.0847805790471
 10
964.3063565261762
 20
448.0454091645156
 10
966.3061257904393
 20
448.0096336181632
 10
968.1418684442252
 20
447.9743787026778
 10
969.8074944769741
 20
447.9455530364516
 10
971.3130783262167
 20
447.9183083508972
 10
972.2364565827247
 20
447.9002640883614
  0
LWPOLYLINE
  5
78CA
330
1F
100
AcDbEntity
  8
0
  6
Continuous
100
AcDbPolyline
 90
       29
 70
     0
 43
0.0
 10
1153.72733287079
 20
361.8198211966883
 10
1151.468801681287
 20
361.3732869135138
 10
1148.967329971978
 20
360.8850284906385
 10
1146.410183354652
 20
360.3842279539876
 10
1143.815023614152
 20
359.8833777555447
 10
1141.192957006731
 20
359.3787831596074
 10
1138.550815187409
 20
358.8766351668701
 10
1135.893596249689
 20
358.3770718405613
 10
1133.219356181445
 20
357.878038717995
 10
1130.531011000854
 20
357.3826174931974
 10
1127.834724095963
 20
356.8849761298479
 10
1125.143324833983
 20
356.3914713045134
 10
1122.458812452318
 20
355.9021582424848
 10
1119.779077262983
 20
355.4209801932639
 10
1117.096177541689
 20
354.9457170182959
 10
1114.414194601158
 20
354.4734803120708
 10
1111.731046366065
 20
354.0072137053885
 10
1109.049786917787
 20
353.5450007987912
 10
1106.374359505835
 20
353.0889512802487
 10
1103.699738424067
 20
352.6399267052366
 10
1101.028922528581
 20
352.1980099116936
 10
1098.359967807268
 20
351.7611464369283
 10
1095.694873497525
 20
351.3293915062332
 10
1093.031502298732
 20
350.9076879878103
 10
1090.367993036718
 20
350.4909825628756
 10
1087.709288579684
 20
350.0814125320539
 10
1085.051362840195
 20
349.6798670634616
 10
1082.38927295004
 20
349.2842088564822
 10
1080.650104321314
 20
349.0294229094416
  0
LWPOLYLINE
  5
78CB
330
1F
100
AcDbEntity
  8
0
  6
Continuous
100
AcDbPolyline
 90
       28
 70
     0
 43
0.0
 10
929.7730058404177
 20
427.9903593285053
 10
931.7455585924307
 20
428.3922120882766
 10
934.2011995882986
 20
428.8884351222113
 10
936.7125046561939
 20
429.3955444358374
 10
939.2607886138518
 20
429.9039034341181
 10
941.8359558409648
 20
430.4161726528036
 10
944.4302473287295
 20
430.9250858836358
 10
947.0395640335519
 20
431.4335063139282
 10
949.6659723648606
 20
431.9395026352967
 10
952.3054408295775
 20
432.443939176152
 10
954.9539041593744
 20
432.9486796943556
 10
957.5964722382378
 20
433.4502192726345
 10
960.2321794119706
 20
433.9475247062742
 10
962.8641590699787
 20
434.4366996032454
 10
965.4983064631995
 20
434.9209449034724
 10
968.1335883869181
 20
435.4012262611481
 10
970.7680735327468
 20
435.8754772668447
 10
973.4006949207142
 20
436.3456630042064
 10
976.0284880377183
 20
436.8106827179981
 10
978.6555181521
 20
437.2686726503566
 10
981.2787869754938
 20
437.7195314754998
 10
983.8992601620956
 20
438.1642923981416
 10
986.5178695908307
 20
438.6049880524496
 10
989.1327852791055
 20
439.0365537406351
 10
991.7489030483976
 20
439.4621566273626
 10
994.3602600972518
 20
439.8805946316143
 10
996.9708541434792
 20
440.2920028544325
 10
998.1919266691184
 20
440.4809183696775
  0
LWPOLYLINE
  5
78CC
330
1F
100
AcDbEntity
  8
0
  6
Continuous
100
AcDbPolyline
 90
       27
 70
     0
 43
0.0
 10
933.9870058404176
 20
397.8433593285054
 10
935.6756144865157
 20
398.1862453741878
 10
938.0889011704603
 20
398.6721130321871
 10
940.5588599681506
 20
399.1688559613899
 10
943.0628002641679
 20
399.6667203947327
 10
945.5946593526787
 20
400.1675073313863
 10
948.1446076024333
 20
400.6658896380263
 10
950.7095806751003
 20
401.1637672700713
 10
953.2916434531779
 20
401.659207286687
 10
955.8857986575004
 20
402.1520447607939
 10
958.4889159789073
 20
402.6461785594769
 10
961.0871019919777
 20
403.1381485194136
 10
963.6784897267116
 20
403.623890846442
 10
966.2651110801943
 20
404.1024720555583
 10
968.8548627428353
 20
404.5771543975897
 10
971.4447793325598
 20
405.0468394604558
 10
974.0348608493622
 20
405.5115272441558
 10
976.6231083815764
 20
405.9711517778586
 10
979.2054911204576
 20
406.4265805757345
 10
981.788137742664
 20
406.8740137269456
 10
984.3660179836152
 20
407.3142857602446
 10
986.9430307104012
 20
407.7505269847955
 10
989.5162105409292
 20
408.1816389885175
 10
992.0867218581188
 20
408.6026574776609
 10
994.6583645728059
 20
409.0197111288874
 10
997.2252409062383
 20
409.4296036622022
 10
998.219599511729
 20
409.5853226447748
  0
LWPOLYLINE
  5
78CD
330
1F
100
AcDbEntity
  8
0
  6
Continuous
100
AcDbPolyline
 90
       65
 70
     0
 43
0.0
 10
1151.583535094703
 20
390.4740945129343
 10
1150.177654280138
 20
390.2013966302104
 10
1147.8008545791
 20
389.746428300387
 10
1145.370309458314
 20
389.280171487211
 10
1142.905750146916
 20
388.8141013201819
 10
1140.413270584095
 20
388.344362425765
 10
1137.903748055327
 20
387.8762164254604
 10
1135.379158074896
 20
387.4107108608132
 10
1132.838524842545
 20
386.9468221040378
 10
1130.283823872556
 20
386.4855976966826
 10
1127.722148818153
 20
386.0232061789745
 10
1125.165400592594
 20
385.5639333721467
 10
1122.615554710161
 20
385.1088268177484
 10
1120.069516373747
 20
384.6618136305949
 10
1117.521382954231
 20
384.2187514720197
 10
1114.972130251888
 20
383.7806639698083
 10
1112.422757980737
 20
383.3475750377234
 10
1109.876289196622
 20
382.9185567030222
 10
1107.334699413823
 20
382.4946565072519
 10
1104.793965862484
 20
382.0767785093938
 10
1102.256040143127
 20
381.6669699650203
 10
1099.720993997043
 20
381.2622317320556
 10
1097.188851337991
 20
380.8615640964752
 10
1094.65949259716
 20
380.4699656284033
 10
1092.128990659739
 20
380.0843415307218
 10
1089.603343809878
 20
379.7048352859963
 10
1087.078529277718
 20
379.3323509532082
 10
1084.549548493123
 20
378.9667689635517
 10
1082.023447281801
 20
378.6062572853032
 10
1079.500201729986
 20
378.2518156324897
 10
1076.981763438209
 20
377.9054912606826
 10
1074.460110780503
 20
377.5680925738182
 10
1071.940337982047
 20
377.2357402846014
 10
1069.426396071409
 20
376.9105294761282
 10
1066.915238078998
 20
376.5943878351629
 10
1064.402912976236
 20
376.2852202786137
 10
1061.891372363647
 20
375.9850740620509
 10
1059.37766492668
 20
375.6918780161424
 10
1056.867836777006
 20
375.4037761954044
 10
1054.361720518302
 20
375.1277665980108
 10
1051.860507174675
 20
374.8558754255252
 10
1049.363005722021
 20
374.596076476384
 10
1046.866360500822
 20
374.3422997251555
 10
1044.372451370325
 20
374.0995915694871
 10
1041.883349499867
 20
373.8650006948252
 10
1039.396007919844
 20
373.6404547879365
 10
1036.911450258048
 20
373.4249780485566
 10
1034.430676228503
 20
373.2185943904485
 10
1031.955661345497
 20
373.0223513551582
 10
1029.484430094744
 20
372.8352014011381
 10
1027.017982190265
 20
372.6571684421501
 10
1024.564243602975
 20
372.4914429303581
 10
1022.117216048731
 20
372.3378813831962
 10
1019.674924013237
 20
372.1954362591148
 10
1017.2373674965
 20
372.0641075581166
 10
1014.803498956969
 20
371.9458707944895
 10
1012.382363648388
 20
371.838941764033
 10
1009.97096242869
 20
371.7432487254648
 10
1007.566152673224
 20
371.6647182216513
 10
1005.170125120139
 20
371.5954003679144
 10
1002.786759056726
 20
371.5403893894236
 10
1000.415054768949
 20
371.4996613724181
 10
998.0600108269516
 20
371.473335885704
 10
995.7155811190531
 20
371.4632688747636
 10
994.8320586401333
 20
371.4660219391236
  0
LINE
  5
78CE
330
1F
100
AcDbEntity
  8
0
100
AcDbLine
 10
987.2335870021595
 20
358.9969121251625
 30
0.0
 11
987.25764589358
 21
362.996839770728
 31
0.0
  0
LINE
  5
78CF
330
1F
100
AcDbEntity
  8
0
100
AcDbLine
 10
972.2516065783127
 20
363.0980780828259
 30
0.0
 11
972.2275476868926
 21
359.0981504372603
 31
0.0
  0
LINE
  5
78D0
330
1F
100
AcDbEntity
  8
0
100
AcDbLine
 10
928.1505950594
 20
349.5696376749493
 30
0.0
 11
928.2184106285477
 21
360.8443620621856
 31
0.0
  0
LINE
  5
78D1
330
1F
100
AcDbEntity
  8
0
100
AcDbLine
 10
979.8769936083408
 20
375.8471167646842
 30
0.0
 11
994.873829398759
 21
375.4658038336426
 31
0.0
  0
LINE
  5
78D2
330
1F
100
AcDbEntity
  8
0
100
AcDbLine
 10
980.007237988484
 20
388.3187387963894
 30
0.0
 11
995.0063927377414
 21
388.1594790404363
 31
0.0
  0
LINE
  5
78D3
330
1F
100
AcDbEntity
  8
0
100
AcDbLine
 10
1108.710089239492
 20
414.4457962553295
 30
0.0
 11
1093.710089239492
 21
414.6900437235761
 31
0.0
  0
LINE
  5
78D4
330
1F
100
AcDbEntity
  8
0
100
AcDbLine
 10
1108.710089239492
 20
401.5501386447763
 30
0.0
 11
1093.710089239492
 21
401.5739797773639
 31
0.0
  0
LINE
  5
78D5
330
1F
100
AcDbEntity
  8
0
100
AcDbLine
 10
1107.643390366844
 20
431.8319530786633
 30
0.0
 11
1092.643390366844
 21
431.8439187751669
 31
0.0
  0
LINE
  5
78D6
330
1F
100
AcDbEntity
  8
0
100
AcDbLine
 10
1107.643390366844
 20
445.1504788147985
 30
0.0
 11
1092.643390366844
 21
445.3816974779129
 31
0.0
  0
LWPOLYLINE
  5
78D7
330
1F
100
AcDbEntity
  8
0
  6
Continuous
100
AcDbPolyline
 90
       29
 70
     0
 43
0.0
 10
979.8352228497153
 20
371.847334870165
 10
979.7347097700749
 20
371.8522173641233
 10
977.5191096107755
 20
371.9762695069447
 10
975.3310949102486
 20
372.1179863735042
 10
973.1706417547227
 20
372.2783676778282
 10
971.0428204556121
 20
372.4545338466455
 10
968.9485828994127
 20
372.6485082217692
 10
966.8989498541614
 20
372.8595541405455
 10
964.898943803757
 20
373.0867914577552
 10
962.9505402624781
 20
373.3312677149463
 10
961.0526438612559
 20
373.5969578544571
 10
959.2123960808347
 20
373.878030988466
 10
957.42872546591
 20
374.1774623452851
 10
955.7027034717867
 20
374.4922766966024
 10
954.0424473794644
 20
374.8176667823813
 10
952.4559070736376
 20
375.15582334076
 10
950.9391315257143
 20
375.504651288644
 10
949.4951916190547
 20
375.8612232252417
 10
948.126182436763
 20
376.2215881219743
 10
946.8351031209094
 20
376.585817720126
 10
945.618098297955
 20
376.9478180805007
 10
944.4770717409138
 20
377.3116358867206
 10
943.4061925619587
 20
377.6701296580445
 10
942.4054129335656
 20
378.0252988225232
 10
941.4708774822027
 20
378.3710494409593
 10
940.6014430112827
 20
378.7133558837438
 10
939.786208321566
 20
379.0479562434032
 10
939.0291961829207
 20
379.3739464609569
 10
938.9415177892152
 20
379.4132943686745
  0
LINE
  5
78D8
330
1F
100
AcDbEntity
  8
0
100
AcDbLine
 10
979.8352228497153
 20
371.847334870165
 30
0.0
 11
979.8769936083408
 21
375.8471167646842
 31
0.0
  0
LINE
  5
78D9
330
1F
100
AcDbEntity
  8
0
100
AcDbLine
 10
980.0490087471116
 20
392.3185206909086
 30
0.0
 11
980.007237988484
 21
388.3187387963894
 31
0.0
  0
LWPOLYLINE
  5
78DA
330
1F
100
AcDbEntity
  8
0
  6
Continuous
100
AcDbPolyline
 90
       29
 70
     0
 43
0.0
 10
1108.710089239492
 20
418.4457962553295
 10
1108.970986524251
 20
418.4354842562575
 10
1111.22669897944
 20
418.3298323774433
 10
1113.455986879209
 20
418.2062991432376
 10
1115.655917826883
 20
418.0627866857261
 10
1117.823394498719
 20
417.9021944161613
 10
1119.956417983052
 20
417.7244563637108
 10
1122.044993721549
 20
417.5292426742156
 10
1124.082125523375
 20
417.3163224497653
 10
1126.067813388537
 20
417.0856956903588
 10
1128.002222244107
 20
416.8323651168315
 10
1129.878125001349
 20
416.5630960221041
 10
1131.695620616508
 20
416.2748900386763
 10
1133.455642574579
 20
415.9697790636313
 10
1135.148964875166
 20
415.6544624190574
 10
1136.767723813256
 20
415.3246783982953
 10
1138.314785814691
 20
414.9845237809245
 10
1139.787152511966
 20
414.6338996106983
 10
1141.184560021764
 20
414.2808015342807
 10
1142.503142462406
 20
413.9210997866761
 10
1143.74460187682
 20
413.5638554412143
 10
1144.910102647915
 20
413.2041042041459
 10
1146.00341170112
 20
412.848974207966
 10
1147.024595007256
 20
412.4964665410083
 10
1147.980450844668
 20
412.1528088361824
 10
1148.868145772932
 20
411.8129048580748
 10
1149.701606202881
 20
411.4792153141756
 10
1150.475735899104
 20
411.1545736449033
 10
1150.719599511725
 20
411.0476932643055
  0
LINE
  5
78DB
330
1F
100
AcDbEntity
  8
0
100
AcDbLine
 10
1108.710089239492
 20
418.4457962553295
 30
0.0
 11
1108.710089239492
 21
414.4457962553295
 31
0.0
  0
LINE
  5
78DC
330
1F
100
AcDbEntity
  8
0
100
AcDbLine
 10
1108.710089239492
 20
397.5501386447763
 30
0.0
 11
1108.710089239492
 21
401.5501386447763
 31
0.0
  0
LWPOLYLINE
  5
78DD
330
1F
100
AcDbEntity
  8
0
  6
Continuous
100
AcDbPolyline
 90
       29
 70
     0
 43
0.0
 10
1107.643390366844
 20
449.1504788147985
 10
1108.05156216893
 20
449.1348280005135
 10
1110.346470264576
 20
449.0282783287093
 10
1112.614967944417
 20
448.9038264241561
 10
1114.85409069536
 20
448.7603715316184
 10
1117.058807594887
 20
448.5987442042451
 10
1119.230084297182
 20
448.4199776467488
 10
1121.354961994613
 20
448.2226333512871
 10
1123.429409194115
 20
448.007575646266
 10
1125.449461953125
 20
447.7736700011901
 10
1127.4182198858
 20
447.5180194534822
 10
1129.327484904937
 20
447.2463503777753
 10
1131.177425886843
 20
446.9536656268019
 10
1132.968873384674
 20
446.6449961230886
 10
1134.691664227586
 20
446.3250012612916
 10
1136.339903164647
 20
445.9904801014868
 10
1137.913455094811
 20
445.6454303614863
 10
1139.413285672275
 20
445.2908852460041
 10
1140.835228302912
 20
444.9317068012613
 10
1142.177284127825
 20
444.5678274767365
 10
1143.44228255907
 20
444.2043457454786
 10
1144.628292288249
 20
443.8391951980587
 10
1145.741107240534
 20
443.478575062762
 10
1146.780794966431
 20
443.1204864806808
 10
1147.753149391101
 20
442.7711286801008
 10
1148.658305615583
 20
442.4265039432093
 10
1149.506224159155
 20
442.0879494520686
 10
1150.294838612379
 20
441.7573965150632
 10
1150.691926669118
 20
441.5838501706629
  0
LINE
  5
78DE
330
1F
100
AcDbEntity
  8
0
100
AcDbLine
 10
1107.643390366844
 20
427.8320135751283
 30
0.0
 11
1107.643390366844
 21
431.8319530786633
 31
0.0
  0
LINE
  5
78DF
330
1F
100
AcDbEntity
  8
0
100
AcDbLine
 10
1107.643390366844
 20
449.1504788147985
 30
0.0
 11
1107.643390366844
 21
445.1504788147985
 31
0.0
  0
LWPOLYLINE
  5
78E0
330
1F
100
AcDbEntity
  8
0
  6
Continuous
100
AcDbPolyline
 90
       25
 70
     0
 43
0.0
 10
939.0571819884298
 20
390.4887831815386
 10
939.4069906723162
 20
390.5521776414162
 10
940.2050832651912
 20
390.6833005348974
 10
941.0632543546215
 20
390.8118593979464
 10
941.9905970218696
 20
390.9340705983122
 10
942.9960847794079
 20
391.0511490738704
 10
944.0937136235879
 20
391.1634296172776
 10
945.290457638821
 20
391.272079338886
 10
946.5963139653595
 20
391.3773373763067
 10
948.0272780276044
 20
391.479586349719
 10
949.5862054850675
 20
391.584896284556
 10
951.2671458811093
 20
391.6911242702007
 10
953.0611735308028
 20
391.7950559407278
 10
954.9623379775148
 20
391.8945483855207
 10
956.9627849916033
 20
391.9834120103383
 10
959.0524217777838
 20
392.0654065336719
 10
961.2153246529269
 20
392.1371501932662
 10
963.446566788194
 20
392.1955242782403
 10
965.736079302056
 20
392.2432887930586
 10
968.0708419984185
 20
392.2811325728524
 10
970.4469038487095
 20
392.3069605345247
 10
972.865216739423
 20
392.3227960198892
 10
975.314735988768
 20
392.3303754056228
 10
977.7904869403771
 20
392.3285794088942
 10
980.0490087471116
 20
392.3185206909086
  0
LWPOLYLINE
  5
78E1
330
1F
100
AcDbEntity
  8
0
  6
Continuous
100
AcDbPolyline
 90
       25
 70
     0
 43
0.0
 10
1150.719599511725
 20
399.8259643533943
 10
1150.188592762773
 20
399.7248824496324
 10
1149.377829581612
 20
399.5830619148824
 10
1148.504902226308
 20
399.4451930193469
 10
1147.561782064771
 20
399.3120113355308
 10
1146.538474538672
 20
399.1831870092769
 10
1145.422986178022
 20
399.0583242155927
 10
1144.205322424477
 20
398.9370931003218
 10
1142.877553602215
 20
398.8172308684693
 10
1141.421623535399
 20
398.7001426942152
 10
1139.836763666117
 20
398.5787994013135
 10
1138.126905846864
 20
398.4553318430926
 10
1136.301945679723
 20
398.3330682412111
 10
1134.367813928857
 20
398.2142054198307
 10
1132.331308872613
 20
398.1049710118609
 10
1130.206521848893
 20
398.0028284456243
 10
1128.005413342285
 20
397.909173001945
 10
1125.734781631119
 20
397.8302323137336
 10
1123.404852171643
 20
397.7593400443161
 10
1121.028551918854
 20
397.6989239157651
 10
1118.610812181083
 20
397.6511477668273
 10
1116.150732458747
 20
397.6129802445862
 10
1113.657373825175
 20
397.58271930612
 10
1111.137699485786
 20
397.5615953051706
 10
1108.710089239492
 20
397.5501386447763
  0
LWPOLYLINE
  5
78E2
330
1F
100
AcDbEntity
  8
0
  6
Continuous
100
AcDbPolyline
 90
       26
 70
     0
 43
0.0
 10
1150.691926669118
 20
430.2100643251801
 10
1150.00611538906
 20
430.0789817296431
 10
1149.180540648511
 20
429.9340150170436
 10
1148.291832976105
 20
429.791917610269
 10
1147.33286126464
 20
429.656450800307
 10
1146.291699911187
 20
429.5252104251185
 10
1145.156389537584
 20
429.3967917521198
 10
1143.916868298758
 20
429.2728558876083
 10
1142.565275860146
 20
429.1491349116826
 10
1141.084486819996
 20
429.0290523627199
 10
1139.471806867292
 20
428.9035120498588
 10
1137.732098048262
 20
428.7766805672163
 10
1135.875287106911
 20
428.6508945263099
 10
1133.907303069441
 20
428.5283554376091
 10
1131.835904944648
 20
428.4163295093754
 10
1129.67325476227
 20
428.3102248974728
 10
1127.434242638326
 20
428.2135465191753
 10
1125.124730048486
 20
428.1304947438616
 10
1122.752847529427
 20
428.0573420558066
 10
1120.335619157104
 20
427.9936632049938
 10
1117.875908118836
 20
427.9435572350174
 10
1115.371884432025
 20
427.9019594480906
 10
1112.835507474843
 20
427.8702745767978
 10
1110.271875720336
 20
427.8456732090835
 10
1107.679854638011
 20
427.8321192875004
 10
1107.643390366844
 20
427.8320135751283
  0
LINE
  5
78E3
330
1F
100
AcDbEntity
  8
0
100
AcDbLine
 10
938.9415177892152
 20
379.4132943686745
 30
0.0
 11
939.0571819884298
 21
390.4887831815386
 31
0.0
  0
LINE
  5
78E4
330
1F
100
AcDbEntity
  8
0
100
AcDbLine
 10
1150.719599511725
 20
411.0476932643055
 30
0.0
 11
1150.719599511725
 21
399.8259643533943
 31
0.0
  0
LINE
  5
78E5
330
1F
100
AcDbEntity
  8
0
100
AcDbLine
 10
1150.691926669118
 20
441.5838501706629
 30
0.0
 11
1150.691926669118
 21
430.2100643251801
 31
0.0
  0
LWPOLYLINE
  5
78E6
330
1F
100
AcDbEntity
  8
0
  6
Continuous
100
AcDbPolyline
 90
       26
 70
     0
 43
0.0
 10
928.2184106285477
 20
360.8443620621856
 10
928.6690044538262
 20
360.9330274425464
 10
929.4533076327606
 20
361.0777393063072
 10
930.2936999093764
 20
361.2199990033714
 10
931.1992054645925
 20
361.3590554288348
 10
932.1759324611919
 20
361.491075783777
 10
933.236820716953
 20
361.6184182699708
 10
934.3928660375567
 20
361.7413866265033
 10
935.6540646099857
 20
361.8602569798259
 10
937.029357777239
 20
361.9772770811287
 10
938.5368215138134
 20
362.089945101925
 10
940.1782065433106
 20
362.2073128357842
 10
941.9486252228086
 20
362.3252437446899
 10
943.8381365906208
 20
362.4414624648025
 10
945.8397985411536
 20
362.5537764702149
 10
947.9478066507143
 20
362.6550227541684
 10
950.1480281943187
 20
362.7498128331354
 10
952.427578579458
 20
362.833789267941
 10
954.7765444570902
 20
362.9036770760468
 10
957.1888176644442
 20
362.9633090563775
 10
959.6484043023483
 20
363.0122434066243
 10
962.1513335086602
 20
363.0493700575034
 10
964.697605283367
 20
363.0746890090222
 10
967.2781126076259
 20
363.0919502221723
 10
969.8858581505302
 20
363.1009604084383
 10
972.2516065783127
 20
363.0980780828259
  0
LINE
  5
78E7
330
1F
100
AcDbEntity
  8
0
100
AcDbLine
 10
994.873829398759
 20
375.4658038336426
 30
0.0
 11
994.8320586401333
 21
371.4660219391236
 31
0.0
  0
LINE
  5
78E8
330
1F
100
AcDbEntity
  8
0
100
AcDbLine
 10
995.0063927377414
 20
388.1594790404363
 30
0.0
 11
995.048163496367
 21
392.1592609349555
 31
0.0
  0
LWPOLYLINE
  5
78E9
330
1F
100
AcDbEntity
  8
0
  6
Continuous
100
AcDbPolyline
 90
       38
 70
     0
 43
0.0
 10
1003.219599511729
 20
410.3570748064826
 10
1004.929254205666
 20
410.6173700879899
 10
1007.494022777826
 20
411.0001783575638
 10
1010.053991983319
 20
411.3768249650596
 10
1012.616289954634
 20
411.7435429850566
 10
1015.177753397194
 20
412.1052307404711
 10
1017.733451002672
 20
412.4597243925591
 10
1020.287479550639
 20
412.8041575154843
 10
1022.840706555269
 20
413.1425609179946
 10
1025.394263414058
 20
413.4709697621742
 10
1027.950050082421
 20
413.7924483863534
 10
1030.502003854537
 20
414.1087977897041
 10
1033.049356172472
 20
414.412988795977
 10
1035.59184315291
 20
414.7130170518392
 10
1038.131760576249
 20
414.9999534256229
 10
1040.670876456255
 20
415.2808600789916
 10
1043.206324367085
 20
415.5516402323664
 10
1045.737071867495
 20
415.8132603561634
 10
1048.266150310395
 20
416.064819950798
 10
1050.793526710375
 20
416.3073184721018
 10
1053.315236229511
 20
416.53962452258
 10
1055.833244794059
 20
416.7628035288966
 10
1058.346585933603
 20
416.9758230498027
 10
1060.855226662719
 20
417.1796825411314
 10
1063.351270290997
 20
417.3711197520565
 10
1065.839714097605
 20
417.5502996096569
 10
1068.324555905867
 20
417.7173540555964
 10
1070.803763818705
 20
417.8732165748765
 10
1073.279369733205
 20
418.0169536824955
 10
1075.743378002695
 20
418.1483014951273
 10
1078.195788627177
 20
418.2672600127712
 10
1080.642763268733
 20
418.3690298687561
 10
1083.081039676534
 20
418.4615077535004
 10
1085.506784954323
 20
418.5395644461753
 10
1087.919999102112
 20
418.6031999467794
 10
1090.31568484072
 20
418.652249328235
 10
1092.701936773064
 20
418.6839781063686
 10
1093.710089239492
 20
418.6900437235761
  0
LINE
  5
78EA
330
1F
100
AcDbEntity
  8
0
100
AcDbLine
 10
998.219599511729
 20
409.5853226447748
 30
0.0
 11
998.5246875505399
 21
407.6087292903961
 31
0.0
  0
LINE
  5
78EB
330
1F
100
AcDbEntity
  8
0
100
AcDbLine
 10
1003.52468755054
 20
408.380481452104
 30
0.0
 11
1003.219599511729
 21
410.3570748064826
 31
0.0
  0
LINE
  5
78EC
330
1F
100
AcDbEntity
  8
0
100
AcDbLine
 10
1003.52468755054
 20
408.380481452104
 30
0.0
 11
998.5246875505399
 21
407.6087292903961
 31
0.0
  0
LINE
  5
78ED
330
1F
100
AcDbEntity
  8
0
100
AcDbLine
 10
998.219599511729
 20
399.8040979395787
 30
0.0
 11
998.219599511729
 21
397.8040979395787
 31
0.0
  0
LINE
  5
78EE
330
1F
100
AcDbEntity
  8
0
100
AcDbLine
 10
1003.219599511729
 20
399.796231985461
 30
0.0
 11
998.219599511729
 21
399.8040979395787
 31
0.0
  0
LINE
  5
78EF
330
1F
100
AcDbEntity
  8
0
100
AcDbLine
 10
1003.219599511729
 20
397.796231985461
 30
0.0
 11
1003.219599511729
 21
399.796231985461
 31
0.0
  0
LWPOLYLINE
  5
78F0
330
1F
100
AcDbEntity
  8
0
  6
Continuous
100
AcDbPolyline
 90
       36
 70
     0
 43
0.0
 10
1093.710089239492
 20
397.5739797773639
 10
1092.814180870766
 20
397.5781954565227
 10
1090.123246637697
 20
397.5924416240314
 10
1087.422317846296
 20
397.6063579373822
 10
1084.718456658225
 20
397.6181763828185
 10
1082.01266252932
 20
397.6279299457574
 10
1079.301838135838
 20
397.6385180374497
 10
1076.590113242764
 20
397.6460747762262
 10
1073.877322923032
 20
397.6555974412537
 10
1071.166630471209
 20
397.6621877096131
 10
1068.454938563551
 20
397.6687449925575
 10
1065.742247200065
 20
397.6752692900855
 10
1063.030555292411
 20
397.6818265730294
 10
1060.31779795809
 20
397.6903497822235
 10
1057.60314066835
 20
397.6958086530872
 10
1054.888417407779
 20
397.7032664356162
 10
1052.173793103462
 20
397.7077258506465
 10
1049.460069298724
 20
397.715216618592
 10
1046.74134821482
 20
397.7225424594576
 10
1044.024724998833
 20
397.7269359036558
 10
1041.306036900347
 20
397.7332622886884
 10
1038.586349346025
 20
397.7395556883053
 10
1035.865662335873
 20
397.7458161025061
 10
1033.149039119886
 20
397.7502095467048
 10
1030.42938455098
 20
397.7555034904885
 10
1027.712794320408
 20
397.7588974788537
 10
1024.996138119004
 20
397.7642903788851
 10
1022.278449476351
 20
397.7706497493337
 10
1019.560892775362
 20
397.7730112964497
 10
1016.844236573955
 20
397.778404196481
 10
1014.124614990469
 20
397.782698684432
 10
1011.408057745311
 20
397.785093216964
 10
1008.688403176409
 20
397.7903871607473
 10
1005.970879460834
 20
397.7917492520314
 10
1003.25525570068
 20
397.7961756816449
 10
1003.219599511729
 20
397.796231985461
  0
LINE
  5
78F1
330
1F
100
AcDbEntity
  8
0
100
AcDbLine
 10
1093.710089239492
 20
414.6900437235761
 30
0.0
 11
1093.710089239492
 21
418.6900437235761
 31
0.0
  0
LINE
  5
78F2
330
1F
100
AcDbEntity
  8
0
100
AcDbLine
 10
1093.710089239492
 20
401.5739797773639
 30
0.0
 11
1093.710089239492
 21
397.5739797773639
 31
0.0
  0
LWPOLYLINE
  5
78F3
330
1F
100
AcDbEntity
  8
0
  6
Continuous
100
AcDbPolyline
 90
       37
 70
     0
 43
0.0
 10
1003.191926669118
 20
441.2451211721189
 10
1004.806951805698
 20
441.4873511
 10
1007.411428002537
 20
441.8725377302112
 10
1010.018240810892
 20
442.2477976164132
 10
1012.624223066101
 20
442.6180265800884
 10
1015.224445171418
 20
442.9810568860261
 10
1017.822006740982
 20
443.33399157165
 10
1020.419838512634
 20
443.6789308216487
 10
1023.017974261636
 20
444.0148752065706
 10
1025.617312091657
 20
444.3448567900336
 10
1028.213854284882
 20
444.6687404709955
 10
1030.805804633975
 20
444.9804621222151
 10
1033.391927282655
 20
445.2869839746036
 10
1035.97645637556
 20
445.581445123033
 10
1038.559189261121
 20
445.8698421442218
 10
1041.139295386196
 20
446.1471441156426
 10
1043.713708911902
 20
446.4152485704206
 10
1046.287460760761
 20
446.6733249554066
 10
1048.857552644418
 20
446.9212719448178
 10
1051.423950787611
 20
447.1600889681071
 10
1053.985689536148
 20
447.3887428205601
 10
1056.54273511477
 20
447.6082329316304
 10
1059.095121298734
 20
447.8175598718648
 10
1061.633920773485
 20
448.0144208050091
 10
1064.166129545196
 20
448.199052157889
 10
1066.693746472774
 20
448.3715214810277
 10
1069.216805331478
 20
448.5308293449707
 10
1071.735238570789
 20
448.6789746086238
 10
1074.242083959791
 20
448.8147214157093
 10
1076.738340927939
 20
448.9381035414861
 10
1079.228176069355
 20
449.0442589397347
 10
1081.708354668848
 20
449.1400822908413
 10
1084.176013539105
 20
449.2214745512133
 10
1086.631152680125
 20
449.2884357208481
 10
1089.069841924614
 20
449.3388318397988
 10
1091.497044644584
 20
449.3738312138201
 10
1092.643390366844
 20
449.3816974779129
  0
LINE
  5
78F4
330
1F
100
AcDbEntity
  8
0
100
AcDbLine
 10
998.1919266691184
 20
440.4809183696775
 30
0.0
 11
998.4940987589361
 21
438.5038771389148
 31
0.0
  0
LINE
  5
78F5
330
1F
100
AcDbEntity
  8
0
100
AcDbLine
 10
1003.191926669118
 20
441.2451211721189
 30
0.0
 11
1003.494098758936
 21
439.2680799413565
 31
0.0
  0
LINE
  5
78F6
330
1F
100
AcDbEntity
  8
0
100
AcDbLine
 10
1003.494098758936
 20
439.2680799413565
 30
0.0
 11
998.4940987589361
 21
438.5038771389148
 31
0.0
  0
LINE
  5
78F7
330
1F
100
AcDbEntity
  8
0
100
AcDbLine
 10
998.1919266691184
 20
429.9997635284621
 30
0.0
 11
998.1919266691184
 21
427.9997635284622
 31
0.0
  0
LINE
  5
78F8
330
1F
100
AcDbEntity
  8
0
100
AcDbLine
 10
1003.191926669118
 20
429.9958786928653
 30
0.0
 11
998.1919266691184
 21
429.9997635284621
 31
0.0
  0
LINE
  5
78F9
330
1F
100
AcDbEntity
  8
0
100
AcDbLine
 10
1003.191926669118
 20
427.9958786928655
 30
0.0
 11
1003.191926669118
 21
429.9958786928653
 31
0.0
  0
LWPOLYLINE
  5
78FA
330
1F
100
AcDbEntity
  8
0
  6
Continuous
100
AcDbPolyline
 90
       35
 70
     0
 43
0.0
 10
1092.643390366844
 20
427.8439187751668
 10
1091.628160755576
 20
427.8479781862293
 10
1088.891174798922
 20
427.8605429401164
 10
1086.142195688819
 20
427.8727023908722
 10
1083.391319045597
 20
427.8817960027471
 10
1080.639442972922
 20
427.8908558393603
 10
1077.881604098791
 20
427.8987135949559
 10
1075.121833916273
 20
427.9045049411228
 10
1072.362029958498
 20
427.9112957167431
 10
1069.604292410145
 20
427.9161551839783
 10
1066.844556002888
 20
427.920947100692
 10
1064.084819595635
 20
427.9257390174051
 10
1061.326116393091
 20
427.9295652799273
 10
1058.566346210576
 20
427.9353566260938
 10
1055.803645290219
 20
427.9390477875721
 10
1053.0418762488
 20
427.9447715832175
 10
1050.280208533157
 20
427.9474970905026
 10
1047.518439491736
 20
427.9532208861478
 10
1044.753705937213
 20
427.9578439265564
 10
1041.989039933212
 20
427.9604681080594
 10
1039.222307519783
 20
427.9650235979461
 10
1036.45557510636
 20
427.9695790878336
 10
1033.687877038739
 20
427.9731013730065
 10
1030.923244809999
 20
427.9747261250562
 10
1028.156546171833
 20
427.9782821854904
 10
1025.391913943092
 20
427.9799069375399
 10
1022.628213593285
 20
427.9835643237573
 10
1019.863513814027
 20
427.9871879347129
 10
1017.098915360548
 20
427.9878132573088
 10
1014.335248786001
 20
427.9904712140733
 10
1011.567584493643
 20
427.9929940697933
 10
1008.802986040164
 20
427.99361939239
 10
1006.03632117726
 20
427.9961760233703
 10
1003.271756499041
 20
427.9958019165142
 10
1003.191926669118
 20
427.9958786928655
  0
LINE
  5
78FB
330
1F
100
AcDbEntity
  8
0
100
AcDbLine
 10
1092.643390366844
 20
431.8439187751669
 30
0.0
 11
1092.643390366844
 21
427.8439187751668
 31
0.0
  0
LINE
  5
78FC
330
1F
100
AcDbEntity
  8
0
100
AcDbLine
 10
1092.643390366844
 20
445.3816974779129
 30
0.0
 11
1092.643390366844
 21
449.3816974779129
 31
0.0
  0
LINE
  5
78FD
330
1F
100
AcDbEntity
  8
0
100
AcDbLine
 10
1080.717671647581
 20
360.2628755045671
 30
0.0
 11
1080.729701093292
 21
362.2628393273509
 31
0.0
  0
LINE
  5
78FE
330
1F
100
AcDbEntity
  8
0
100
AcDbLine
 10
1075.717776491498
 20
360.2953433453422
 30
0.0
 11
1080.717671647581
 21
360.2628755045671
 31
0.0
  0
LINE
  5
78FF
330
1F
100
AcDbEntity
  8
0
100
AcDbLine
 10
1075.729805937208
 20
362.2953071681258
 30
0.0
 11
1075.717776491498
 21
360.2953433453422
 31
0.0
  0
LWPOLYLINE
  5
7900
330
1F
100
AcDbEntity
  8
0
  6
Continuous
100
AcDbPolyline
 90
       33
 70
     0
 43
0.0
 10
987.25764589358
 20
362.996839770728
 10
988.8484142625639
 20
362.9805208056569
 10
991.6333076527171
 20
362.9504075946352
 10
994.4281696172126
 20
362.9215701287585
 10
997.2259752125065
 20
362.8948147382107
 10
1000.025752432559
 20
362.8691141916506
 10
1002.8305277461
 20
362.8435517083117
 10
1005.637247071747
 20
362.8200436876586
 10
1008.444993628734
 20
362.795563660955
 10
1011.249686104342
 20
362.7730000337106
 10
1014.0563502047
 20
362.7514912504557
 10
1016.863014305058
 20
362.7299824671991
 10
1019.669678405416
 20
362.7084736839443
 10
1022.476397731065
 20
362.6849656632903
 10
1025.285061068822
 20
362.6635121053259
 10
1028.094751637918
 20
362.6410865413045
 10
1030.904386981728
 20
362.6206602146804
 10
1033.713077932127
 20
362.598207038016
 10
1036.524767738621
 20
362.5758366992832
 10
1039.336402319826
 20
362.5554655979486
 10
1042.150063751072
 20
362.5341501032044
 10
1044.964752413662
 20
362.5118626024069
 10
1047.77941346361
 20
362.4905747203066
 10
1050.59102043217
 20
362.471203237672
 10
1053.405681482115
 20
362.4499153555707
 10
1056.217260838031
 20
362.4315434916325
 10
1059.027895800538
 20
362.4111447776531
 10
1061.840557613084
 20
362.3898016702642
 10
1064.652136969005
 20
362.371429806326
 10
1067.463771550206
 20
362.3510587049914
 10
1070.278377374863
 20
362.3317700602874
 10
1073.089956730779
 20
362.3133981963501
 10
1075.729805937208
 20
362.2953071681258
  0
LINE
  5
7901
330
1F
100
AcDbEntity
  8
0
100
AcDbLine
 10
972.2275476868926
 20
359.0981504372603
 30
0.0
 11
987.2335870021595
 21
358.9969121251625
 31
0.0
  0
LINE
  5
7902
330
1F
100
AcDbEntity
  8
0
100
AcDbLine
 10
972.1450193131348
 20
345.3773385362911
 30
0.0
 11
987.1496009528236
 21
345.0337533622041
 31
0.0
  0
LWPOLYLINE
  5
7903
330
1F
100
AcDbEntity
  8
0
  6
Continuous
100
AcDbPolyline
 90
       30
 70
     0
 43
0.0
 10
972.1209604217127
 20
341.3774108907264
 10
972.0103767051297
 20
341.3823426367853
 10
969.6751019550177
 20
341.5049062589869
 10
967.3683467321952
 20
341.6452641657479
 10
965.0920550487736
 20
341.8054708197597
 10
962.8502806048343
 20
341.983637434193
 10
960.643051013023
 20
342.1787643903626
 10
958.4823064724224
 20
342.3931822773893
 10
956.3740999205183
 20
342.625057533749
 10
954.3204305947055
 20
342.8744453847276
 10
952.3191335817207
 20
343.1472883172273
 10
950.3783991196613
 20
343.4368099015155
 10
948.4981443705876
 20
343.7460089936848
 10
946.6784797850904
 20
344.0708871189499
 10
944.9275127633226
 20
344.407666703667
 10
943.2532126422266
 20
344.7575682676934
 10
941.6536354097043
 20
345.1185373483413
 10
940.1308355284255
 20
345.4886299335039
 10
938.6849510616302
 20
345.8628479296922
 10
937.3229517275504
 20
346.2423842441148
 10
936.0380610964602
 20
346.619048638674
 10
934.8341119672767
 20
346.9989492761379
 10
933.7033559042211
 20
347.3728686870636
 10
932.6477369194035
 20
347.742861334139
 10
931.6603681325103
 20
348.1047354540606
 10
930.7421663243074
 20
348.4615175155651
 10
929.881163683056
 20
348.8118765482222
 10
929.0804695154402
 20
349.1518969151694
 10
928.3350305026672
 20
349.4834397905843
 10
928.1505950594
 20
349.5696376749493
  0
LINE
  5
7904
330
1F
100
AcDbEntity
  8
0
100
AcDbLine
 10
972.1209604217127
 20
341.3774108907264
 30
0.0
 11
972.1450193131348
 21
345.3773385362911
 31
0.0
  0
LWPOLYLINE
  5
7905
330
1F
100
AcDbEntity
  8
0
  6
Continuous
100
AcDbPolyline
 90
       36
 70
     0
 43
0.0
 10
1075.645689957608
 20
348.3105467586392
 10
1074.421891147771
 20
348.1377712363592
 10
1071.767969446568
 20
347.7723501041237
 10
1069.11490930084
 20
347.4119546780266
 10
1066.468625584846
 20
347.0597494900267
 10
1063.824092592447
 20
346.7165960955999
 10
1061.179338698888
 20
346.3814396507605
 10
1058.534336291534
 20
346.055279774203
 10
1055.888113364319
 20
345.7370892345871
 10
1053.245750848676
 20
345.4240072390412
 10
1050.607055456097
 20
345.1230311184536
 10
1047.974219712479
 20
344.8272187672219
 10
1045.344051473226
 20
344.5434846783055
 10
1042.715689182854
 20
344.2668031455614
 10
1040.090022009492
 20
344.0012002564326
 10
1037.469104415815
 20
343.7447319988141
 10
1034.849909933095
 20
343.4983151534625
 10
1032.233438180017
 20
343.2619773330289
 10
1029.621716006634
 20
343.0347741441037
 10
1027.014715800298
 20
342.8177052053825
 10
1024.41240994836
 20
342.6117701355615
 10
1021.814881288761
 20
342.4139700785517
 10
1019.230960713912
 20
342.230551260338
 10
1016.654733349564
 20
342.0583491489633
 10
1014.082145495627
 20
341.899252531246
 10
1011.515224002138
 20
341.7523170137711
 10
1008.951969631715
 20
341.6174873712525
 10
1006.401378952634
 20
341.4950121174952
 10
1003.86242473355
 20
341.3858632585443
 10
1001.329026424348
 20
341.2928739746358
 10
998.8053205630386
 20
341.2111566228514
 10
996.2952227864771
 20
341.1438205098657
 10
993.7967062446297
 20
341.0918100290901
 10
991.3167958810262
 20
341.0543188503333
 10
988.8463846768043
 20
341.0350969345891
 10
987.1255420614032
 20
341.0338257166413
  0
LINE
  5
7906
330
1F
100
AcDbEntity
  8
0
100
AcDbLine
 10
1080.650104321314
 20
349.0294229094416
 30
0.0
 11
1080.365726573962
 21
351.0091019987913
 31
0.0
  0
LINE
  5
7907
330
1F
100
AcDbEntity
  8
0
100
AcDbLine
 10
1075.645689957608
 20
348.3105467586392
 30
0.0
 11
1075.36131221025
 21
350.290225847989
 31
0.0
  0
LINE
  5
7908
330
1F
100
AcDbEntity
  8
0
100
AcDbLine
 10
1075.36131221025
 20
350.290225847989
 30
0.0
 11
1080.365726573962
 21
351.0091019987913
 31
0.0
  0
LINE
  5
7909
330
1F
100
AcDbEntity
  8
0
100
AcDbLine
 10
987.1496009528236
 20
345.0337533622041
 30
0.0
 11
987.1255420614032
 21
341.0338257166413
 31
0.0
  0
CIRCLE
  5
790F
330
1F
100
AcDbEntity
  8
0
100
AcDbCircle
 10
979.6827956757114
 20
350.7053914004773
 30
0.0
 40
5.5
  0
CIRCLE
  5
7910
330
1F
100
AcDbEntity
  8
0
100
AcDbCircle
 10
1099.534544596978
 20
439.3141187965142
 30
0.0
 40
5.5
  0
CIRCLE
  5
7911
330
1F
100
AcDbEntity
  8
0
100
AcDbCircle
 10
1099.534544596978
 20
408.0525262613845
 30
0.0
 40
5.5
  0
CIRCLE
  5
7912
330
1F
100
AcDbEntity
  8
0
100
AcDbCircle
 10
990.1601230170436
 20
382.7106263795197
 30
0.0
 40
5.5
  0
CIRCLE
  5
7913
330
1F
100
AcDbEntity
  8
0
100
AcDbCircle
 10
783.7575089805085
 20
437.7392772066049
 30
0.0
 40
5.5
  0
CIRCLE
  5
7914
330
1F
100
AcDbEntity
  8
0
100
AcDbCircle
 10
808.8039711320742
 20
446.7826052027488
 30
0.0
 40
2.0
  0
CIRCLE
  5
7915
330
1F
100
AcDbEntity
  8
0
100
AcDbCircle
 10
1004.572022967175
 20
357.9413196729811
 30
0.0
 40
2.0
  0
CIRCLE
  5
7916
330
1F
100
AcDbEntity
  8
0
100
AcDbCircle
 10
1074.689289620177
 20
432.1555692599317
 30
0.0
 40
2.0
  0
CIRCLE
  5
7917
330
1F
100
AcDbEntity
  8
0
100
AcDbCircle
 10
1074.689289620177
 20
401.9027472073767
 30
0.0
 40
2.0
  0
CIRCLE
  5
7918
330
1F
100
AcDbEntity
  8
0
100
AcDbCircle
 10
1015.058275457377
 20
387.6461228227073
 30
0.0
 40
2.0
  0
LWPOLYLINE
  5
7919
330
1F
100
AcDbEntity
  8
0
  6
Continuous
100
AcDbPolyline
 90
       61
 70
     0
 43
0.0
 10
542.5916866154056
 20
265.9215073380196
 10
541.8458557275535
 20
265.9239218527368
 10
539.2019111410498
 20
265.935103243281
 10
536.5480068088016
 20
265.9449417024293
 10
533.8912073036643
 20
265.9516788757255
 10
531.2334083887381
 20
265.9583816968607
 10
528.5695786629093
 20
265.9658778148237
 10
525.9048869359267
 20
265.9693419414643
 10
523.2391270948445
 20
265.9747705355258
 10
520.5764685396043
 20
265.9773039566971
 10
517.9107774028325
 20
265.9807337311768
 10
515.2461200280177
 20
265.9831984480279
 10
512.5814626531954
 20
265.9856631648786
 10
509.9167365740595
 20
265.9901267013093
 10
507.2490809698738
 20
265.9924883616782
 10
504.5813910135201
 20
265.9958494318371
 10
501.9137697614951
 20
265.9972116824165
 10
499.2470792149323
 20
266.0006071047355
 10
496.5763910292117
 20
266.0038651184141
 10
493.9067709576066
 20
266.005158664671
 10
491.2351177142553
 20
266.0073829163985
 10
488.5634301187438
 20
266.0106065779155
 10
485.8907774656016
 20
266.012796477482
 10
483.2211917461553
 20
266.0130906139489
 10
480.548573445174
 20
266.0142811037249
 10
477.8789877257258
 20
266.0145752401922
 10
475.2103670639061
 20
266.0159031386106
 10
472.5397132303459
 20
266.0181617424982
 10
469.8701618630601
 20
266.0174564691747
 10
467.2005417914497
 20
266.018750015432
 10
464.5279234904701
 20
266.0199405052081
 10
461.8584064753413
 20
266.0182358220946
 10
459.1857881743634
 20
266.0194263118706
 10
456.5162711592346
 20
266.017721628757
 10
453.8476848495756
 20
266.018050117385
 10
451.1750665485979
 20
266.0192406071606
 10
448.5024825997769
 20
266.0194316871466
 10
445.8329999368087
 20
266.0167275942422
 10
443.1614153977807
 20
266.0169530263888
 10
440.4889345054398
 20
266.014145877004
 10
437.8203481957824
 20
266.0144743656315
 10
435.1477985991259
 20
266.0136660358262
 10
432.4753177067869
 20
266.0108588864409
 10
429.8057319873387
 20
266.0111530229078
 10
427.1362836765312
 20
266.0074495202139
 10
424.4717293581925
 20
266.0069160076928
 10
421.8042455148077
 20
266.0042806191104
 10
419.1406906062637
 20
266.0037814587504
 10
416.4751368781361
 20
266.0032135940686
 10
413.8096862064921
 20
265.9996475000166
 10
411.1472337642172
 20
265.9961844624463
 10
408.484678265462
 20
265.9957196542468
 10
405.8272228721416
 20
265.9924283774785
 10
403.17876216693
 20
265.9894462701554
 10
400.5432937889982
 20
265.9869107409181
 10
397.922816557917
 20
265.9848904940891
 10
395.3244293987081
 20
265.9806277654202
 10
392.7579890006291
 20
265.9784637156777
 10
390.2355226333293
 20
265.9778111609981
 10
387.7691949750879
 20
265.9740852783552
 10
386.0472526527265
 20
265.971931568165
  0
LWPOLYLINE
  5
791A
330
1F
100
AcDbEntity
  8
0
  6
Continuous
100
AcDbPolyline
 90
       26
 70
     0
 43
0.0
 10
978.6831987441328
 20
264.115684996715
 10
978.278612310274
 20
264.1163187292668
 10
975.562088050532
 20
264.1177138059656
 10
972.8424664670438
 20
264.1220082939167
 10
970.1229438398039
 20
264.1233044143679
 10
967.4063536092326
 20
264.1266984027329
 10
964.6867650111598
 20
264.1299934348503
 10
961.9672423839183
 20
264.1312895553024
 10
959.2506851387643
 20
264.1336840878334
 10
956.533161423189
 20
264.1350461791176
 10
953.8216014571972
 20
264.1376056387285
 10
951.1071090945387
 20
264.1380672304263
 10
948.3955161431332
 20
264.1416261458708
 10
945.6829567213043
 20
264.1441526200661
 10
942.9694638144811
 20
264.1446471971799
 10
940.2609681868195
 20
264.1453067013722
 10
937.5514071324976
 20
264.1479321318156
 10
934.8459098723344
 20
264.1486905922566
 10
932.1514396117546
 20
264.1488124364387
 10
929.4679303799204
 20
264.1502965760287
 10
926.8024443385019
 20
264.1513749972714
 10
924.1569803991588
 20
264.152113670998
 10
921.5455309435583
 20
264.1529743930318
 10
918.9780575446146
 20
264.1552864733649
 10
916.4687175110703
 20
264.1545144286529
 10
914.4506050728212
 20
264.1549463856418
  0
LWPOLYLINE
  5
791B
330
1F
100
AcDbEntity
  8
0
  6
Continuous
100
AcDbPolyline
 90
       27
 70
     0
 43
0.0
 10
978.6555259015221
 20
294.3113505855986
 10
978.2050580692541
 20
294.3116041319422
 10
975.4373937768942
 20
294.3141269876623
 10
972.6728628739364
 20
294.3127534513524
 10
969.9061980110327
 20
294.3153100823338
 10
967.1396682491741
 20
294.3138689955022
 10
964.3760354498864
 20
294.3155275228123
 10
961.6084049327872
 20
294.3170509490792
 10
958.8418751709268
 20
294.3156098622477
 10
956.0772767174457
 20
294.3162351848446
 10
953.3127458144935
 20
294.3148616485347
 10
950.5541439377319
 20
294.3156896226965
 10
947.7916118936827
 20
294.314383636909
 10
945.0330100169248
 20
294.3152116110713
 10
942.2734087107112
 20
294.3160058099725
 10
939.5128755255663
 20
294.3147673747062
 10
936.7573732629516
 20
294.3126983862926
 10
933.9997708156444
 20
294.3135601357158
 10
931.2472668413848
 20
294.3115924730841
 10
928.505756591112
 20
294.3099963383233
 10
925.7762394942799
 20
294.3088055066942
 10
923.0637126981456
 20
294.3081888545003
 10
920.3732409005024
 20
294.306316399141
 10
917.7147508453581
 20
294.3055247521325
 10
915.1032677497752
 20
294.3053211129359
 10
912.5498866635116
 20
294.3030787210605
 10
910.2366050728214
 20
294.3019463856416
  0
LWPOLYLINE
  5
791C
330
1F
100
AcDbEntity
  8
0
  6
Continuous
100
AcDbPolyline
 90
       29
 70
     0
 43
0.0
 10
1064.06485349797
 20
333.7619724075505
 10
1064.861843627055
 20
333.7530976143412
 10
1067.67636596981
 20
333.7208954073976
 10
1070.490864931477
 20
333.6896929270793
 10
1073.302294570003
 20
333.6614194833696
 10
1076.116793531672
 20
333.6302170030506
 10
1078.930222623443
 20
333.6019903215182
 10
1081.741699024149
 20
333.571717424559
 10
1084.556197985812
 20
333.5405149442404
 10
1087.369603696501
 20
333.5132879893331
 10
1090.181080097205
 20
333.4830150923731
 10
1092.992509735732
 20
333.4547416486641
 10
1095.798987503307
 20
333.4243518462614
 10
1098.608394307493
 20
333.3970313669995
 10
1101.413872348448
 20
333.3666181835083
 10
1104.221326461562
 20
333.3372514888192
 10
1107.028733812501
 20
333.3098842473801
 10
1109.832142256937
 20
333.2824234815864
 10
1112.635597463552
 20
333.2529632625433
 10
1115.43500700149
 20
333.2254089723952
 10
1118.224419273176
 20
333.1976208713604
 10
1120.999835372116
 20
333.1695054350857
 10
1123.759232463964
 20
333.1420156280176
 10
1126.495612462349
 20
333.1149877825362
 10
1129.198978101023
 20
333.0881880877543
 10
1131.855356588321
 20
333.060289481808
 10
1134.452657680395
 20
333.0350102981327
 10
1136.970910225826
 20
333.0108831883301
 10
1137.059956038716
 20
333.009964925343
  0
LWPOLYLINE
  5
791D
330
1F
100
AcDbEntity
  8
0
  6
Continuous
100
AcDbPolyline
 90
      260
 70
     0
 43
0.0
 10
982.4277842900535
 20
417.6455016897951
 10
981.5194196002341
 20
417.5054495913046
 10
980.049226980458
 20
417.2655607404647
 10
978.4354339801302
 20
416.9919238421901
 10
976.6640294779735
 20
416.6853686436842
 10
974.7350256296176
 20
416.3448952188319
 10
972.6553732953453
 20
415.9745883615578
 10
970.4390349738803
 20
415.5776180291281
 10
968.1069726467958
 20
415.1572392682641
 10
965.6751608206922
 20
414.7156464213868
 10
963.1644520763948
 20
414.2650938702768
 10
960.5978690258835
 20
413.8038613423401
 10
957.9932766272687
 20
413.3431668263288
 10
955.3617226903933
 20
412.8791443297756
 10
952.7091459937727
 20
412.4168664170893
 10
950.0415339384835
 20
411.9574059482061
 10
947.3578987540403
 20
411.4997508413721
 10
944.6602281370397
 20
411.0449253339764
 10
941.9555580372144
 20
410.5900147371257
 10
939.2558632567087
 20
410.1371647706921
 10
936.5610951729705
 20
409.6903751391481
 10
933.8712537859956
 20
409.2496458424913
 10
931.1783396868522
 20
408.8148796356302
 10
928.4863768912801
 20
408.3841252888754
 10
925.794353317522
 20
407.9583705727087
 10
923.1032688916982
 20
407.5376276427662
 10
920.4191110148803
 20
407.1229693589848
 10
917.7328803520067
 20
406.7142863206352
 10
915.0535519268615
 20
406.3136877806825
 10
912.3751626496524
 20
405.9181010269543
 10
909.6997245282457
 20
405.5265504446055
 10
907.0261647027127
 20
405.1450234347051
 10
904.353531869474
 20
404.7695081371473
 10
901.6848258068877
 20
404.4000410188401
 10
899.0170102696865
 20
404.0395853912275
 10
896.3461220203154
 20
403.6850928534102
 10
893.6771728449967
 20
403.3356242574543
 10
891.0121261290552
 20
402.9942036929844
 10
888.3499941020055
 20
402.6598190782467
 10
885.6867405924749
 20
402.3354215690484
 10
883.0254261569987
 20
402.0160480017112
 10
880.3690262626496
 20
401.7037346953789
 10
877.7155167459241
 20
401.4004571910143
 10
875.0608979023564
 20
401.1061668660707
 10
872.406169658052
 20
400.8208758761849
 10
869.752356250412
 20
400.5425965247586
 10
867.1004697611879
 20
400.270341041311
 10
864.4534491905469
 20
400.0091455233384
 10
861.8113553166748
 20
399.7540103402546
 10
859.1711154273998
 20
399.5108985818538
 10
856.5337902270185
 20
399.2748227731863
 10
853.8993432486259
 20
399.0487826926028
 10
851.2697743444514
 20
398.8328026513786
 10
848.6410959656677
 20
398.6258341008482
 10
846.0162957349876
 20
398.4289134340397
 10
843.3963614228906
 20
398.2430527327069
 10
840.7803174145318
 20
398.0662399889782
 10
838.170151406517
 20
397.8994994402451
 10
835.5638757022386
 20
397.7418068491159
 10
832.9704410142166
 20
397.59727132079
 10
830.3848598674886
 20
397.464832150968
 10
827.8031204019626
 20
397.34544064322
 10
825.2272467811328
 20
397.2371212565843
 10
822.6552148414937
 20
397.1418495320236
 10
820.0960360737536
 20
397.0587349441485
 10
817.546698543907
 20
396.9887409521668
 10
815.0051659328108
 20
396.9348430231603
 10
812.4724989447749
 20
396.892053682175
 10
809.952660817351
 20
396.8634213301113
 10
807.4446394687857
 20
396.8499337374501
 10
804.9554343819073
 20
396.8516759936468
 10
802.4750341399029
 20
396.8695264684545
 10
800.0094139882019
 20
396.9055579479264
 10
797.560610245944
 20
396.9567949649843
 10
795.1275986757446
 20
397.0252252162247
 10
792.7083915810088
 20
397.1098244642594
 10
790.3099641332793
 20
397.2126776507786
 10
787.9302678577732
 20
397.3377601689788
 10
785.5663637543292
 20
397.4800359213625
 10
783.2212516012969
 20
397.6395413748408
 10
780.903930733728
 20
397.8163859301419
 10
778.6163645369525
 20
398.0135936768922
 10
776.3636012641109
 20
398.2272256888045
 10
774.1456287595537
 20
398.4582818919973
 10
771.9724341288237
 20
398.7078837689533
 10
769.8520410921428
 20
398.9741287125307
 10
767.783425412108
 20
399.259004419328
 10
765.7665506218145
 20
399.5655106676979
 10
763.8094890640314
 20
399.8877451460287
 10
761.913192042315
 20
400.2297197144262
 10
760.0787202609682
 20
400.5864468979392
 10
758.312109743616
 20
400.9549998520366
 10
756.6193600469577
 20
401.3354515105361
 10
755.0014710971045
 20
401.7278140290761
 10
753.4625033767206
 20
402.1271363996147
 10
751.999493574358
 20
402.5303823768887
 10
750.6194533284777
 20
402.9366371242381
 10
749.3164317049157
 20
403.3418280033725
 10
748.09441625251
 20
403.7470035629565
 10
746.9474803483735
 20
404.1460913124649
 10
745.8745997551212
 20
404.5410789484963
 10
744.8698356942241
 20
404.9268939066417
 10
743.932127461383
 20
405.3085236618548
 10
743.055536278076
 20
405.6808956497268
 10
742.2390622181901
 20
406.0439977146207
 10
741.4747058727807
 20
406.3977326114445
 10
740.7594309965861
 20
406.74506365164
 10
740.0902499668902
 20
407.0849544421803
 10
739.4671384724188
 20
407.4194048353006
 10
738.880133718907
 20
407.7452934962813
 10
738.3292235507179
 20
408.0636203512403
 10
737.8123838043502
 20
408.3763609411398
 10
737.3255904640481
 20
408.6854664956678
 10
736.8728797012026
 20
408.9879858590184
 10
736.4431915503319
 20
409.2887849497771
 10
736.0425620350487
 20
409.5849369234092
 10
735.6659550578642
 20
409.8793807800862
 10
735.3133949300445
 20
410.1701166675723
 10
734.9788699392502
 20
410.4580715781639
 10
734.6663797899526
 20
410.7432941344097
 10
734.3729125481585
 20
411.0267477955163
 10
734.0964926729103
 20
411.3064083979751
 10
733.8401320981975
 20
411.5813124825796
 10
733.60264856335
 20
411.8664467854544
 10
733.3810422900151
 20
412.1617748396908
 10
733.1778236671671
 20
412.4253240596263
 10
732.9949560801359
 20
412.6601185348853
 10
732.8329685491153
 20
412.987173636962
 10
732.698298233734
 20
413.3705649594461
 10
732.5959474284807
 20
413.5633350625828
 10
732.5249590019612
 20
413.726484206928
 10
732.4789417532209
 20
414.1389553123621
 10
732.451862322523
 20
414.5566570054796
 10
732.4453675486292
 20
414.6795871397519
 10
732.4527290366567
 20
414.8966926636195
 10
732.4769164258777
 20
415.3750220168931
 10
732.5257309711067
 20
415.7196408500606
 10
732.6035581932737
 20
415.8165940526362
 10
732.7132313557539
 20
416.0909474696577
 10
732.8516502711882
 20
416.4686579458828
 10
733.017477319523
 20
416.7306930390274
 10
733.2078860652436
 20
416.9450234138106
 10
733.414795173854
 20
417.2005574052353
 10
733.641642026634
 20
417.4613341399795
 10
733.8887305144963
 20
417.7023554651058
 10
734.1509759174003
 20
417.9305600852535
 10
734.4362074653672
 20
418.1600442111617
 10
734.7385471580638
 20
418.380735647834
 10
735.0610069294763
 20
418.5916709360649
 10
735.4025868534845
 20
418.7928379202149
 10
735.7682865606839
 20
418.9842973784704
 10
736.1561426657445
 20
419.1630252212035
 10
736.5691306357422
 20
419.331057767559
 10
737.0052870853615
 20
419.4853709279116
 10
737.4675753260381
 20
419.6290009475241
 10
737.9609706770825
 20
419.7640084568145
 10
738.4794371148871
 20
419.8933203003149
 10
739.0339373598344
 20
420.0200699683819
 10
739.6194596256955
 20
420.1451966089488
 10
740.2429426171147
 20
420.2737849420599
 10
740.9064104975985
 20
420.4038594267545
 10
741.6148385864562
 20
420.537480693449
 10
742.3712388176844
 20
420.673685282937
 10
743.1766475843105
 20
420.8094855725017
 10
744.0431004666497
 20
420.9420276514315
 10
744.9736093986921
 20
421.0703480605164
 10
745.9772223380423
 20
421.1905564960185
 10
747.0609387675231
 20
421.302738047393
 10
748.2367213336365
 20
421.4100383606322
 10
749.5165934610686
 20
421.5106034511395
 10
750.9075181657281
 20
421.607518186725
 10
752.4265428141569
 20
421.6969895087412
 10
754.0755457022278
 20
421.7890409896368
 10
755.8545632968489
 20
421.8806728510579
 10
757.7536328037567
 20
421.9687637582866
 10
759.767791059272
 20
422.0502531547881
 10
761.8871117360359
 20
422.1190199274897
 10
764.0965473197484
 20
422.1788814463121
 10
766.3861107048632
 20
422.2287162287726
 10
768.7458755640273
 20
422.262403161798
 10
771.1657818578806
 20
422.2848203196122
 10
773.6328305468977
 20
422.2958096789368
 10
776.1430462378791
 20
422.2933227649908
 10
778.6963924639239
 20
422.2803593561271
 10
781.2818578820862
 20
422.2577856664607
 10
783.8944428617959
 20
422.2255409178083
 10
786.5351594847908
 20
422.1826373396876
 10
789.2069710625272
 20
422.1321111773633
 10
791.8998297112774
 20
422.0778405789379
 10
794.6127598161982
 20
422.0178135365391
 10
797.3447492955346
 20
421.9530178206488
 10
800.0977980015212
 20
421.8834777425406
 10
802.8708695411314
 20
421.8121809249296
 10
805.6549645793074
 20
421.7390179670863
 10
808.4490467230244
 20
421.6669764917274
 10
811.2451044077007
 20
421.5969591798762
 10
814.043149788973
 20
421.5279661054158
 10
816.8471947269534
 20
421.4590459647761
 10
819.6522152797786
 20
421.3921378320065
 10
822.4582479143574
 20
421.3242419287576
 10
825.2622563854293
 20
421.258321566469
 10
828.0682525530991
 20
421.1934254415721
 10
830.8742487207691
 20
421.1285293166752
 10
833.6802448884371
 20
421.0636331917771
 10
836.4862653673807
 20
420.9967372146456
 10
839.2942613872801
 20
420.9318654010213
 10
842.1032694889399
 20
420.866005816917
 10
844.9122532793245
 20
420.8021460850471
 10
847.7202614548676
 20
420.7362743453058
 10
850.5312694087606
 20
420.6704390724735
 10
853.342253051378
 20
420.6066036518778
 10
856.1552487018726
 20
420.5417926164368
 10
858.9692564341168
 20
420.4759938105152
 10
861.7822520846091
 20
420.4111827750746
 10
864.5932235715918
 20
420.3483472805951
 10
867.4072191482027
 20
420.2835484007914
 10
870.2181784795483
 20
420.2217128324305
 10
873.0291621221656
 20
420.1578774118329
 10
875.8401579204255
 20
420.0930420651194
 10
878.6511050961363
 20
420.0322064228755
 10
881.4620887387555
 20
419.9683710022786
 10
884.2750722336113
 20
419.9045598929552
 10
887.086031564957
 20
419.8427243245942
 10
889.9000028302925
 20
419.7799252970255
 10
892.7109500060051
 20
419.7190896547806
 10
895.5219214929876
 20
419.6562541603019
 10
898.3359049139597
 20
419.5924552066159
 10
901.1488762531771
 20
419.5296440234097
 10
903.9598112732491
 20
419.4698083072831
 10
906.7737825385863
 20
419.4070092797146
 10
909.5867174108953
 20
419.3471978748611
 10
912.3976767422407
 20
419.2853623064998
 10
915.2116358519416
 20
419.2235632050477
 10
918.0245707242502
 20
419.1637518001946
 10
920.8355300555977
 20
419.1019162318333
 10
923.6464650756696
 20
419.0420805157065
 10
926.4524247764311
 20
418.9801841691624
 10
929.2603478625151
 20
418.9213119122438
 10
932.0663075632728
 20
418.8594155656991
 10
934.873255034512
 20
418.7985313009082
 10
937.6791782683611
 20
418.7396347327165
 10
940.4821017238592
 20
418.6807016976143
 10
943.2850494906288
 20
418.6197688102773
 10
946.0839732416552
 20
418.5607871526292
 10
948.8728977315075
 20
418.5016839386143
 10
951.6488231818312
 20
418.4424227013238
 10
954.4067378064026
 20
418.383942588691
 10
957.1426297451179
 20
418.3271949042878
 10
959.8465362037041
 20
418.2690583133948
 10
962.5014341268995
 20
418.2113260224245
 10
965.0972756309748
 20
418.1578761794816
 10
967.6161106683666
 20
418.1044902786345
 10
970.0369043236932
 20
418.0539128298693
 10
972.3376703780104
 20
418.0048764830621
 10
974.4963861454543
 20
417.9591136664404
 10
976.4960407263952
 20
417.9174176603005
 10
978.3316709571518
 20
417.8767279081061
 10
979.9972043472008
 20
417.842971032743
 10
981.5027009358963
 20
417.81126895999
 10
982.426021722742
 20
417.7904909768357
  0
LWPOLYLINE
  5
791E
330
1F
100
AcDbEntity
  8
0
  6
Continuous
100
AcDbPolyline
 90
       29
 70
     0
 43
0.0
 10
1137.059956038716
 20
333.009964925343
 10
1134.799554938039
 20
332.5729948301697
 10
1132.296038878976
 20
332.0953293174977
 10
1129.736795320883
 20
331.6053574709877
 10
1127.139538769958
 20
331.1154968697347
 10
1124.51535974342
 20
330.6220057992141
 10
1121.871116041117
 20
330.1310462867964
 10
1119.211806296174
 20
329.6427352379233
 10
1116.535477817517
 20
329.1550264371697
 10
1113.845059641757
 20
328.6709892076741
 10
1111.146690415175
 20
328.18476547622
 10
1108.453226297361
 20
327.702657556709
 10
1105.76666674157
 20
327.2247122113185
 10
1103.084918770191
 20
326.7548815843702
 10
1100.400031332407
 20
326.2909791739072
 10
1097.716073477984
 20
325.8300993244063
 10
1095.030975610405
 20
325.3751944535668
 10
1092.347783671719
 20
324.9243352514053
 10
1089.670449806251
 20
324.4796146955252
 10
1086.993951999789
 20
324.0419156071091
 10
1084.321289432206
 20
323.6113081294216
 10
1081.650509412429
 20
323.1857460470369
 10
1078.983611393711
 20
322.7652761221311
 10
1076.318479017353
 20
322.3548502256524
 10
1073.653229735553
 20
321.949422962299
 10
1070.99281541926
 20
321.5511106907627
 10
1068.333213780883
 20
321.1608196133154
 10
1065.669472949472
 20
320.7764333712637
 10
1063.929241412532
 20
320.5290114728932
  0
LWPOLYLINE
  5
791F
330
1F
100
AcDbEntity
  8
0
  6
Continuous
100
AcDbPolyline
 90
       28
 70
     0
 43
0.0
 10
910.2366050728214
 20
294.3019463856416
 10
912.2091578248346
 20
294.7037991454132
 10
914.6647988207023
 20
295.2000221793478
 10
917.1761038885977
 20
295.707131492974
 10
919.7243878462559
 20
296.2154904912545
 10
922.2995550733683
 20
296.7277597099401
 10
924.8938465611336
 20
297.2366729407722
 10
927.5031632659556
 20
297.7450933710647
 10
930.1295715972646
 20
298.2510896924332
 10
932.7690400619811
 20
298.7555262332885
 10
935.4175033917782
 20
299.260266751492
 10
938.0600714706416
 20
299.7618063297709
 10
940.6957786443744
 20
300.2591117634106
 10
943.3277583023828
 20
300.7482866603818
 10
945.9619056956034
 20
301.2325319606089
 10
948.5971876193216
 20
301.7128133182846
 10
951.2316727651503
 20
302.1870643239813
 10
953.8642941531179
 20
302.6572500613429
 10
956.4920872701222
 20
303.1222697751346
 10
959.1191173845036
 20
303.580259707493
 10
961.7423862078977
 20
304.0311185326364
 10
964.3628593944995
 20
304.4758794552781
 10
966.9814688232346
 20
304.9165751095861
 10
969.5963845115091
 20
305.3481407977715
 10
972.2125022808013
 20
305.7737436844992
 10
974.8238593296557
 20
306.1921816887507
 10
977.4344533758831
 20
306.6035899115691
 10
978.6555259015221
 20
306.7925054268139
  0
LWPOLYLINE
  5
7920
330
1F
100
AcDbEntity
  8
0
  6
Continuous
100
AcDbPolyline
 90
       27
 70
     0
 43
0.0
 10
914.4506050728212
 20
264.1549463856418
 10
916.1392137189196
 20
264.4978324313242
 10
918.552500402864
 20
264.9837000893235
 10
921.0224592005543
 20
265.4804430185263
 10
923.5263994965716
 20
265.9783074518691
 10
926.0582585850825
 20
266.4790943885228
 10
928.6082068348367
 20
266.9774766951627
 10
931.1731799075042
 20
267.4753543272077
 10
933.7552426855818
 20
267.9707943438234
 10
936.349397889904
 20
268.4636318179305
 10
938.952515211311
 20
268.9577656166134
 10
941.5507012243816
 20
269.4497355765502
 10
944.1420889591157
 20
269.9354779035784
 10
946.7287103125979
 20
270.4140591126948
 10
949.3184619752392
 20
270.8887414547262
 10
951.9083785649636
 20
271.3584265175923
 10
954.4984600817661
 20
271.8231143012922
 10
957.0867076139803
 20
272.2827388349951
 10
959.6690903528616
 20
272.738167632871
 10
962.2517369750676
 20
273.185600784082
 10
964.829617216019
 20
273.6258728173812
 10
967.406629942805
 20
274.0621140419321
 10
969.9798097733328
 20
274.493226045654
 10
972.5503210905227
 20
274.9142445347975
 10
975.1219638052099
 20
275.331298186024
 10
977.6888401386422
 20
275.7411907193386
 10
978.6831987441328
 20
275.8969097019112
  0
LWPOLYLINE
  5
7921
330
1F
100
AcDbEntity
  8
0
  6
Continuous
100
AcDbPolyline
 90
       65
 70
     0
 43
0.0
 10
386.0472526527265
 20
265.971931568165
 10
387.450209110355
 20
266.2592957587039
 10
389.8221281200603
 20
266.7390594624094
 10
392.2476717368427
 20
267.2306722806861
 10
394.7072296386541
 20
267.72245366263
 10
397.1946679581179
 20
268.2181951344396
 10
399.6991649483371
 20
268.712521773396
 10
402.2187561418942
 20
269.2043654653899
 10
404.7544065964157
 20
269.6947599723717
 10
407.3041518444862
 20
270.182637180229
 10
409.8608586089285
 20
270.6717542629999
 10
412.4126713808982
 20
271.157701355598
 10
414.9576256929814
 20
271.6394103439102
 10
417.4988571831818
 20
272.1129866452579
 10
420.0422249016082
 20
272.5826340117651
 10
422.5867637906285
 20
273.0473186814815
 10
425.1314744404498
 20
273.5070063022458
 10
427.6733242695407
 20
273.962593227367
 10
430.2103488104839
 20
274.4130113427341
 10
432.7465800546015
 20
274.8573986471984
 10
435.280087886631
 20
275.2936876168578
 10
437.8107692500907
 20
275.7248764810843
 10
440.3385897928218
 20
276.1519646496676
 10
442.8637212756293
 20
276.5699550736567
 10
445.3900582811893
 20
276.9819833910637
 10
447.9116043507582
 20
277.3878434889261
 10
450.4323914756587
 20
277.7866733660953
 10
452.9574167048486
 20
278.1786447833738
 10
455.4796154654668
 20
278.5655160952197
 10
457.9990221096795
 20
278.9462878918412
 10
460.5137065222224
 20
279.3188926493376
 10
463.0316983335851
 20
279.6826057752023
 10
465.5478630861635
 20
280.0412531477941
 10
468.0582718451278
 20
280.3926985388898
 10
470.5659915441646
 20
280.7350461853921
 10
473.0749511181147
 20
281.070432315521
 10
475.5832204517172
 20
281.3967894053771
 10
478.0937290700276
 20
281.716219331021
 10
480.6004118099791
 20
282.0305147990707
 10
483.1035091366921
 20
282.3326799409957
 10
485.6017468230984
 20
282.6306756829545
 10
488.0963990962664
 20
282.9165410987889
 10
490.5902580726086
 20
283.1963757037197
 10
493.0814966933447
 20
283.4651137444748
 10
495.5680130824148
 20
283.7256847461044
 10
498.0528741735088
 20
283.9761929455099
 10
500.5350462046752
 20
284.217603400321
 10
503.0135297661272
 20
284.4498817583758
 10
505.4863603904395
 20
284.6719599055641
 10
507.9555025450336
 20
284.8849059559975
 10
510.4199568201238
 20
285.088685557515
 10
512.8718309938649
 20
285.2800256634619
 10
515.3171215249986
 20
285.4591323867999
 10
517.7577928809496
 20
285.6270738416429
 10
520.1938450617108
 20
285.7838500279882
 10
522.6263461813958
 20
285.9274964784167
 10
525.0462328475752
 20
286.0597028430652
 10
527.4565032896153
 20
286.180572178414
 10
529.8603618498544
 20
286.2842110822035
 10
532.2555348914193
 20
286.3785461284347
 10
534.638196535956
 20
286.4584428595149
 10
537.0093461932647
 20
286.5239356276033
 10
539.3639868143782
 20
286.574852671898
 10
541.7081835623629
 20
286.609401285782
 10
542.5916866154056
 20
286.6158747225886
  0
LINE
  5
7922
330
1F
100
AcDbEntity
  8
0
100
AcDbLine
 10
970.5557526082756
 20
330.891836272521
 30
0.0
 11
970.5967426680215
 21
334.8916262438822
 31
0.0
  0
LINE
  5
7923
330
1F
100
AcDbEntity
  8
0
100
AcDbLine
 10
955.5912663236448
 20
335.0563830509664
 30
0.0
 11
955.5502762638989
 21
331.0565930796051
 31
0.0
  0
LINE
  5
7924
330
1F
100
AcDbEntity
  8
0
100
AcDbLine
 10
911.4333850591227
 20
321.7147400078832
 30
0.0
 11
911.5489250556455
 21
332.9890763284288
 31
0.0
  0
LINE
  5
7925
330
1F
100
AcDbEntity
  8
0
100
AcDbLine
 10
557.5916866154057
 20
282.3911898851461
 30
0.0
 11
542.5916866154056
 21
282.6158747225886
 31
0.0
  0
LINE
  5
7926
330
1F
100
AcDbEntity
  8
0
100
AcDbLine
 10
557.5916866154057
 20
269.9188877840793
 30
0.0
 11
542.5916866154056
 21
269.9215073380196
 31
0.0
  0
LINE
  5
7927
330
1F
100
AcDbEntity
  8
0
100
AcDbLine
 10
1089.173688471896
 20
280.757383312466
 30
0.0
 11
1074.173688471895
 21
281.0016307807127
 31
0.0
  0
LINE
  5
7928
330
1F
100
AcDbEntity
  8
0
100
AcDbLine
 10
1089.173688471896
 20
267.8617257019127
 30
0.0
 11
1074.173688471895
 21
267.8855668345004
 31
0.0
  0
LINE
  5
7929
330
1F
100
AcDbEntity
  8
0
100
AcDbLine
 10
1088.106989599248
 20
298.1435401357999
 30
0.0
 11
1073.106989599247
 21
298.1555058323033
 31
0.0
  0
LINE
  5
792A
330
1F
100
AcDbEntity
  8
0
100
AcDbLine
 10
1088.106989599248
 20
311.462065871935
 30
0.0
 11
1073.106989599247
 21
311.6932845350493
 31
0.0
  0
LWPOLYLINE
  5
792B
330
1F
100
AcDbEntity
  8
0
  6
Continuous
100
AcDbPolyline
 90
       29
 70
     0
 43
0.0
 10
557.5916866154057
 20
286.3911898851462
 10
557.6922452008019
 20
286.3873572843095
 10
559.9090199894943
 20
286.2864487304678
 10
562.098395290779
 20
286.167588349696
 10
564.2604054568237
 20
286.0297767322031
 10
566.3899503821902
 20
285.8758403465586
 10
568.4860993614184
 20
285.7037460210199
 10
570.5378245346528
 20
285.5141152916126
 10
572.5400945007695
 20
285.3077758073246
 10
574.4909447923582
 20
285.0836594540437
 10
576.3915122278502
 20
284.8378029447699
 10
578.2345948257479
 20
284.5759622731207
 10
580.0212950523217
 20
284.2951735618876
 10
581.7505104413012
 20
283.9984006882792
 10
583.4140739535667
 20
283.6903658839629
 10
585.0040590151055
 20
283.3687955120754
 10
586.5243945607671
 20
283.0358258008386
 10
587.9719793046986
 20
282.6943519231422
 10
589.3446770186692
 20
282.3483028138272
 10
590.6394894733112
 20
281.9975754164106
 10
591.8602081948282
 20
281.6483035982783
 10
593.0049717722741
 20
281.2964210159476
 10
594.0795361992732
 20
280.9491296509132
 10
595.0839701801468
 20
280.6044306835938
 10
596.022065241088
 20
280.2684579813753
 10
596.8950269048527
 20
279.9352494376754
 10
597.7137112704967
 20
279.609180565421
 10
598.4740863466923
 20
279.2911133657608
 10
598.5621708576018
 20
279.2526832017966
  0
LINE
  5
792C
330
1F
100
AcDbEntity
  8
0
100
AcDbLine
 10
557.5916866154057
 20
286.3911898851462
 30
0.0
 11
557.5916866154057
 21
282.3911898851461
 31
0.0
  0
LINE
  5
792D
330
1F
100
AcDbEntity
  8
0
100
AcDbLine
 10
557.5916866154057
 20
265.9188877840794
 30
0.0
 11
557.5916866154057
 21
269.9188877840793
 31
0.0
  0
LWPOLYLINE
  5
792E
330
1F
100
AcDbEntity
  8
0
  6
Continuous
100
AcDbPolyline
 90
       29
 70
     0
 43
0.0
 10
1089.173688471896
 20
284.7573833124661
 10
1089.434585756655
 20
284.7470713133938
 10
1091.690298211844
 20
284.6414194345798
 10
1093.919586111613
 20
284.5178862003741
 10
1096.119517059287
 20
284.3743737428626
 10
1098.286993731122
 20
284.2137814732978
 10
1100.420017215456
 20
284.0360434208474
 10
1102.508592953952
 20
283.8408297313522
 10
1104.545724755779
 20
283.6279095069017
 10
1106.531412620941
 20
283.3972827474954
 10
1108.465821476511
 20
283.143952173968
 10
1110.341724233752
 20
282.8746830792407
 10
1112.159219848912
 20
282.5864770958128
 10
1113.919241806983
 20
282.2813661207679
 10
1115.61256410757
 20
281.9660494761938
 10
1117.23132304566
 20
281.6362654554319
 10
1118.778385047095
 20
281.2961108380609
 10
1120.25075174437
 20
280.9454866678347
 10
1121.648159254168
 20
280.5923885914172
 10
1122.96674169481
 20
280.2326868438127
 10
1124.208201109224
 20
279.8754424983508
 10
1125.373701880318
 20
279.5156912612824
 10
1126.467010933524
 20
279.1605612651025
 10
1127.48819423966
 20
278.8080535981448
 10
1128.444050077072
 20
278.4643958933188
 10
1129.331745005336
 20
278.1244919152114
 10
1130.165205435285
 20
277.7908023713121
 10
1130.939335131508
 20
277.4661607020398
 10
1131.183198744129
 20
277.3592803214419
  0
LINE
  5
792F
330
1F
100
AcDbEntity
  8
0
100
AcDbLine
 10
1089.173688471896
 20
284.7573833124661
 30
0.0
 11
1089.173688471896
 21
280.757383312466
 31
0.0
  0
LINE
  5
7930
330
1F
100
AcDbEntity
  8
0
100
AcDbLine
 10
1089.173688471896
 20
263.8617257019127
 30
0.0
 11
1089.173688471896
 21
267.8617257019127
 31
0.0
  0
LWPOLYLINE
  5
7931
330
1F
100
AcDbEntity
  8
0
  6
Continuous
100
AcDbPolyline
 90
       29
 70
     0
 43
0.0
 10
1088.106989599248
 20
315.462065871935
 10
1088.515161401334
 20
315.44641505765
 10
1090.81006949698
 20
315.3398653858458
 10
1093.078567176821
 20
315.2154134812927
 10
1095.317689927764
 20
315.071958588755
 10
1097.522406827291
 20
314.9103312613815
 10
1099.693683529585
 20
314.7315647038854
 10
1101.818561227017
 20
314.5342204084236
 10
1103.893008426519
 20
314.3191627034024
 10
1105.913061185529
 20
314.0852570583265
 10
1107.881819118203
 20
313.8296065106187
 10
1109.791084137341
 20
313.5579374349118
 10
1111.641025119246
 20
313.2652526839383
 10
1113.432472617078
 20
312.9565831802251
 10
1115.15526345999
 20
312.6365883184281
 10
1116.803502397051
 20
312.3020671586232
 10
1118.377054327215
 20
311.9570174186228
 10
1119.876884904679
 20
311.6024723031405
 10
1121.298827535316
 20
311.2432938583979
 10
1122.640883360229
 20
310.8794145338729
 10
1123.905881791474
 20
310.5159328026152
 10
1125.091891520653
 20
310.1507822551953
 10
1126.204706472937
 20
309.7901621198985
 10
1127.244394198835
 20
309.4320735378174
 10
1128.216748623505
 20
309.0827157372373
 10
1129.121904847987
 20
308.7380910003458
 10
1129.969823391559
 20
308.3995365092051
 10
1130.758437844783
 20
308.0689835721996
 10
1131.155525901522
 20
307.8954372277995
  0
LINE
  5
7932
330
1F
100
AcDbEntity
  8
0
100
AcDbLine
 10
1088.106989599248
 20
294.1436006322647
 30
0.0
 11
1088.106989599248
 21
298.1435401357999
 31
0.0
  0
LINE
  5
7933
330
1F
100
AcDbEntity
  8
0
100
AcDbLine
 10
1088.106989599248
 20
315.462065871935
 30
0.0
 11
1088.106989599248
 21
311.462065871935
 31
0.0
  0
LWPOLYLINE
  5
7934
330
1F
100
AcDbEntity
  8
0
  6
Continuous
100
AcDbPolyline
 90
       25
 70
     0
 43
0.0
 10
598.5621708576018
 20
268.1765904497988
 10
598.2130432561842
 20
268.1095465030661
 10
597.4163634560844
 20
267.9700965259758
 10
596.5595816599178
 20
267.8325830584158
 10
595.6335657709367
 20
267.7006945701037
 10
594.6293554531821
 20
267.5731224818046
 10
593.5329589695884
 20
267.44938586327
 10
592.3374148037854
 20
267.3282448395871
 10
591.0327288578717
 20
267.2093558891511
 10
589.6029105752003
 20
267.0921693773926
 10
588.0451678393601
 20
266.970585789089
 10
586.3654284047823
 20
266.8468100567839
 10
584.5725839030874
 20
266.7241495792923
 10
582.6725620886954
 20
266.6048092891583
 10
580.6731521269774
 20
266.4950604624091
 10
578.5844855244667
 20
266.3912489814866
 10
576.4224497813393
 20
266.2969227103313
 10
574.1919388900587
 20
266.215251639117
 10
571.9030500050084
 20
266.1435810600774
 10
569.5688098056287
 20
266.0813581415077
 10
567.1931472267552
 20
266.0307191116331
 10
564.7751315629228
 20
265.9896307987101
 10
562.3258250261442
 20
265.9564722569244
 10
559.850190313211
 20
265.9324146568692
 10
557.5916866154057
 20
265.9188877840794
  0
LWPOLYLINE
  5
7935
330
1F
100
AcDbEntity
  8
0
  6
Continuous
100
AcDbPolyline
 90
       25
 70
     0
 43
0.0
 10
1131.183198744129
 20
266.1375514105307
 10
1130.652191995177
 20
266.0364695067688
 10
1129.841428814015
 20
265.8946489720189
 10
1128.968501458712
 20
265.7567800764832
 10
1128.025381297175
 20
265.6235983926672
 10
1127.002073771076
 20
265.4947740664133
 10
1125.886585410426
 20
265.3699112727291
 10
1124.668921656881
 20
265.2486801574582
 10
1123.341152834618
 20
265.1288179256058
 10
1121.885222767803
 20
265.0117297513516
 10
1120.300362898521
 20
264.8903864584499
 10
1118.590505079268
 20
264.766918900229
 10
1116.765544912126
 20
264.6446552983475
 10
1114.83141316126
 20
264.5257924769671
 10
1112.794908105017
 20
264.4165580689973
 10
1110.670121081297
 20
264.3144155027608
 10
1108.469012574689
 20
264.2207600590814
 10
1106.198380863523
 20
264.14181937087
 10
1103.868451404047
 20
264.0709271014525
 10
1101.492151151258
 20
264.0105109729016
 10
1099.074411413487
 20
263.9627348239637
 10
1096.614331691151
 20
263.9245673017226
 10
1094.120973057579
 20
263.8943063632564
 10
1091.601298718189
 20
263.8731823623071
 10
1089.173688471896
 20
263.8617257019127
  0
LWPOLYLINE
  5
7936
330
1F
100
AcDbEntity
  8
0
  6
Continuous
100
AcDbPolyline
 90
       26
 70
     0
 43
0.0
 10
1131.155525901522
 20
296.5216513823166
 10
1130.469714621464
 20
296.3905687867796
 10
1129.644139880914
 20
296.2456020741802
 10
1128.755432208509
 20
296.1035046674055
 10
1127.796460497044
 20
295.9680378574435
 10
1126.755299143591
 20
295.836797482255
 10
1125.619988769988
 20
295.7083788092564
 10
1124.380467531162
 20
295.5844429447448
 10
1123.02887509255
 20
295.4607219688191
 10
1121.5480860524
 20
295.3406394198564
 10
1119.935406099695
 20
295.2150991069952
 10
1118.195697280665
 20
295.0882676243527
 10
1116.338886339315
 20
294.9624815834464
 10
1114.370902301845
 20
294.8399424947456
 10
1112.299504177052
 20
294.7279165665118
 10
1110.136853994674
 20
294.6218119546093
 10
1107.89784187073
 20
294.5251335763119
 10
1105.58832928089
 20
294.442081800998
 10
1103.216446761831
 20
294.3689291129431
 10
1100.799218389507
 20
294.3052502621304
 10
1098.33950735124
 20
294.255144292154
 10
1095.835483664428
 20
294.213546505227
 10
1093.299106707247
 20
294.1818616339341
 10
1090.73547495274
 20
294.1572602662199
 10
1088.143453870416
 20
294.143706344637
 10
1088.106989599248
 20
294.1436006322647
  0
LINE
  5
7937
330
1F
100
AcDbEntity
  8
0
100
AcDbLine
 10
598.5621708576018
 20
279.2526832017966
 30
0.0
 11
598.5621708576018
 21
268.1765904497988
 31
0.0
  0
LINE
  5
7938
330
1F
100
AcDbEntity
  8
0
100
AcDbLine
 10
1131.183198744129
 20
277.3592803214419
 30
0.0
 11
1131.183198744129
 21
266.1375514105307
 31
0.0
  0
LINE
  5
7939
330
1F
100
AcDbEntity
  8
0
100
AcDbLine
 10
1131.155525901522
 20
307.8954372277995
 30
0.0
 11
1131.155525901522
 21
296.5216513823166
 31
0.0
  0
LWPOLYLINE
  5
793A
330
1F
100
AcDbEntity
  8
0
  6
Continuous
100
AcDbPolyline
 90
       26
 70
     0
 43
0.0
 10
911.5489250556455
 20
332.9890763284288
 10
911.9998901578057
 20
333.0758335856913
 10
912.784798864388
 20
333.2172242584006
 10
913.6257857863274
 20
333.3559253655737
 10
914.5318718443268
 20
333.4911476103828
 10
915.5091489225013
 20
333.6190323728588
 10
916.5705667047967
 20
333.7418830604047
 10
917.7271221840857
 20
333.859956864995
 10
918.9888126266142
 20
333.9734875975168
 10
920.3645888098344
 20
334.0846851410161
 10
921.8725159562636
 20
334.1909711752146
 10
923.514383089352
 20
334.3013900019148
 10
925.2852851003265
 20
334.4118258091717
 10
927.1752714851157
 20
334.5200453328506
 10
929.1773909195272
 20
334.6238854520807
 10
931.2858087114255
 20
334.7162077939556
 10
933.4864117826199
 20
334.8016836563587
 10
935.7662972113375
 20
334.876010178639
 10
938.1155378745987
 20
334.935954370035
 10
940.5280418882956
 20
334.9853748505138
 10
942.9878136264303
 20
335.0238975226587
 10
945.4908775635956
 20
335.0504291354898
 10
948.0372336997787
 20
335.0649696890071
 10
950.6177909710187
 20
335.0713076599127
 10
953.225551290925
 20
335.0692793805863
 10
955.5912663236448
 20
335.0563830509664
  0
LINE
  5
793B
330
1F
100
AcDbEntity
  8
0
100
AcDbLine
 10
542.5916866154056
 20
282.6158747225886
 30
0.0
 11
542.5916866154056
 21
286.6158747225886
 31
0.0
  0
LINE
  5
793C
330
1F
100
AcDbEntity
  8
0
100
AcDbLine
 10
542.5916866154056
 20
269.9215073380196
 30
0.0
 11
542.5916866154056
 21
265.9215073380196
 31
0.0
  0
LWPOLYLINE
  5
793D
330
1F
100
AcDbEntity
  8
0
  6
Continuous
100
AcDbPolyline
 90
       38
 70
     0
 43
0.0
 10
983.6831987441327
 20
276.668661863619
 10
985.3928534380703
 20
276.9289571451263
 10
987.9576220102299
 20
277.3117654147004
 10
990.5175912157229
 20
277.6884120221962
 10
993.0798891870379
 20
278.055130042193
 10
995.6413526295982
 20
278.4168177976076
 10
998.197050235076
 20
278.7713114496956
 10
1000.751078783043
 20
279.1157445726208
 10
1003.304305787673
 20
279.454147975131
 10
1005.857862646462
 20
279.7825568193107
 10
1008.413649314825
 20
280.1040354434899
 10
1010.965603086941
 20
280.4203848468405
 10
1013.512955404876
 20
280.7245758531135
 10
1016.055442385313
 20
281.0246041089758
 10
1018.595359808652
 20
281.3115404827595
 10
1021.134475688659
 20
281.5924471361281
 10
1023.669923599489
 20
281.8632272895028
 10
1026.200671099899
 20
282.1248474132998
 10
1028.729749542799
 20
282.3764070079347
 10
1031.257125942778
 20
282.6189055292384
 10
1033.778835461915
 20
282.8512115797166
 10
1036.296844026463
 20
283.0743905860331
 10
1038.810185166006
 20
283.2874101069392
 10
1041.318825895123
 20
283.491269598268
 10
1043.814869523401
 20
283.6827068091929
 10
1046.303313330009
 20
283.8618866667935
 10
1048.78815513827
 20
284.0289411127328
 10
1051.267363051109
 20
284.184803632013
 10
1053.742968965609
 20
284.328540739632
 10
1056.206977235099
 20
284.4598885522637
 10
1058.659387859581
 20
284.5788470699076
 10
1061.106362501137
 20
284.6806169258925
 10
1063.544638908937
 20
284.7730948106368
 10
1065.970384186726
 20
284.851151503312
 10
1068.383598334516
 20
284.914787003916
 10
1070.779284073123
 20
284.9638363853713
 10
1073.165536005468
 20
284.995565163505
 10
1074.173688471895
 20
285.0016307807127
  0
LINE
  5
793E
330
1F
100
AcDbEntity
  8
0
100
AcDbLine
 10
978.6831987441328
 20
275.8969097019112
 30
0.0
 11
978.9882867829435
 21
273.9203163475327
 31
0.0
  0
LINE
  5
793F
330
1F
100
AcDbEntity
  8
0
100
AcDbLine
 10
983.9882867829436
 20
274.6920685092405
 30
0.0
 11
983.6831987441327
 21
276.668661863619
 31
0.0
  0
LINE
  5
7940
330
1F
100
AcDbEntity
  8
0
100
AcDbLine
 10
983.9882867829436
 20
274.6920685092405
 30
0.0
 11
978.9882867829435
 21
273.9203163475327
 31
0.0
  0
LINE
  5
7941
330
1F
100
AcDbEntity
  8
0
100
AcDbLine
 10
978.6831987441328
 20
266.115684996715
 30
0.0
 11
978.6831987441328
 21
264.115684996715
 31
0.0
  0
LINE
  5
7942
330
1F
100
AcDbEntity
  8
0
100
AcDbLine
 10
983.6831987441327
 20
266.1078190425974
 30
0.0
 11
978.6831987441328
 21
266.115684996715
 31
0.0
  0
LINE
  5
7943
330
1F
100
AcDbEntity
  8
0
100
AcDbLine
 10
983.6831987441327
 20
264.1078190425974
 30
0.0
 11
983.6831987441327
 21
266.1078190425974
 31
0.0
  0
LWPOLYLINE
  5
7944
330
1F
100
AcDbEntity
  8
0
  6
Continuous
100
AcDbPolyline
 90
       36
 70
     0
 43
0.0
 10
1074.173688471895
 20
263.8855668345004
 10
1073.27778010317
 20
263.8897825136591
 10
1070.5868458701
 20
263.9040286811678
 10
1067.8859170787
 20
263.9179449945185
 10
1065.182055890629
 20
263.929763439955
 10
1062.476261761723
 20
263.9395170028938
 10
1059.765437368241
 20
263.950105094586
 10
1057.053712475168
 20
263.9576618333626
 10
1054.340922155436
 20
263.96718449839
 10
1051.630229703612
 20
263.9737747667496
 10
1048.918537795954
 20
263.980332049694
 10
1046.205846432469
 20
263.9868563472219
 10
1043.494154524815
 20
263.9934136301658
 10
1040.781397190494
 20
264.0019368393601
 10
1038.066739900754
 20
264.0073957102236
 10
1035.352016640183
 20
264.0148534927525
 10
1032.637392335866
 20
264.0193129077829
 10
1029.923668531128
 20
264.0268036757284
 10
1027.204947447224
 20
264.034129516594
 10
1024.488324231237
 20
264.0385229607923
 10
1021.769636132751
 20
264.0448493458248
 10
1019.049948578429
 20
264.0511427454417
 10
1016.329261568277
 20
264.0574031596425
 10
1013.612638352289
 20
264.0617966038412
 10
1010.892983783384
 20
264.067090547625
 10
1008.176393552812
 20
264.0704845359901
 10
1005.459737351408
 20
264.0758774360214
 10
1002.742048708755
 20
264.08223680647
 10
1000.024492007765
 20
264.084598353586
 10
997.3078358063592
 20
264.0899912536174
 10
994.5882142228727
 20
264.0942857415685
 10
991.8716569777153
 20
264.0966802741004
 10
989.1520024088134
 20
264.1019742178837
 10
986.4344786932379
 20
264.1033363091679
 10
983.7188549330839
 20
264.1077627387813
 10
983.6831987441327
 20
264.1078190425974
  0
LINE
  5
7945
330
1F
100
AcDbEntity
  8
0
100
AcDbLine
 10
1074.173688471895
 20
281.0016307807127
 30
0.0
 11
1074.173688471895
 21
285.0016307807127
 31
0.0
  0
LINE
  5
7946
330
1F
100
AcDbEntity
  8
0
100
AcDbLine
 10
1074.173688471895
 20
267.8855668345004
 30
0.0
 11
1074.173688471895
 21
263.8855668345004
 31
0.0
  0
LWPOLYLINE
  5
7947
330
1F
100
AcDbEntity
  8
0
  6
Continuous
100
AcDbPolyline
 90
       37
 70
     0
 43
0.0
 10
983.6555259015222
 20
307.5567082292555
 10
985.2705510381019
 20
307.7989381571365
 10
987.8750272349408
 20
308.1841247873476
 10
990.481840043296
 20
308.5593846735496
 10
993.0878222985047
 20
308.929613637225
 10
995.6880444038215
 20
309.2926439431626
 10
998.2856059733858
 20
309.6455786287866
 10
1000.883437745038
 20
309.9905178787853
 10
1003.48157349404
 20
310.3264622637071
 10
1006.080911324061
 20
310.6564438471701
 10
1008.677453517286
 20
310.980327528132
 10
1011.269403866379
 20
311.2920491793516
 10
1013.855526515059
 20
311.59857103174
 10
1016.440055607963
 20
311.8930321801695
 10
1019.022788493525
 20
312.1814292013582
 10
1021.6028946186
 20
312.4587311727792
 10
1024.177308144306
 20
312.7268356275572
 10
1026.751059993165
 20
312.9849120125432
 10
1029.321151876822
 20
313.2328590019542
 10
1031.887550020015
 20
313.4716760252436
 10
1034.449288768552
 20
313.7003298776968
 10
1037.006334347174
 20
313.9198199887669
 10
1039.558720531138
 20
314.1291469290013
 10
1042.097520005889
 20
314.3260078621456
 10
1044.629728777599
 20
314.5106392150257
 10
1047.157345705178
 20
314.6831085381642
 10
1049.680404563882
 20
314.8424164021071
 10
1052.198837803193
 20
314.9905616657602
 10
1054.705683192194
 20
315.1263084728457
 10
1057.201940160343
 20
315.2496905986227
 10
1059.691775301758
 20
315.3558459968713
 10
1062.171953901252
 20
315.4516693479777
 10
1064.639612771509
 20
315.5330616083497
 10
1067.094751912529
 20
315.6000227779846
 10
1069.533441157018
 20
315.6504188969352
 10
1071.960643876988
 20
315.6854182709567
 10
1073.106989599247
 20
315.6932845350493
  0
LINE
  5
7948
330
1F
100
AcDbEntity
  8
0
100
AcDbLine
 10
978.6555259015221
 20
306.7925054268139
 30
0.0
 11
978.95769799134
 21
304.8154641960514
 31
0.0
  0
LINE
  5
7949
330
1F
100
AcDbEntity
  8
0
100
AcDbLine
 10
983.6555259015222
 20
307.5567082292555
 30
0.0
 11
983.9576979913401
 21
305.5796669984929
 31
0.0
  0
LINE
  5
794A
330
1F
100
AcDbEntity
  8
0
100
AcDbLine
 10
983.9576979913401
 20
305.5796669984929
 30
0.0
 11
978.95769799134
 21
304.8154641960514
 31
0.0
  0
LINE
  5
794B
330
1F
100
AcDbEntity
  8
0
100
AcDbLine
 10
978.6555259015221
 20
296.3113505855986
 30
0.0
 11
978.6555259015221
 21
294.3113505855986
 31
0.0
  0
LINE
  5
794C
330
1F
100
AcDbEntity
  8
0
100
AcDbLine
 10
983.6555259015222
 20
296.3074657500019
 30
0.0
 11
978.6555259015221
 21
296.3113505855986
 31
0.0
  0
LINE
  5
794D
330
1F
100
AcDbEntity
  8
0
100
AcDbLine
 10
983.6555259015222
 20
294.3074657500019
 30
0.0
 11
983.6555259015222
 21
296.3074657500019
 31
0.0
  0
LWPOLYLINE
  5
794E
330
1F
100
AcDbEntity
  8
0
  6
Continuous
100
AcDbPolyline
 90
       35
 70
     0
 43
0.0
 10
1073.106989599247
 20
294.1555058323033
 10
1072.091759987979
 20
294.1595652433656
 10
1069.354774031326
 20
294.1721299972528
 10
1066.605794921223
 20
294.1842894480087
 10
1063.854918278001
 20
294.1933830598837
 10
1061.103042205326
 20
294.2024428964969
 10
1058.345203331195
 20
294.2103006520924
 10
1055.585433148677
 20
294.2160919982594
 10
1052.825629190902
 20
294.2228827738795
 10
1050.067891642549
 20
294.2277422411148
 10
1047.308155235292
 20
294.2325341578285
 10
1044.548418828039
 20
294.2373260745417
 10
1041.789715625495
 20
294.2411523370639
 10
1039.02994544298
 20
294.2469436832303
 10
1036.267244522623
 20
294.2506348447087
 10
1033.505475481204
 20
294.2563586403539
 10
1030.74380776556
 20
294.259084147639
 10
1027.98203872414
 20
294.2648079432843
 10
1025.217305169617
 20
294.2694309836929
 10
1022.452639165616
 20
294.272055165196
 10
1019.685906752187
 20
294.2766106550826
 10
1016.919174338763
 20
294.28116614497
 10
1014.151476271143
 20
294.2846884301431
 10
1011.386844042403
 20
294.2863131821928
 10
1008.620145404236
 20
294.289869242627
 10
1005.855513175496
 20
294.2914939946764
 10
1003.091812825689
 20
294.2951513808939
 10
1000.327113046431
 20
294.2987749918493
 10
997.5625145929516
 20
294.2994003144454
 10
994.7988480184047
 20
294.3020582712096
 10
992.0311837260467
 20
294.3045811269298
 10
989.2665852725675
 20
294.3052064495264
 10
986.499920409664
 20
294.3077630805068
 10
983.7353557314454
 20
294.3073889736506
 10
983.6555259015222
 20
294.3074657500019
  0
LINE
  5
794F
330
1F
100
AcDbEntity
  8
0
100
AcDbLine
 10
1073.106989599247
 20
298.1555058323033
 30
0.0
 11
1073.106989599247
 21
294.1555058323033
 31
0.0
  0
LINE
  5
7950
330
1F
100
AcDbEntity
  8
0
100
AcDbLine
 10
1073.106989599247
 20
311.6932845350493
 30
0.0
 11
1073.106989599247
 21
315.6932845350493
 31
0.0
  0
LINE
  5
7951
330
1F
100
AcDbEntity
  8
0
100
AcDbLine
 10
1064.044358468096
 20
331.7620774218699
 30
0.0
 11
1064.06485349797
 21
333.7619724075505
 31
0.0
  0
LINE
  5
7952
330
1F
100
AcDbEntity
  8
0
100
AcDbLine
 10
1059.044645539209
 20
331.8157091406456
 30
0.0
 11
1064.044358468096
 21
331.7620774218699
 31
0.0
  0
LINE
  5
7953
330
1F
100
AcDbEntity
  8
0
100
AcDbLine
 10
1059.065140569082
 20
333.8156041263262
 30
0.0
 11
1059.044645539209
 21
331.8157091406456
 31
0.0
  0
LWPOLYLINE
  5
7954
330
1F
100
AcDbEntity
  8
0
  6
Continuous
100
AcDbPolyline
 90
       33
 70
     0
 43
0.0
 10
970.5967426680215
 20
334.8916262438822
 10
972.187427708628
 20
334.8685738257363
 10
974.9721686824303
 20
334.8266726465086
 10
977.7668835413988
 20
334.7860050047927
 10
980.5645508180587
 20
334.7474069595928
 10
983.364194166883
 20
334.709855403195
 10
986.1688361488322
 20
334.6724207522397
 10
988.9754308218526
 20
334.6370323167121
 10
991.7830486025852
 20
334.6006675356484
 10
994.5876204412687
 20
334.5662320645686
 10
997.3941683521116
 20
334.5328430822913
 10
1000.200716262956
 20
334.499454100014
 10
1003.007264173799
 20
334.4660651177362
 10
1005.813858846819
 20
334.430676682208
 10
1008.622406210919
 20
334.3973344621084
 10
1011.431976682723
 20
334.3630158964713
 10
1014.24150039235
 20
334.3306967840847
 10
1017.050071137537
 20
334.2963548373595
 10
1019.861641062591
 20
334.2620830339001
 10
1022.673164225471
 20
334.2298106836909
 10
1025.486710222692
 20
334.1965853690333
 10
1028.301279327621
 20
334.1623837088398
 10
1031.115825051469
 20
334.1291817752713
 10
1033.927324833259
 20
334.0979091516872
 10
1036.741870557105
 20
334.0647072181182
 10
1039.553346957807
 20
334.0344343211587
 10
1042.363870394061
 20
334.0021385898606
 10
1045.176416664653
 20
333.9688898941144
 10
1047.987893065359
 20
333.9386169971553
 10
1050.799416228239
 20
333.9063446469454
 10
1053.613915189906
 20
333.8751421666273
 10
1056.425391590608
 20
333.8448692696677
 10
1059.065140569082
 20
333.8156041263262
  0
LINE
  5
7955
330
1F
100
AcDbEntity
  8
0
100
AcDbLine
 10
955.5502762638989
 20
331.0565930796051
 30
0.0
 11
970.5557526082756
 21
330.891836272521
 31
0.0
  0
LINE
  5
7956
330
1F
100
AcDbEntity
  8
0
100
AcDbLine
 10
955.4096694956225
 20
317.3362534376348
 30
0.0
 11
970.412662341987
 21
316.9291581099428
 31
0.0
  0
LWPOLYLINE
  5
7957
330
1F
100
AcDbEntity
  8
0
  6
Continuous
100
AcDbPolyline
 90
       30
 70
     0
 43
0.0
 10
955.3686794358746
 20
313.3364634662735
 10
955.2581175856939
 20
313.3418632604549
 10
952.9233825592907
 20
313.4743108217388
 10
950.6172421265036
 20
313.6244317872181
 10
948.3416489784065
 20
313.7942723723197
 10
946.1006487836819
 20
313.9819266481473
 10
943.8942649234123
 20
314.1863948880773
 10
941.7344473549235
 20
314.4099571184221
 10
939.6272412001362
 20
314.6507541724631
 10
937.5746459123057
 20
314.9088328123787
 10
935.5745217516542
 20
315.1901446357407
 10
933.6350301987932
 20
315.4878786048842
 10
931.7561011104572
 20
315.8050338996823
 10
929.9378280110104
 20
316.1376116136378
 10
928.1883022377988
 20
316.4817998889575
 10
926.5154982227342
 20
316.8387855009769
 10
924.9174632747486
 20
317.2065222342669
 10
923.3962436092607
 20
317.5830573977569
 10
921.9519561317246
 20
317.9633923583204
 10
920.591575547418
 20
318.3486905102037
 10
919.3082908186845
 20
318.7307903727865
 10
918.1059605654773
 20
319.1157838301731
 10
916.9767974046044
 20
319.4944862940283
 10
915.9227540271386
 20
319.868943979782
 10
914.9369258710558
 20
320.2349943133115
 10
914.0202425197204
 20
320.595659855582
 10
913.1607306347142
 20
320.9496603069047
 10
912.3614829202743
 20
321.293066904044
 10
911.6174539810906
 20
321.6277621948091
 10
911.4333850591227
 20
321.7147400078832
  0
LINE
  5
7958
330
1F
100
AcDbEntity
  8
0
100
AcDbLine
 10
955.3686794358746
 20
313.3364634662735
 30
0.0
 11
955.4096694956225
 21
317.3362534376348
 31
0.0
  0
LWPOLYLINE
  5
7959
330
1F
100
AcDbEntity
  8
0
  6
Continuous
100
AcDbPolyline
 90
       36
 70
     0
 43
0.0
 10
1058.921828935594
 20
319.8313250607299
 10
1057.697309744197
 20
319.6637313318793
 10
1055.041865019751
 20
319.3095473183748
 10
1052.387303116489
 20
318.9603853190831
 10
1049.739552250894
 20
318.6193848004123
 10
1047.093590408751
 20
318.287428583543
 10
1044.447441517897
 20
317.9634701796735
 10
1041.801082197249
 20
317.6485093154294
 10
1039.153536101261
 20
317.3415228830966
 10
1036.509872006334
 20
317.0396286082425
 10
1033.869926244842
 20
316.7498245772433
 10
1031.235861937657
 20
316.4651594659001
 10
1028.604516237288
 20
316.1925612173229
 10
1025.97500632254
 20
315.9270078172983
 10
1023.348238395698
 20
315.6725215534136
 10
1020.726258672183
 20
315.4271497345974
 10
1018.106044591028
 20
315.1918219442082
 10
1015.488595878863
 20
314.9665615633339
 10
1012.875935370028
 20
314.7504156275283
 10
1010.268039683431
 20
314.544383863416
 10
1007.66488543798
 20
314.3494659976209
 10
1005.066542776949
 20
314.1626628502686
 10
1002.481868953426
 20
313.9901832109065
 10
999.9049357509303
 20
313.8288876131289
 10
997.3316975007801
 20
313.6806819858314
 10
994.7641770373136
 20
313.5446133645642
 10
992.2003749072883
 20
313.4206349871515
 10
989.6492886503219
 20
313.308957283391
 10
987.109895158701
 20
313.2105565988181
 10
984.5761259294141
 20
313.1282918267771
 10
982.0520967744014
 20
313.0572578584974
 10
979.5417364568983
 20
313.0005473982076
 10
977.0430221425666
 20
312.9591134103566
 10
974.562975298868
 20
312.9321198359387
 10
972.0925048618246
 20
312.9233551516568
 10
970.3716722822408
 20
312.9293681385814
  0
LINE
  5
795A
330
1F
100
AcDbEntity
  8
0
100
AcDbLine
 10
1063.929241412532
 20
320.5290114728932
 30
0.0
 11
1063.653246041105
 21
322.5098765755567
 31
0.0
  0
LINE
  5
795B
330
1F
100
AcDbEntity
  8
0
100
AcDbLine
 10
1058.921828935594
 20
319.8313250607299
 30
0.0
 11
1058.645833564167
 21
321.8121901633935
 31
0.0
  0
LINE
  5
795C
330
1F
100
AcDbEntity
  8
0
100
AcDbLine
 10
1058.645833564167
 20
321.812190163394
 30
0.0
 11
1063.653246041105
 21
322.5098765755572
 31
0.0
  0
LINE
  5
795D
330
1F
100
AcDbEntity
  8
0
100
AcDbLine
 10
970.412662341987
 20
316.9291581099428
 30
0.0
 11
970.3716722822408
 21
312.9293681385814
 31
0.0
  0
CIRCLE
  5
7963
330
1F
100
AcDbEntity
  8
0
100
AcDbCircle
 10
962.9699315633697
 20
322.6323517451376
 30
0.0
 40
5.5
  0
CIRCLE
  5
7964
330
1F
100
AcDbEntity
  8
0
100
AcDbCircle
 10
1079.998143829381
 20
305.6257058536508
 30
0.0
 40
5.5
  0
CIRCLE
  5
7965
330
1F
100
AcDbEntity
  8
0
100
AcDbCircle
 10
1079.998143829381
 20
274.3641133185211
 30
0.0
 40
5.5
  0
CIRCLE
  5
7966
330
1F
100
AcDbEntity
  8
0
100
AcDbCircle
 10
547.3807914092866
 20
275.4206709834639
 30
0.0
 40
5.5
  0
CIRCLE
  5
7967
330
1F
100
AcDbEntity
  8
0
100
AcDbCircle
 10
793.917817049165
 20
408.1875687968586
 30
0.0
 40
5.499999999999999
  0
CIRCLE
  5
7968
330
1F
100
AcDbEntity
  8
0
100
AcDbCircle
 10
818.9909435564857
 20
417.1567033539706
 30
0.0
 40
1.999999999999999
  0
CIRCLE
  5
7969
330
1F
100
AcDbEntity
  8
0
100
AcDbCircle
 10
987.889564999652
 20
329.7628610209404
 30
0.0
 40
2.0
  0
CIRCLE
  5
796A
330
1F
100
AcDbEntity
  8
0
100
AcDbCircle
 10
1055.152888852581
 20
298.4671563170682
 30
0.0
 40
2.0
  0
CIRCLE
  5
796B
330
1F
100
AcDbEntity
  8
0
100
AcDbCircle
 10
1055.152888852581
 20
268.2143342645131
 30
0.0
 40
2.0
  0
CIRCLE
  5
796C
330
1F
100
AcDbEntity
  8
0
100
AcDbCircle
 10
522.5355364324858
 20
270.2254399760277
 30
0.0
 40
2.0
  0
LINE
  5
796D
330
1F
100
AcDbEntity
  8
0
100
AcDbLine
 10
1159.767378337899
 20
355.1509296220029
 30
0.0
 11
1166.113182254617
 21
452.5541257051062
 31
0.0
  0
LINE
  5
796E
330
1F
100
AcDbEntity
  8
0
100
AcDbLine
 10
1187.458986171336
 20
355.1509296220174
 30
0.0
 11
1181.113182254617
 21
452.5541257051062
 31
0.0
  0
LINE
  5
796F
330
1F
100
AcDbEntity
  8
0
100
AcDbLine
 10
1187.458986171336
 20
355.150929622012
 30
0.0
 11
1191.947476432448
 21
260.3844900918302
 31
0.0
  0
LINE
  5
7970
330
1F
100
AcDbEntity
  8
0
100
AcDbLine
 10
1159.767378337899
 20
355.150929622012
 30
0.0
 11
1155.278888076786
 21
260.3844900918302
 31
0.0
  0
LINE
  5
7971
330
1F
100
AcDbEntity
  8
0
100
AcDbLine
 10
1180.613182254615
 20
260.3844900918302
 30
0.0
 11
1191.947476432448
 21
260.3844900918302
 31
0.0
  0
LINE
  5
7972
330
1F
100
AcDbEntity
  8
0
100
AcDbLine
 10
1180.613182254615
 20
256.4164158372023
 30
0.0
 11
1180.613182254615
 21
260.3844900918302
 31
0.0
  0
LINE
  5
7973
330
1F
100
AcDbEntity
  8
0
100
AcDbLine
 10
1166.613182254616
 20
256.4164158372023
 30
0.0
 11
1166.613182254616
 21
260.3844900918302
 31
0.0
  0
LINE
  5
7974
330
1F
100
AcDbEntity
  8
0
100
AcDbLine
 10
1155.278888076786
 20
260.3844900918302
 30
0.0
 11
1166.613182254616
 21
260.3844900918302
 31
0.0
  0
LINE
  5
7975
330
1F
100
AcDbEntity
  8
0
100
AcDbLine
 10
1166.613182254616
 20
256.4164158372023
 30
0.0
 11
1180.613182254615
 21
256.4164158372005
 31
0.0
  0
LINE
  5
7976
330
1F
100
AcDbEntity
  8
0
100
AcDbLine
 10
1176.113182254617
 20
449.5541257051063
 30
0.0
 11
1176.113182254617
 21
429.5541257051063
 31
0.0
  0
LINE
  5
7977
330
1F
100
AcDbEntity
  8
0
100
AcDbLine
 10
1171.113182254617
 20
449.5541257051063
 30
0.0
 11
1171.113182254617
 21
429.5541257051063
 31
0.0
  0
LINE
  5
7978
330
1F
100
AcDbEntity
  8
0
100
AcDbLine
 10
1171.113182254617
 20
429.5541257051063
 30
0.0
 11
1176.113182254617
 21
429.554125705108
 31
0.0
  0
LINE
  5
7979
330
1F
100
AcDbEntity
  8
0
100
AcDbLine
 10
1171.113182254617
 20
449.5541257051045
 30
0.0
 11
1176.113182254617
 21
449.5541257051063
 31
0.0
  0
LINE
  5
797A
330
1F
100
AcDbEntity
  8
0
100
AcDbLine
 10
1166.113182254617
 20
452.5541257051062
 30
0.0
 11
1181.113182254617
 21
452.5541257051062
 31
0.0
  0
CIRCLE
  5
797B
330
1F
100
AcDbEntity
  8
0
100
AcDbCircle
 10
1173.613182254618
 20
280.3844900918302
 30
0.0
 40
2.0
  0
CIRCLE
  5
797C
330
1F
100
AcDbEntity
  8
0
100
AcDbCircle
 10
1173.613182254618
 20
342.6356277813848
 30
0.0
 40
2.0
  0
LINE
  5
797D
330
1F
100
AcDbEntity
  8
0
100
AcDbLine
 10
529.5070155575086
 20
29.19079789182934
 30
0.0
 11
537.1265671700093
 21
31.91119358957076
 31
0.0
  0
LINE
  5
797E
330
1F
100
AcDbEntity
  8
0
100
AcDbLine
 10
533.0378676298805
 20
41.03712017652924
 30
0.0
 11
539.371437921387
 21
43.87475706649001
 31
0.0
  0
LINE
  5
797F
330
1F
100
AcDbEntity
  8
0
100
AcDbLine
 10
553.101541076463
 20
70.54776285914567
 30
0.0
 11
542.2822765011824
 21
78.02987792964905
 31
0.0
  0
LINE
  5
7980
330
1F
100
AcDbEntity
  8
0
100
AcDbLine
 10
542.7389842500506
 20
77.73210964409054
 30
0.0
 11
529.6761052576894
 21
85.75016876727204
 31
0.0
  0
LINE
  5
7981
330
1F
100
AcDbEntity
  8
0
100
AcDbLine
 10
547.9701898581732
 20
86.2546965685842
 30
0.0
 11
534.9073108658066
 21
94.2727556917662
 31
0.0
  0
LINE
  5
7982
330
1F
100
AcDbEntity
  8
0
100
AcDbLine
 10
362.9901939629908
 20
153.7557382093364
 30
0.0
 11
289.4511299949682
 21
169.138930400577
 31
0.0
  0
LINE
  5
7986
330
1F
100
AcDbEntity
  8
0
100
AcDbLine
 10
233.8141020563107
 20
177.0460385109404
 30
0.0
 11
234.3941772553317
 21
179.9894230871528
 31
0.0
  0
LINE
  5
7987
330
1F
100
AcDbEntity
  8
0
100
AcDbLine
 10
289.4511299949682
 20
169.138930400577
 30
0.0
 11
234.3941772553317
 21
179.9894230871514
 31
0.0
  0
LINE
  5
7988
330
1F
100
AcDbEntity
  8
0
100
AcDbLine
 10
313.9915737510237
 20
164.0054633371137
 30
0.0
 11
310.0760537064543
 21
164.824527302906
 31
0.0
  0
LINE
  5
7989
330
1F
100
AcDbEntity
  8
0
100
AcDbLine
 10
287.5175459982329
 20
159.3276484798721
 30
0.0
 11
226.5738241061736
 21
171.3382915644888
 31
0.0
  0
LINE
  5
798A
330
1F
100
AcDbEntity
  8
0
100
AcDbLine
 10
233.8141020563107
 20
177.0460385109404
 30
0.0
 11
114.4305916007488
 21
191.3230772929096
 31
0.0
  0
LINE
  5
798B
330
1F
100
AcDbEntity
  8
0
100
AcDbLine
 10
231.2770093202544
 20
170.4430548013142
 30
0.0
 11
116.7991398250487
 21
183.7533015849149
 31
0.0
  0
LINE
  5
798C
330
1F
100
AcDbEntity
  8
0
100
AcDbLine
 10
116.7991398250487
 20
183.7533015849149
 30
0.0
 11
113.020833466855
 21
184.1697627666363
 31
0.0
  0
LINE
  5
798E
330
1F
100
AcDbEntity
  8
0
100
AcDbLine
 10
114.4305916007488
 20
191.3230772929096
 30
0.0
 11
113.020833466855
 21
184.1697627666363
 31
0.0
  0
LINE
  5
7993
330
1F
100
AcDbEntity
  8
0
100
AcDbLine
 10
446.6384365508928
 20
120.0147664596625
 30
0.0
 11
401.4900976814042
 21
133.5927882039677
 31
0.0
  0
LINE
  5
7994
330
1F
100
AcDbEntity
  8
0
100
AcDbLine
 10
449.518437550305
 20
129.591070247835
 30
0.0
 11
404.370098680818
 21
143.169091992142
 31
0.0
  0
LINE
  5
7995
330
1F
100
AcDbEntity
  8
0
100
AcDbLine
 10
401.8915268391628
 20
133.4811261774948
 30
0.0
 11
360.5116221213375
 21
144.0677723946891
 31
0.0
  0
LINE
  5
7996
330
1F
100
AcDbEntity
  8
0
100
AcDbLine
 10
404.370098680818
 20
143.169091992142
 30
0.0
 11
362.9901939629908
 21
153.7557382093364
 31
0.0
  0
LINE
  5
7997
330
1F
100
AcDbEntity
  8
0
100
AcDbLine
 10
360.9426724434598
 20
143.9675996923824
 30
0.0
 11
287.4036084754353
 21
159.3507918836244
 31
0.0
  0
LINE
  5
7998
330
1F
100
AcDbEntity
  8
0
100
AcDbLine
 10
395.1366902278386
 20
145.5313697532219
 30
0.0
 11
391.2554449168365
 21
146.5243486223116
 31
0.0
  0
LINE
  5
799E
330
1F
100
AcDbEntity
  8
0
100
AcDbLine
 10
534.9073108658066
 20
94.2727556917662
 30
0.0
 11
516.881119955131
 21
103.4636043851774
 31
0.0
  0
LINE
  5
799F
330
1F
100
AcDbEntity
  8
0
100
AcDbLine
 10
495.5176077449887
 20
102.2521881112802
 30
0.0
 11
473.8308423052512
 21
110.5956398543194
 31
0.0
  0
LINE
  5
79A0
330
1F
100
AcDbEntity
  8
0
100
AcDbLine
 10
499.6573894906486
 20
100.3397248377032
 30
0.0
 11
494.9519767831552
 21
102.4899697369564
 31
0.0
  0
LINE
  5
79A2
330
1F
100
AcDbEntity
  8
0
100
AcDbLine
 10
499.1082938273921
 20
111.5852997819729
 30
0.0
 11
477.4215283876547
 21
119.9287515250134
 31
0.0
  0
LINE
  5
79A4
330
1F
100
AcDbEntity
  8
0
100
AcDbLine
 10
503.8137065348836
 20
109.4350548827206
 30
0.0
 11
499.1082938273921
 21
111.5852997819729
 31
0.0
  0
LINE
  5
79A5
330
1F
100
AcDbEntity
  8
0
100
AcDbLine
 10
516.881119955131
 20
103.4636043851774
 30
0.0
 11
507.5538150287465
 21
107.7259276049444
 31
0.0
  0
LINE
  5
79A7
330
1F
100
AcDbEntity
  8
0
100
AcDbLine
 10
507.5538150287465
 20
107.7259276049444
 30
0.0
 11
503.8137065348836
 21
109.4350548827206
 31
0.0
  0
LINE
  5
79AB
330
1F
100
AcDbEntity
  8
0
100
AcDbLine
 10
477.4215283876547
 20
119.9287515250134
 30
0.0
 11
449.518437550305
 21
129.591070247835
 31
0.0
  0
LINE
  5
79AC
330
1F
100
AcDbEntity
  8
0
100
AcDbLine
 10
474.1493472194778
 20
110.4792631577702
 30
0.0
 11
446.2462563821282
 21
120.141581880594
 31
0.0
  0
LINE
  5
79AD
330
1F
100
AcDbEntity
  8
0
100
AcDbLine
 10
499.6573894906486
 20
100.3397248377032
 30
0.0
 11
505.5660328663598
 21
97.63963643527816
 31
0.0
  0
LINE
  5
79AE
330
1F
100
AcDbEntity
  8
0
100
AcDbLine
 10
512.7248029108941
 20
94.3682743401605
 30
0.0
 11
503.3974979845133
 21
98.63059755992615
 31
0.0
  0
LINE
  5
79AF
330
1F
100
AcDbEntity
  8
0
100
AcDbLine
 10
530.3650339785454
 20
85.36389938585262
 30
0.0
 11
512.3388430678678
 21
94.55474807926201
 31
0.0
  0
LINE
  5
79B0
330
1F
100
AcDbEntity
  8
0
100
AcDbLine
 10
486.0412920640318
 20
19.25528039178061
 30
0.0
 11
417.7944289260794
 21
10.28560541669549
 31
0.0
  0
LINE
  5
79B1
330
1F
100
AcDbEntity
  8
0
100
AcDbLine
 10
484.7382000569267
 20
29.17001443869322
 30
0.0
 11
419.8350084006506
 21
20.63979770440074
 31
0.0
  0
LINE
  5
79B2
330
1F
100
AcDbEntity
  8
0
100
AcDbLine
 10
494.8926368527426
 20
20.91413562816524
 30
0.0
 11
510.1118555042194
 21
24.16028278224894
 31
0.0
  0
LINE
  5
79B3
330
1F
100
AcDbEntity
  8
0
100
AcDbLine
 10
490.2745874728624
 20
20.04865410207367
 30
0.0
 11
494.8926368527426
 21
20.91413562816524
 31
0.0
  0
LINE
  5
79B4
330
1F
100
AcDbEntity
  8
0
100
AcDbLine
 10
486.0412920640318
 20
19.25528039178061
 30
0.0
 11
490.2745874728624
 21
20.04865410207367
 31
0.0
  0
LINE
  5
79B6
330
1F
100
AcDbEntity
  8
0
100
AcDbLine
 10
417.7944289260794
 20
10.28560541669549
 30
0.0
 11
419.8350084006561
 21
20.63979770439983
 31
0.0
  0
LINE
  5
79B7
330
1F
100
AcDbEntity
  8
0
100
AcDbLine
 10
521.1459785228961
 20
26.68616810094227
 30
0.0
 11
529.5070155575086
 21
29.19079789182934
 31
0.0
  0
LINE
  5
79B8
330
1F
100
AcDbEntity
  8
0
100
AcDbLine
 10
492.8066328986788
 20
30.69414521423551
 30
0.0
 11
508.0258515501537
 21
33.94029236831921
 31
0.0
  0
LINE
  5
79B9
330
1F
100
AcDbEntity
  8
0
100
AcDbLine
 10
518.2763694138575
 20
36.26559102517513
 30
0.0
 11
526.637406448468
 21
38.7702208160631
 31
0.0
  0
LINE
  5
79BA
330
1F
100
AcDbEntity
  8
0
100
AcDbLine
 10
507.8804172127092
 20
33.9081380925818
 30
0.0
 11
518.9145402313878
 21
36.43402341127421
 31
0.0
  0
LINE
  5
79BB
330
1F
100
AcDbEntity
  8
0
100
AcDbLine
 10
526.1446082802121
 20
38.60855862894732
 30
0.0
 11
533.7641598927111
 21
41.32895432668738
 31
0.0
  0
LINE
  5
79BD
330
1F
100
AcDbEntity
  8
0
100
AcDbLine
 10
484.7382000569267
 20
29.17001443869322
 30
0.0
 11
492.8066328986788
 21
30.69414521423551
 31
0.0
  0
LINE
  5
79C0
330
1F
100
AcDbEntity
  8
0
100
AcDbLine
 10
510.1118555042194
 20
24.16028278224894
 30
0.0
 11
521.1459785228961
 21
26.68616810094227
 31
0.0
  0
LINE
  5
79C1
330
1F
100
AcDbEntity
  8
0
100
AcDbLine
 10
559.3030759498978
 20
44.72620470833589
 30
0.0
 11
562.7012690659521
 21
48.14837425612449
 31
0.0
  0
LINE
  5
79C2
330
1F
100
AcDbEntity
  8
0
100
AcDbLine
 10
543.8445956270916
 20
46.25400217965672
 30
0.0
 11
548.2295331376608
 21
49.12804098883135
 31
0.0
  0
LINE
  5
79C3
330
1F
100
AcDbEntity
  8
0
100
AcDbLine
 10
568.8299768351916
 20
64.35536972348746
 30
0.0
 11
567.4688540194656
 21
67.7695320586472
 31
0.0
  0
LINE
  5
79C4
330
1F
100
AcDbEntity
  8
0
100
AcDbLine
 10
567.4688540194656
 20
67.7695320586472
 30
0.0
 11
563.9852204201798
 21
73.68312868027307
 31
0.0
  0
LINE
  5
79C5
330
1F
100
AcDbEntity
  8
0
100
AcDbLine
 10
568.4964081573488
 20
58.38316756415998
 30
0.0
 11
568.2648808410231
 21
57.7307791664939
 31
0.0
  0
LINE
  5
79C6
330
1F
100
AcDbEntity
  8
0
100
AcDbLine
 10
569.0050009214338
 20
60.96384003542789
 30
0.0
 11
568.4964081573488
 21
58.38316756415998
 31
0.0
  0
LINE
  5
79C7
330
1F
100
AcDbEntity
  8
0
100
AcDbLine
 10
568.9686087534846
 20
61.66902936485667
 30
0.0
 11
569.0050009214338
 21
60.96384003542789
 31
0.0
  0
LINE
  5
79C8
330
1F
100
AcDbEntity
  8
0
100
AcDbLine
 10
569.0050009214338
 20
60.96384003542789
 30
0.0
 11
568.8299768351916
 21
64.35536972348746
 31
0.0
  0
LINE
  5
79C9
330
1F
100
AcDbEntity
  8
0
100
AcDbLine
 10
568.4964081573488
 20
58.38316756415998
 30
0.0
 11
569.0050009214338
 21
60.96384003542789
 31
0.0
  0
LINE
  5
79CA
330
1F
100
AcDbEntity
  8
0
100
AcDbLine
 10
567.4379630233707
 20
55.40072326369909
 30
0.0
 11
568.4964081573488
 21
58.38316756415998
 31
0.0
  0
LINE
  5
79CB
330
1F
100
AcDbEntity
  8
0
100
AcDbLine
 10
565.5245624845409
 20
51.51325929723452
 30
0.0
 11
567.4379630233707
 21
55.40072326369909
 31
0.0
  0
LINE
  5
79CC
330
1F
100
AcDbEntity
  8
0
100
AcDbLine
 10
562.7012690659521
 20
48.14837425612449
 30
0.0
 11
565.5245624845409
 21
51.51325929723452
 31
0.0
  0
LINE
  5
79CD
330
1F
100
AcDbEntity
  8
0
100
AcDbLine
 10
557.8639158478563
 20
57.94089440727566
 30
0.0
 11
558.207075272954
 21
63.7898866683663
 31
0.0
  0
LINE
  5
79CE
330
1F
100
AcDbEntity
  8
0
100
AcDbLine
 10
558.7894544334521
 20
78.77258149807947
 30
0.0
 11
547.9701898581732
 21
86.2546965685842
 31
0.0
  0
LINE
  5
79CF
330
1F
100
AcDbEntity
  8
0
100
AcDbLine
 10
547.9302326332053
 20
48.92402545441154
 30
0.0
 11
553.5219799916993
 21
52.88579596783347
 31
0.0
  0
LINE
  5
79D0
330
1F
100
AcDbEntity
  8
0
100
AcDbLine
 10
552.207194218603
 20
51.77237121612416
 30
0.0
 11
555.6053873346573
 21
55.19454076391321
 31
0.0
  0
LINE
  5
79D1
330
1F
100
AcDbEntity
  8
0
100
AcDbLine
 10
556.0413895275704
 20
67.46621816029028
 30
0.0
 11
551.7918505306461
 21
71.6288052124296
 31
0.0
  0
LINE
  5
79D2
330
1F
100
AcDbEntity
  8
0
100
AcDbLine
 10
555.0406224292656
 20
54.57600936616564
 30
0.0
 11
557.8639158478563
 21
57.94089440727566
 31
0.0
  0
LINE
  5
79D3
330
1F
100
AcDbEntity
  8
0
100
AcDbLine
 10
558.2070752729523
 20
63.78988666836812
 30
0.0
 11
556.0413895275651
 21
67.46621816029255
 31
0.0
  0
LINE
  5
79D4
330
1F
100
AcDbEntity
  8
0
100
AcDbLine
 10
563.9852204201798
 20
73.68312868027307
 30
0.0
 11
558.7894544334521
 21
78.77258149807947
 31
0.0
  0
LINE
  5
79D7
330
1F
100
AcDbEntity
  8
0
100
AcDbLine
 10
549.3263910808382
 20
37.89039538573798
 30
0.0
 11
553.7113285914037
 21
40.76443419491261
 31
0.0
  0
LINE
  5
79D8
330
1F
100
AcDbEntity
  8
0
100
AcDbLine
 10
543.460137461514
 20
34.74883047953108
 30
0.0
 11
549.3263910808382
 21
37.89039538573798
 31
0.0
  0
LINE
  5
79D9
330
1F
100
AcDbEntity
  8
0
100
AcDbLine
 10
537.1265671700093
 20
31.91119358957076
 30
0.0
 11
543.460137461514
 21
34.74883047953108
 31
0.0
  0
LINE
  5
79DA
330
1F
100
AcDbEntity
  8
0
100
AcDbLine
 10
538.7391738826862
 20
43.56430000119508
 30
0.0
 11
544.6054275020069
 21
46.70586490740197
 31
0.0
  0
LINE
  5
79DB
330
1F
100
AcDbEntity
  8
0
100
AcDbLine
 10
553.7113285914037
 20
40.76443419491261
 30
0.0
 11
559.3030759498978
 21
44.72620470833589
 31
0.0
  0
LINE
  5
79DC
330
1F
100
AcDbEntity
  8
0
100
AcDbLine
 10
458.9348795982714
 20
71.1000253718937
 30
0.0
 11
456.610857940952
 21
74.67836735144397
 31
0.0
  0
LINE
  5
79DD
330
1F
100
AcDbEntity
  8
0
100
AcDbLine
 10
456.1734429945081
 20
61.75676970618951
 30
0.0
 11
458.8472381905956
 21
65.24163072446686
 31
0.0
  0
LINE
  5
79DE
330
1F
100
AcDbEntity
  8
0
100
AcDbLine
 10
455.4480133148536
 20
47.90034943981322
 30
0.0
 11
460.8615841350073
 21
52.10231506287914
 31
0.0
  0
LINE
  5
79E1
330
1F
100
AcDbEntity
  8
0
100
AcDbLine
 10
464.2758808992766
 20
81.23594683721558
 30
0.0
 11
458.8630099487327
 21
86.09386225910723
 31
0.0
  0
LINE
  5
79E2
330
1F
100
AcDbEntity
  8
0
100
AcDbLine
 10
460.8615841350073
 20
52.10231506287914
 30
0.0
 11
464.1072322660057
 21
55.66948888504612
 31
0.0
  0
LINE
  5
79E3
330
1F
100
AcDbEntity
  8
0
100
AcDbLine
 10
464.1072322660057
 20
55.66948888504612
 30
0.0
 11
466.7810274620951
 21
59.15434990332369
 31
0.0
  0
LINE
  5
79E4
330
1F
100
AcDbEntity
  8
0
100
AcDbLine
 10
466.7810274620951
 20
59.15434990332369
 30
0.0
 11
468.5229961214973
 21
63.12159364453897
 31
0.0
  0
LINE
  5
79E5
330
1F
100
AcDbEntity
  8
0
100
AcDbLine
 10
468.5229961214973
 20
63.12159364453897
 30
0.0
 11
469.4503094624651
 21
66.14737785274861
 31
0.0
  0
LINE
  5
79E6
330
1F
100
AcDbEntity
  8
0
100
AcDbLine
 10
469.4503094624651
 20
66.14737785274861
 30
0.0
 11
469.8458233101336
 21
68.7477827827438
 31
0.0
  0
LINE
  5
79E7
330
1F
100
AcDbEntity
  8
0
100
AcDbLine
 10
469.8458233101336
 20
68.7477827827438
 30
0.0
 11
469.5229936137166
 21
72.12844662921907
 31
0.0
  0
LINE
  5
79E8
330
1F
100
AcDbEntity
  8
0
100
AcDbLine
 10
469.7786984201647
 20
69.45071281437957
 30
0.0
 11
469.8458233101336
 21
68.7477827827438
 31
0.0
  0
LINE
  5
79E9
330
1F
100
AcDbEntity
  8
0
100
AcDbLine
 10
469.8458233101336
 20
68.7477827827438
 30
0.0
 11
469.4503094624651
 21
66.14737785274861
 31
0.0
  0
LINE
  5
79EA
330
1F
100
AcDbEntity
  8
0
100
AcDbLine
 10
469.4503094624651
 20
66.14737785274861
 30
0.0
 11
469.2474662896511
 21
65.48550915968688
 31
0.0
  0
LINE
  5
79EB
330
1F
100
AcDbEntity
  8
0
100
AcDbLine
 10
468.0142071768331
 20
75.47997214130759
 30
0.0
 11
464.2758808992766
 21
81.23594683721558
 31
0.0
  0
LINE
  5
79EC
330
1F
100
AcDbEntity
  8
0
100
AcDbLine
 10
469.5229936137166
 20
72.12844662921907
 30
0.0
 11
468.0142071768331
 21
75.47997214130759
 31
0.0
  0
LINE
  5
79EE
330
1F
100
AcDbEntity
  8
0
100
AcDbLine
 10
347.4788370781006
 20
132.096470483114
 30
0.0
 11
301.7810818222843
 21
143.6917428707129
 31
0.0
  0
LINE
  5
79F6
330
1F
100
AcDbEntity
  8
0
100
AcDbLine
 10
301.7810818222843
 20
143.6917428707129
 30
0.0
 11
259.9786858340213
 21
152.4629048361905
 31
0.0
  0
LINE
  5
79F7
330
1F
100
AcDbEntity
  8
0
100
AcDbLine
 10
292.4533997238141
 20
145.6489180161547
 30
0.0
 11
288.5325266690234
 21
146.4716127875106
 31
0.0
  0
LINE
  5
79F8
330
1F
100
AcDbEntity
  8
0
100
AcDbLine
 10
185.8384807566981
 20
164.6229427628714
 30
0.0
 11
130.3605489661877
 21
173.0609710137864
 31
0.0
  0
LINE
  5
79FA
330
1F
100
AcDbEntity
  8
0
100
AcDbLine
 10
210.5795290457209
 20
160.5650623560584
 30
0.0
 11
206.6320017938779
 21
161.2125124278373
 31
0.0
  0
LINE
  5
79FB
330
1F
100
AcDbEntity
  8
0
100
AcDbLine
 10
259.9786858340213
 20
152.4629048361905
 30
0.0
 11
185.8384807566981
 21
164.6229427628714
 31
0.0
  0
LINE
  5
79FC
330
1F
100
AcDbEntity
  8
0
100
AcDbLine
 10
127.6628569054064
 20
163.3876912737239
 30
0.0
 11
12.71327236412617
 21
171.6905996430357
 31
0.0
  0
LINE
  5
79FD
330
1F
100
AcDbEntity
  8
0
100
AcDbLine
 10
299.7275556516525
 20
133.9048623530741
 30
0.0
 11
257.9251596633894
 21
142.6760243185519
 31
0.0
  0
LINE
  5
79FE
330
1F
100
AcDbEntity
  8
0
100
AcDbLine
 10
320.9903289326121
 20
11.52049610185213
 30
0.0
 11
322.577212381324
 21
21.95385909961124
 31
0.0
  0
LINE
  5
7A00
330
1F
100
AcDbEntity
  8
0
100
AcDbLine
 10
412.6144956942371
 20
29.40976627271675
 30
0.0
 11
423.5279073294767
 21
32.41466459285357
 31
0.0
  0
LINE
  5
7A04
330
1F
100
AcDbEntity
  8
0
100
AcDbLine
 10
372.9201394293558
 20
114.0775078034595
 30
0.0
 11
344.6220525278458
 21
122.5132151889338
 31
0.0
  0
LINE
  5
7A05
330
1F
100
AcDbEntity
  8
0
100
AcDbLine
 10
375.7769239796107
 20
123.6607630976393
 30
0.0
 11
347.4788370781006
 21
132.096470483114
 31
0.0
  0
LINE
  5
7A06
330
1F
100
AcDbEntity
  8
0
100
AcDbLine
 10
398.8462794928073
 20
105.0605393959297
 30
0.0
 11
394.0515323859236
 21
107.0034398194295
 31
0.0
  0
LINE
  5
7A07
330
1F
100
AcDbEntity
  8
0
100
AcDbLine
 10
394.6269991322369
 20
106.7905630701666
 30
0.0
 11
372.596860298554
 21
114.1798773276061
 31
0.0
  0
LINE
  5
7A08
330
1F
100
AcDbEntity
  8
0
100
AcDbLine
 10
412.1617836974419
 20
99.66490576153773
 30
0.0
 11
402.6573956467218
 21
103.5162203683801
 31
0.0
  0
LINE
  5
7A09
330
1F
100
AcDbEntity
  8
0
100
AcDbLine
 10
430.1780774772415
 20
91.43874755264414
 30
0.0
 11
411.7680555405477
 21
99.83436252379464
 31
0.0
  0
LINE
  5
7A0A
330
1F
100
AcDbEntity
  8
0
100
AcDbLine
 10
442.8732193966152
 20
84.3540999515892
 30
0.0
 11
429.4729518673738
 21
91.79459118649493
 31
0.0
  0
LINE
  5
7A0B
330
1F
100
AcDbEntity
  8
0
100
AcDbLine
 10
453.5393612851875
 20
77.6287122363874
 30
0.0
 11
442.4039549272073
 21
84.63165855353144
 31
0.0
  0
LINE
  5
7A0C
330
1F
100
AcDbEntity
  8
0
100
AcDbLine
 10
456.6108579409556
 20
74.67836735144122
 30
0.0
 11
452.1837520535028
 21
78.65158344351425
 31
0.0
  0
LINE
  5
7A0D
330
1F
100
AcDbEntity
  8
0
100
AcDbLine
 10
453.4650354825826
 20
58.83217895692133
 30
0.0
 11
456.7106836135807
 21
62.39935277908831
 31
0.0
  0
LINE
  5
7A0E
330
1F
100
AcDbEntity
  8
0
100
AcDbLine
 10
445.3511662616947
 20
52.95420496142606
 30
0.0
 11
449.6065340874393
 21
56.01682160668996
 31
0.0
  0
LINE
  5
7A0F
330
1F
100
AcDbEntity
  8
0
100
AcDbLine
 10
440.3679576775902
 20
50.0443147221954
 30
0.0
 11
446.0915588934948
 21
53.43883246517657
 31
0.0
  0
LINE
  5
7A10
330
1F
100
AcDbEntity
  8
0
100
AcDbLine
 10
449.3164197766363
 20
55.79994187753413
 30
0.0
 11
454.7299905967902
 21
60.00190750060028
 31
0.0
  0
LINE
  5
7A11
330
1F
100
AcDbEntity
  8
0
100
AcDbLine
 10
428.0016038751764
 20
44.54379212000707
 30
0.0
 11
435.4952091163412
 21
47.59403801458756
 31
0.0
  0
LINE
  5
7A12
330
1F
100
AcDbEntity
  8
0
100
AcDbLine
 10
434.7823411675962
 20
47.27079366445105
 30
0.0
 11
440.9860744227371
 21
50.38206180715178
 31
0.0
  0
LINE
  5
7A13
330
1F
100
AcDbEntity
  8
0
100
AcDbLine
 10
409.9598838145811
 20
39.05098174424303
 30
0.0
 11
420.8732954498227
 21
42.0558800643796
 31
0.0
  0
LINE
  5
7A14
330
1F
100
AcDbEntity
  8
0
100
AcDbLine
 10
420.2430810206806
 20
41.85976470460786
 30
0.0
 11
428.4868794681042
 21
44.72680112604121
 31
0.0
  0
LINE
  5
7A15
330
1F
100
AcDbEntity
  8
0
100
AcDbLine
 10
395.0406797091764
 20
35.18238088228509
 30
0.0
 11
410.1037767741945
 21
39.08945069446009
 31
0.0
  0
LINE
  5
7A16
330
1F
100
AcDbEntity
  8
0
100
AcDbLine
 10
423.5279073294767
 20
32.41466459285357
 30
0.0
 11
431.7717057768968
 21
35.28170101428715
 31
0.0
  0
LINE
  5
7A17
330
1F
100
AcDbEntity
  8
0
100
AcDbLine
 10
431.7717057768968
 20
35.28170101428715
 30
0.0
 11
439.2653110180636
 21
38.33194690886762
 31
0.0
  0
LINE
  5
7A18
330
1F
100
AcDbEntity
  8
0
100
AcDbLine
 10
439.2653110180636
 20
38.33194690886762
 30
0.0
 11
445.4690442732006
 21
41.44321505156836
 31
0.0
  0
LINE
  5
7A19
330
1F
100
AcDbEntity
  8
0
100
AcDbLine
 10
445.4690442732006
 20
41.44321505156836
 30
0.0
 11
451.1926454891089
 21
44.83773279454907
 31
0.0
  0
LINE
  5
7A1A
330
1F
100
AcDbEntity
  8
0
100
AcDbLine
 10
451.1926454891089
 20
44.83773279454907
 30
0.0
 11
455.4480133148536
 21
47.90034943981322
 31
0.0
  0
LINE
  5
7A1B
330
1F
100
AcDbEntity
  8
0
100
AcDbLine
 10
397.8070628132974
 20
116.2714488402
 30
0.0
 11
375.7769239796107
 21
123.6607630976393
 31
0.0
  0
LINE
  5
7A1D
330
1F
100
AcDbEntity
  8
0
100
AcDbLine
 10
406.4129260740956
 20
112.7842293891499
 30
0.0
 11
402.6018099201774
 21
114.3285484167002
 31
0.0
  0
LINE
  5
7A1F
330
1F
100
AcDbEntity
  8
0
100
AcDbLine
 10
458.8630099487327
 20
86.09386225910723
 30
0.0
 11
447.7276035907507
 21
93.0968085762513
 31
0.0
  0
LINE
  5
7A20
330
1F
100
AcDbEntity
  8
0
100
AcDbLine
 10
447.7276035907507
 20
93.0968085762513
 30
0.0
 11
434.3273360615076
 21
100.537299811157
 31
0.0
  0
LINE
  5
7A21
330
1F
100
AcDbEntity
  8
0
100
AcDbLine
 10
434.3273360615076
 20
100.537299811157
 30
0.0
 11
415.9173141248157
 21
108.9329147823077
 31
0.0
  0
LINE
  5
7A22
330
1F
100
AcDbEntity
  8
0
100
AcDbLine
 10
415.9173141248157
 20
108.9329147823077
 30
0.0
 11
406.4129260740956
 21
112.7842293891499
 31
0.0
  0
LINE
  5
7A23
330
1F
100
AcDbEntity
  8
0
100
AcDbLine
 10
402.6018099201774
 20
114.3285484167002
 30
0.0
 11
397.8070628132974
 21
116.2714488402
 31
0.0
  0
LINE
  5
7A25
330
1F
100
AcDbEntity
  8
0
100
AcDbLine
 10
345.0193921977207
 20
122.4036313283377
 30
0.0
 11
299.3216369419024
 21
133.9989037159364
 31
0.0
  0
LINE
  5
7A28
330
1F
100
AcDbEntity
  8
0
100
AcDbLine
 10
387.0464277010106
 20
33.30767611278361
 30
0.0
 11
322.577212381324
 21
21.95385909961215
 31
0.0
  0
LINE
  5
7A29
330
1F
100
AcDbEntity
  8
0
100
AcDbLine
 10
388.7808582156012
 20
23.45923711007527
 30
0.0
 11
320.9903289326121
 21
11.52049610185213
 31
0.0
  0
LINE
  5
7A2A
330
1F
100
AcDbEntity
  8
0
100
AcDbLine
 10
388.7808582156012
 20
23.45923711007527
 30
0.0
 11
392.9755076561341
 21
24.43655381086546
 31
0.0
  0
LINE
  5
7A2B
330
1F
100
AcDbEntity
  8
0
100
AcDbLine
 10
392.9755076561341
 20
24.43655381086546
 30
0.0
 11
397.551398629219
 21
25.50269646054176
 31
0.0
  0
LINE
  5
7A2C
330
1F
100
AcDbEntity
  8
0
100
AcDbLine
 10
397.551398629219
 20
25.50269646054176
 30
0.0
 11
412.6144956942371
 21
29.40976627271675
 31
0.0
  0
LINE
  5
7A2D
330
1F
100
AcDbEntity
  8
0
100
AcDbLine
 10
184.3348037476171
 20
154.736641358789
 30
0.0
 11
122.9250911146573
 21
164.0768758151519
 31
0.0
  0
LINE
  5
7A2E
330
1F
100
AcDbEntity
  8
0
100
AcDbLine
 10
258.3601700524014
 20
142.594753709224
 30
0.0
 11
184.2199649750801
 21
154.7547916359049
 31
0.0
  0
LINE
  5
7A30
330
1F
100
AcDbEntity
  8
0
100
AcDbLine
 10
10.01671062014247
 20
179.1498274664131
 30
0.0
 11
8.920393678195976
 21
171.9418169315513
 31
0.0
  0
LINE
  5
7A32
330
1F
100
AcDbEntity
  8
0
100
AcDbLine
 10
387.0464277010106
 20
33.30767611278361
 30
0.0
 11
395.0406797091764
 21
35.18238088228509
 31
0.0
  0
LINE
  5
7A33
330
1F
100
AcDbEntity
  8
0
100
AcDbLine
 10
458.8472381905956
 20
65.24163072446686
 30
0.0
 11
458.9348795982714
 21
71.1000253718928
 31
0.0
  0
LINE
  5
7A34
330
1F
100
AcDbEntity
  8
0
100
AcDbLine
 10
12.71327236412617
 20
171.6905996430357
 30
0.0
 11
8.920393678195976
 21
171.9418169315513
 31
0.0
  0
LINE
  5
7A37
330
1F
100
AcDbEntity
  8
0
100
AcDbLine
 10
398.8462794928073
 20
105.0605393959297
 30
0.0
 11
404.8671011491477
 21
102.6208159475072
 31
0.0
  0
LINE
  5
7A39
330
1F
100
AcDbEntity
  8
0
100
AcDbLine
 10
129.9094458634627
 20
170.0950805925613
 30
0.0
 11
10.01671062014247
 21
179.1498274664131
 31
0.0
  0
LINE
  5
7A3A
330
1F
100
AcDbEntity
  8
0
100
AcDbLine
 10
129.9094458634627
 20
170.0950805925613
 30
0.0
 11
130.3605489661877
 21
173.0609710137868
 31
0.0
  0
LINE
  5
7A3C
330
1F
100
AcDbEntity
  8
0
100
AcDbLine
 10
22.19951311594377
 20
123.2649433271376
 30
0.0
 11
100.3964225146792
 21
123.5294117482431
 31
0.0
  0
LINE
  5
7A3D
330
1F
100
AcDbEntity
  8
0
100
AcDbLine
 10
98.86391992167773
 20
12.07288020685519
 30
0.0
 11
20.70384357636249
 21
14.48722250948958
 31
0.0
  0
LINE
  5
7A3E
330
1F
100
AcDbEntity
  8
0
100
AcDbLine
 10
303.1824270484995
 20
49.00083521823489
 30
0.0
 11
303.6223783666029
 21
80.99781074464543
 31
0.0
  0
LINE
  5
7A3F
330
1F
100
AcDbEntity
  8
0
100
AcDbLine
 10
237.8607481332747
 20
115.1211978326728
 30
0.0
 11
247.7114617054194
 21
113.3997327242518
 31
0.0
  0
LINE
  5
7A40
330
1F
100
AcDbEntity
  8
0
100
AcDbLine
 10
300.7601466979049
 20
91.03811103272027
 30
0.0
 11
300.6226619109984
 21
81.03905618071712
 31
0.0
  0
LINE
  5
7A41
330
1F
100
AcDbEntity
  8
0
100
AcDbLine
 10
247.7114617054194
 20
113.3997327242523
 30
0.0
 11
300.7601466979049
 21
91.03811103272027
 31
0.0
  0
LINE
  5
7A42
330
1F
100
AcDbEntity
  8
0
100
AcDbLine
 10
303.6223783666029
 20
80.99781074464543
 30
0.0
 11
300.6226619109984
 21
81.03905618071712
 31
0.0
  0
LINE
  5
7A43
330
1F
100
AcDbEntity
  8
0
100
AcDbLine
 10
103.3968456142211
 20
123.5395594275555
 30
0.0
 11
183.5653133146607
 21
121.7217582117282
 31
0.0
  0
LINE
  5
7A44
330
1F
100
AcDbEntity
  8
0
100
AcDbLine
 10
237.6409258813201
 20
99.1338671288968
 30
0.0
 11
237.8607481332747
 21
115.1211978326728
 31
0.0
  0
LINE
  5
7A45
330
1F
100
AcDbEntity
  8
0
100
AcDbLine
 10
234.6412094257157
 20
99.17511256496799
 30
0.0
 11
234.861031677674
 21
115.1624432687449
 31
0.0
  0
LINE
  5
7A46
330
1F
100
AcDbEntity
  8
0
100
AcDbLine
 10
186.418011330632
 20
110.9880901796937
 30
0.0
 11
186.5646617699967
 21
121.6537486884685
 31
0.0
  0
LINE
  5
7A47
330
1F
100
AcDbEntity
  8
0
100
AcDbLine
 10
186.418011330632
 20
110.9880901796937
 30
0.0
 11
183.4182948750294
 21
111.0293356157654
 31
0.0
  0
LINE
  5
7A48
330
1F
100
AcDbEntity
  8
0
100
AcDbLine
 10
237.6409258813183
 20
99.13386712889632
 30
0.0
 11
234.6412094257157
 21
99.17511256496799
 31
0.0
  0
LINE
  5
7A49
330
1F
100
AcDbEntity
  8
0
100
AcDbLine
 10
183.564945314396
 20
121.6949941245402
 30
0.0
 11
183.4182948750294
 21
111.0293356157654
 31
0.0
  0
LINE
  5
7A4A
330
1F
100
AcDbEntity
  8
0
100
AcDbLine
 10
186.5646617699967
 20
121.6537486884685
 30
0.0
 11
234.8657089736406
 21
115.50261573436
 31
0.0
  0
LINE
  5
7A4B
330
1F
100
AcDbEntity
  8
0
100
AcDbLine
 10
103.2681662395189
 20
114.1809085187637
 30
0.0
 11
103.3968456142211
 21
123.5395594275555
 31
0.0
  0
LINE
  5
7A4C
330
1F
100
AcDbEntity
  8
0
100
AcDbLine
 10
100.26844978392
 20
114.2221539548354
 30
0.0
 11
100.3971291586167
 21
123.5808048636268
 31
0.0
  0
LINE
  5
7A4D
330
1F
100
AcDbEntity
  8
0
100
AcDbLine
 10
103.2681662395189
 20
114.1809085187637
 30
0.0
 11
100.26844978392
 21
114.2221539548354
 31
0.0
  0
LINE
  5
7A4E
330
1F
100
AcDbEntity
  8
0
100
AcDbLine
 10
246.4017769653819
 20
18.14839729179812
 30
0.0
 11
236.5074567912671
 21
16.69842201889105
 31
0.0
  0
LINE
  5
7A4F
330
1F
100
AcDbEntity
  8
0
100
AcDbLine
 10
300.0452258059904
 20
39.04302580230343
 30
0.0
 11
300.1827105928987
 21
49.04208065430657
 31
0.0
  0
LINE
  5
7A50
330
1F
100
AcDbEntity
  8
0
100
AcDbLine
 10
300.0452258059922
 20
39.04302580230343
 30
0.0
 11
246.4017769653838
 21
18.14839729179903
 31
0.0
  0
LINE
  5
7A51
330
1F
100
AcDbEntity
  8
0
100
AcDbLine
 10
303.1824270484995
 20
49.00083521823489
 30
0.0
 11
300.1827105928987
 21
49.04208065430657
 31
0.0
  0
LINE
  5
7A52
330
1F
100
AcDbEntity
  8
0
100
AcDbLine
 10
182.0510697177469
 20
11.5931750749346
 30
0.0
 11
101.8629297333373
 21
11.98024165539937
 31
0.0
  0
LINE
  5
7A53
330
1F
100
AcDbEntity
  8
0
100
AcDbLine
 10
182.1980881573763
 20
22.285597670897
 30
0.0
 11
182.0514377180098
 21
11.61993916212259
 31
0.0
  0
LINE
  5
7A54
330
1F
100
AcDbEntity
  8
0
100
AcDbLine
 10
185.197804612977
 20
22.24435223482533
 30
0.0
 11
182.1980881573763
 21
22.285597670897
 31
0.0
  0
LINE
  5
7A55
330
1F
100
AcDbEntity
  8
0
100
AcDbLine
 10
236.7272790432235
 20
32.685752722668
 30
0.0
 11
233.7275625876245
 21
32.72699815873966
 31
0.0
  0
LINE
  5
7A56
330
1F
100
AcDbEntity
  8
0
100
AcDbLine
 10
185.0511541736123
 20
11.57869372605091
 30
0.0
 11
185.197804612977
 21
22.24435223482533
 31
0.0
  0
LINE
  5
7A57
330
1F
100
AcDbEntity
  8
0
100
AcDbLine
 10
233.5030630396996
 20
16.39949498934857
 30
0.0
 11
233.7275625876245
 21
32.72699815874013
 31
0.0
  0
LINE
  5
7A58
330
1F
100
AcDbEntity
  8
0
100
AcDbLine
 10
236.5074567912671
 20
16.69842201889105
 30
0.0
 11
236.7272790432235
 21
32.685752722668
 31
0.0
  0
LINE
  5
7A59
330
1F
100
AcDbEntity
  8
0
100
AcDbLine
 10
233.5030630396959
 20
16.39949498934902
 30
0.0
 11
185.0511541736123
 21
11.57869372605091
 31
0.0
  0
LINE
  5
7A5A
330
1F
100
AcDbEntity
  8
0
100
AcDbLine
 10
101.991609108034
 20
21.3388925641907
 30
0.0
 11
98.99189265243515
 21
21.38013800026238
 31
0.0
  0
LINE
  5
7A5B
330
1F
100
AcDbEntity
  8
0
100
AcDbLine
 10
98.86391992167773
 20
12.07288020685519
 30
0.0
 11
98.99189265243515
 21
21.38013800026238
 31
0.0
  0
LINE
  5
7A5C
330
1F
100
AcDbEntity
  8
0
100
AcDbLine
 10
101.8629297333373
 20
11.98024165539937
 30
0.0
 11
101.991609108034
 21
21.3388925641907
 31
0.0
  0
LINE
  5
7A5D
330
1F
100
AcDbEntity
  8
0
100
AcDbLine
 10
14.86701251936028
 20
26.39549349715162
 30
0.0
 11
16.03889163842359
 21
111.6244403145306
 31
0.0
  0
LINE
  5
7A5E
330
1F
100
AcDbEntity
  8
0
100
AcDbLine
 10
22.03832454962503
 20
111.5419494423872
 30
0.0
 11
22.19809982806328
 21
123.1621570963698
 31
0.0
  0
LINE
  5
7A5F
330
1F
100
AcDbEntity
  8
0
100
AcDbLine
 10
22.03832454962503
 20
111.5419494423872
 30
0.0
 11
16.03889163842359
 21
111.6244403145306
 31
0.0
  0
LINE
  5
7A60
330
1F
100
AcDbEntity
  8
0
100
AcDbLine
 10
20.86644543056355
 20
26.31300262500827
 30
0.0
 11
14.86701251936028
 21
26.39549349715162
 31
0.0
  0
LINE
  5
7A61
330
1F
100
AcDbEntity
  8
0
100
AcDbLine
 10
20.70525686424298
 20
14.59000874025742
 30
0.0
 11
20.86644543056355
 21
26.31300262500827
 31
0.0
  0
LINE
  5
7A62
330
1F
100
AcDbEntity
  8
0
100
AcDbLine
 10
0.0
 20
200.0
 30
0.0
 11
0.0
 21
0.0
 31
0.0
  0
LINE
  5
7A63
330
1F
100
AcDbEntity
  8
0
100
AcDbLine
 10
0.0
 20
0.0
 30
0.0
 11
1200.0
 21
0.0
 31
0.0
  0
LINE
  5
7A64
330
1F
100
AcDbEntity
  8
0
100
AcDbLine
 10
1200.0
 20
0.0
 30
0.0
 11
1200.0
 21
200.0
 31
0.0
  0
LINE
  5
7A65
330
1F
100
AcDbEntity
  8
0
100
AcDbLine
 10
1200.0
 20
200.0
 30
0.0
 11
0.0
 21
200.0
 31
0.0
  0
LINE
  5
7A79
330
1F
100
AcDbEntity
  8
0
100
AcDbLine
 10
600.0
 20
200.0
 30
0.0
 11
600.0
 21
0.0
 31
0.0
  0
LINE
  5
7A7A
330
1F
100
AcDbEntity
  8
0
100
AcDbLine
 10
600.0
 20
454.786126881173
 30
0.0
 11
600.0
 21
254.786126881173
 31
0.0
  0
ELLIPSE
  5
7DD0
330
1F
100
AcDbEntity
  8
0
100
AcDbEllipse
 10
59.60219202143527
 20
404.7950890563375
 30
0.0
 11
0.3495756630961768
 21
-44.7806858954368
 31
0.0
210
0.0
220
0.0
230
-1.0
 40
0.8615114600104773
 41
4.972680393628419
 42
5.420427185520638
  0
ELLIPSE
  5
7DD1
330
1F
100
AcDbEntity
  8
0
100
AcDbEllipse
 10
59.60219202143527
 20
404.7950890563375
 30
0.0
 11
0.3495756630961768
 21
-44.7806858954368
 31
0.0
210
0.0
220
0.0
230
-1.0
 40
0.8615114600104773
 41
9.511676736819588
 42
11.14275154847392
  0
ELLIPSE
  5
7DD2
330
1F
100
AcDbEntity
  8
0
100
AcDbEllipse
 10
59.60219202143527
 20
404.7950890563375
 30
0.0
 11
0.3495756630961768
 21
-44.7806858954368
 31
0.0
210
0.0
220
0.0
230
-1.0
 40
0.8615114600104773
 41
5.491780787241927
 42
6.214408588454152
  0
LINE
  5
7DD3
330
1F
100
AcDbEntity
  8
0
100
AcDbLine
 10
59.60219202143527
 20
402.3300201964421
 30
0.0
 11
75.60219202143525
 21
402.3300201964421
 31
0.0
  0
LINE
  5
7DD4
330
1F
100
AcDbEntity
  8
0
100
AcDbLine
 10
75.60219202143525
 20
405.3300201964421
 30
0.0
 11
59.60219202143527
 21
405.3300201964421
 31
0.0
  0
LINE
  5
7DD5
330
1F
100
AcDbEntity
  8
0
100
AcDbLine
 10
75.60219202143525
 20
402.3300201964421
 30
0.0
 11
75.60219202143525
 21
405.3300201964421
 31
0.0
  0
LINE
  5
7DD6
330
1F
100
AcDbEntity
  8
0
100
AcDbLine
 10
92.04104499689673
 20
394.4009937114993
 30
0.0
 11
96.97169833251791
 21
393.5612537720663
 31
0.0
  0
LINE
  5
7DD7
330
1F
100
AcDbEntity
  8
0
100
AcDbLine
 10
89.1357128628533
 20
375.9009799116243
 30
0.0
 11
86.77008501954695
 21
377.7459201306087
 31
0.0
  0
LINE
  5
7DD8
330
1F
100
AcDbEntity
  8
0
100
AcDbLine
 10
86.77008501954695
 20
377.7459201306087
 30
0.0
 11
84.92514468469197
 21
375.3802922729719
 31
0.0
  0
LINE
  5
7DD9
330
1F
100
AcDbEntity
  8
0
100
AcDbLine
 10
84.92514468469197
 20
375.3802922729719
 30
0.0
 11
87.29077259309814
 21
373.5353520032167
 31
0.0
  0
LINE
  5
7DDA
330
1F
100
AcDbEntity
  8
0
100
AcDbLine
 10
97.8154503586029
 20
398.5260658400198
 30
0.0
 11
92.88050786726852
 21
399.3300201964421
 31
0.0
  0
LINE
  5
7DDB
330
1F
100
AcDbEntity
  8
0
100
AcDbLine
 10
92.88050786726852
 20
399.3300201964421
 30
0.0
 11
92.04104499689673
 21
394.4009937114993
 31
0.0
  0
LINE
  5
7DDC
330
1F
100
AcDbEntity
  8
0
100
AcDbLine
 10
62.60219202143526
 20
439.5771393936097
 30
0.0
 11
59.60219202143527
 21
439.5771393936096
 31
0.0
  0
LINE
  5
7DDD
330
1F
100
AcDbEntity
  8
0
100
AcDbLine
 10
59.60219202143527
 20
439.5771393936096
 30
0.0
 11
59.60219202143527
 21
405.3300201964421
 31
0.0
  0
LINE
  5
7DDE
330
1F
100
AcDbEntity
  8
0
100
AcDbLine
 10
59.60219202143527
 20
402.3300201964421
 30
0.0
 11
59.60219202143527
 21
370.1409697555414
 31
0.0
  0
LINE
  5
7DDF
330
1F
100
AcDbEntity
  8
0
100
AcDbLine
 10
62.60219202143526
 20
449.4329407574996
 30
0.0
 11
62.60219202143526
 21
439.5771393936097
 31
0.0
  0
LINE
  5
7DE0
330
1F
100
AcDbEntity
  8
0
100
AcDbLine
 10
62.60219202143526
 20
360.1409697555408
 30
0.0
 11
62.60219202143526
 21
365.1006664601997
 31
0.0
  0
LINE
  5
7DE1
330
1F
100
AcDbEntity
  8
0
100
AcDbLine
 10
62.60219202143526
 20
360.1409697555408
 30
0.0
 11
62.60219202143526
 21
370.1409697555408
 31
0.0
  0
LINE
  5
7DE2
330
1F
100
AcDbEntity
  8
0
100
AcDbLine
 10
62.60219202143526
 20
370.1409697555408
 30
0.0
 11
59.60219202143527
 21
370.1409697555408
 31
0.0
  0
ENDSEC
  0
SECTION
  2
OBJECTS
  0
DICTIONARY
  5
C
330
0
100
AcDbDictionary
281
     1
  3
ACAD_COLOR
350
76A6
  3
ACAD_GROUP
350
D
  3
ACAD_LAYOUT
350
1A
  3
ACAD_MATERIAL
350
7691
  3
ACAD_MLINESTYLE
350
17
  3
ACAD_PLOTSETTINGS
350
19
  3
ACAD_PLOTSTYLENAME
350
E
  3
ACAD_TABLESTYLE
350
76A7
  3
ACAD_VISUALSTYLE
350
7695
  3
ACDBHEADERROUNDTRIPXREC
350
7E04
  3
AcDbVariableDictionary
350
5F0E
  3
DWGPROPS
350
7E03
  0
DICTIONARY
  5
7A81
330
8
100
AcDbDictionary
280
     1
281
     1
  3
ACAD_XREC_ROUNDTRIP
360
7A82
  0
DICTIONARY
  5
7A83
330
10
100
AcDbDictionary
280
     1
281
     1
  3
ACAD_XREC_ROUNDTRIP
360
7A84
  0
DICTIONARY
  5
7AA5
330
76AD
100
AcDbDictionary
280
     1
281
     1
  3
ACAD_XREC_ROUNDTRIP
360
7AA6
  0
DICTIONARY
  5
7A67
330
1F
100
AcDbDictionary
280
     1
281
     1
  3
ACAD_SORTENTS
360
7A68
  0
DICTIONARY
  5
76A6
102
{ACAD_REACTORS
330
C
102
}
330
C
100
AcDbDictionary
281
     1
  0
DICTIONARY
  5
D
102
{ACAD_REACTORS
330
C
102
}
330
C
100
AcDbDictionary
281
     1
  0
DICTIONARY
  5
1A
102
{ACAD_REACTORS
330
C
102
}
330
C
100
AcDbDictionary
281
     1
  3
Layout1
350
1E
  3
Layout2
350
26
  3
Model
350
22
  0
DICTIONARY
  5
7691
102
{ACAD_REACTORS
330
C
102
}
330
C
100
AcDbDictionary
281
     1
  3
ByBlock
350
7693
  3
ByLayer
350
7692
  3
Global
350
7694
  0
DICTIONARY
  5
17
102
{ACAD_REACTORS
330
C
102
}
330
C
100
AcDbDictionary
281
     1
  3
Standard
350
18
  0
DICTIONARY
  5
19
102
{ACAD_REACTORS
330
C
102
}
330
C
100
AcDbDictionary
281
     1
  0
ACDBDICTIONARYWDFLT
  5
E
102
{ACAD_REACTORS
330
C
102
}
330
C
100
AcDbDictionary
281
     1
  3
Normal
350
F
100
AcDbDictionaryWithDefault
340
F
  0
DICTIONARY
  5
76A7
102
{ACAD_REACTORS
330
C
102
}
330
C
100
AcDbDictionary
281
     1
  3
Standard
350
76A8
  0
DICTIONARY
  5
7695
102
{ACAD_REACTORS
330
C
102
}
330
C
100
AcDbDictionary
281
     1
  3
2dWireframe
350
769B
  3
3D Hidden
350
769D
  3
3dWireframe
350
769C
  3
Basic
350
769A
  3
Brighten
350
76A1
  3
ColorChange
350
76A5
  3
Conceptual
350
769E
  3
Dim
350
76A0
  3
Facepattern
350
76A4
  3
Flat
350
7696
  3
FlatWithEdges
350
7697
  3
Gouraud
350
7698
  3
GouraudWithEdges
350
7699
  3
Linepattern
350
76A3
  3
Realistic
350
769F
  3
Thicken
350
76A2
  0
DICTIONARY
  5
7E04
102
{ACAD_REACTORS
330
C
102
}
330
C
100
AcDbDictionary
281
     1
  3
COLORDICT
350
7E06
  3
MATERIALDICT
350
7E05
  0
DICTIONARY
  5
5F0E
102
{ACAD_REACTORS
330
C
102
}
330
C
100
AcDbDictionary
281
     1
  3
CTABLESTYLE
350
76BA
  3
DIMASSOC
350
768C
  3
INDEXCTL
350
7AA7
  3
PROJECTNAME
350
7AAD
  3
SORTENTS
350
5F0F
  0
XRECORD
  5
7E03
102
{ACAD_REACTORS
330
C
102
}
330
C
100
AcDbXrecord
280
     1
  1
DWGPROPS COOKIE
  2

  3

  4

  6

  7

  8
Daniele B
  9

300
=
301
=
302
=
303
=
304
=
305
=
306
=
307
=
308
=
309
=
 40
6.832593715277777
 41
2453773.44152338
 42
2454425.412792419
  1

 90
        0
  0
XRECORD
  5
7A82
102
{ACAD_REACTORS
330
7A81
102
}
330
7A81
100
AcDbXrecord
280
     1
102
VTR_0.000_0.000_1.000_1.000_VISUALSTYLE
340
769B
102
VTR_0.000_0.000_1.000_1.000_GRIDDISPLAY
 70
     3
102
VTR_0.000_0.000_1.000_1.000_GRIDMAJOR
 70
     5
102
VTR_0.000_0.000_1.000_1.000_DEFAULTLIGHTING
280
     1
102
VTR_0.000_0.000_1.000_1.000_DEFAULTLIGHTINGTYPE
 70
     1
102
VTR_0.000_0.000_1.000_1.000_BRIGHTNESS
141
0.0
102
VTR_0.000_0.000_1.000_1.000_CONTRAST
142
0.0
  0
XRECORD
  5
7A84
102
{ACAD_REACTORS
330
7A83
102
}
330
7A83
100
AcDbXrecord
280
     1
102
MATERIAL
340
7694
  0
XRECORD
  5
7AA6
102
{ACAD_REACTORS
330
7AA5
102
}
330
7AA5
100
AcDbXrecord
280
     1
102
MATERIAL
340
7694
  0
SORTENTSTABLE
  5
7A68
102
{ACAD_REACTORS
330
7A67
102
}
330
7A67
100
AcDbSortentsTable
330
1F
331
77FA
  5
77FC
331
7839
  5
783B
331
7870
  5
7872
331
792D
  5
792F
331
7964
  5
7966
331
7878
  5
787A
331
78B7
  5
78B9
331
7802
  5
7804
331
7841
  5
7843
331
78EE
  5
78F0
331
79AB
  5
79AD
331
7935
  5
7937
331
796C
  5
796E
331
7880
  5
7882
331
78BF
  5
78C1
331
780A
  5
780C
331
7849
  5
784B
331
78F6
  5
78F8
331
79B3
  5
79B5
331
78FE
  5
7900
331
793D
  5
793F
331
7888
  5
788A
331
7812
  5
7814
331
78C7
  5
78C9
331
7974
  5
7976
331
797C
  5
797E
331
7906
  5
7908
331
770A
  5
770C
331
7749
  5
774B
331
77C5
  5
77C7
331
76DF
  5
76E1
331
7712
  5
7714
331
7751
  5
7753
331
7786
  5
7788
331
778E
  5
7790
331
77CD
  5
77CF
331
7759
  5
775B
331
771A
  5
771C
331
76E7
  5
76E9
331
7796
  5
7798
331
77D5
  5
77D7
331
7A60
  5
7A62
331
7722
  5
7724
331
76EF
  5
76F1
331
779E
  5
77A0
331
79B9
  5
79BB
331
79F8
  5
79FA
331
7A37
  5
7A39
331
79C1
  5
79C3
331
7A00
  5
7A02
331
7A08
  5
7A0A
331
7A3F
  5
7A41
331
79C9
  5
79CB
331
79D1
  5
79D3
331
7A10
  5
7A12
331
7A47
  5
7A49
331
781A
  5
781C
331
7851
  5
7853
331
7890
  5
7892
331
7A4F
  5
7A51
331
7945
  5
7947
331
78CF
  5
78D1
331
7822
  5
7824
331
7859
  5
785B
331
77E3
  5
77E5
331
7898
  5
789A
331
794D
  5
794F
331
798C
  5
798E
331
78A0
  5
78A2
331
78D7
  5
78D9
331
77EB
  5
77ED
331
782A
  5
782C
331
7861
  5
7863
331
7916
  5
7918
331
39A7
  5
39A7
331
791E
  5
7920
331
7955
  5
7957
331
7869
  5
786B
331
78A8
  5
78AA
331
77F3
  5
77F5
331
7832
  5
7834
331
78DF
  5
78E1
331
7994
  5
7996
331
78E7
  5
78E9
331
7926
  5
7928
331
795D
  5
795F
331
772A
  5
772C
331
76F3
  5
76F5
331
7732
  5
7734
331
7767
  5
7769
331
77A6
  5
77A8
331
77AE
  5
77B0
331
76C8
  5
76CA
331
76FB
  5
76FD
331
773A
  5
773C
331
776F
  5
7771
331
77B6
  5
77B8
331
76D0
  5
76D3
331
7703
  5
7705
331
7742
  5
7744
331
7777
  5
7779
331
777F
  5
7781
331
79D9
  5
79DB
331
7A18
  5
7A1A
331
7A57
  5
7A59
331
79E1
  5
79E3
331
7A20
  5
7A22
331
7A28
  5
7A2A
331
7A5F
  5
7A61
331
79E9
  5
79EB
331
7871
  5
7873
331
78B0
  5
78B2
331
77FB
  5
77FD
331
783A
  5
783C
331
79A4
  5
79A6
331
78EF
  5
78F1
331
792E
  5
7930
331
7842
  5
7844
331
7879
  5
787B
331
7803
  5
7805
331
78B8
  5
78BA
331
7965
  5
7967
331
796D
  5
796F
331
79AC
  5
79AE
331
78C0
  5
78C2
331
78F7
  5
78F9
331
780B
  5
780D
331
784A
  5
784C
331
7881
  5
7883
331
7936
  5
7938
331
793E
  5
7940
331
7975
  5
7977
331
7889
  5
788B
331
7813
  5
7815
331
78FF
  5
7901
331
79B4
  5
79B6
331
797D
  5
797F
331
7907
  5
7909
331
774A
  5
774C
331
770B
  5
770D
331
76D8
  5
76DA
331
76E0
  5
76E2
331
7752
  5
7754
331
7787
  5
7789
331
77C6
  5
77C8
331
7713
  5
7715
331
76E8
  5
76EA
331
771B
  5
771D
331
775A
  5
775C
331
778F
  5
7791
331
77CE
  5
77D0
331
77D6
  5
77D8
331
7A61
  5
7A63
331
7723
  5
7725
331
7797
  5
7799
331
779F
  5
77A1
331
7A30
  5
7A32
331
79BA
  5
79BC
331
79C2
  5
79C4
331
7A40
  5
7A42
331
79CA
  5
79CC
331
7A09
  5
7A0B
331
7A48
  5
7A4A
331
79D2
  5
79D4
331
7A11
  5
7A13
331
7891
  5
7893
331
78C8
  5
78CA
331
781B
  5
781D
331
7852
  5
7854
331
790F
  5
7911
331
7946
  5
7948
331
785A
  5
785C
331
7899
  5
789B
331
77E4
  5
77E6
331
7823
  5
7825
331
78D0
  5
78D2
331
78D8
  5
78DA
331
7917
  5
7919
331
782B
  5
782D
331
7862
  5
7864
331
77EC
  5
77EE
331
78A1
  5
78A3
331
794E
  5
7950
331
7956
  5
7958
331
7995
  5
7997
331
78E0
  5
78E2
331
791F
  5
7921
331
7833
  5
7835
331
786A
  5
786C
331
77F4
  5
77F6
331
78A9
  5
78AB
331
7927
  5
7929
331
772B
  5
772D
331
7760
  5
7762
331
77A7
  5
77AA
331
76C1
  5
76C1
331
76F4
  5
76F6
331
7733
  5
7735
331
7768
  5
776A
331
7770
  5
7772
331
77AF
  5
77B1
331
773B
  5
773D
331
76FC
  5
76FE
331
76C9
  5
76CB
331
7704
  5
7706
331
7743
  5
7745
331
7778
  5
777A
331
77B7
  5
77B9
331
77BF
  5
77C1
331
7A19
  5
7A1B
331
7A50
  5
7A52
331
79DA
  5
79DC
331
79E2
  5
79E4
331
7A21
  5
7A23
331
7A58
  5
7A5A
331
79EA
  5
79EC
331
7A29
  5
7A2B
331
78B1
  5
78B3
331
78E8
  5
78EA
331
77FC
  5
77FE
331
783B
  5
783D
331
7872
  5
7874
331
792F
  5
7931
331
7966
  5
7968
331
787A
  5
787C
331
78B9
  5
78BB
331
7804
  5
7806
331
7843
  5
7845
331
78F0
  5
78F2
331
79A5
  5
79A7
331
79AD
  5
79AF
331
78F8
  5
78FA
331
7937
  5
7939
331
7882
  5
7884
331
78C1
  5
78C3
331
796E
  5
7970
331
780C
  5
780E
331
784B
  5
784D
331
7900
  5
7902
331
788A
  5
788C
331
793F
  5
7941
331
7814
  5
7816
331
7976
  5
7978
331
797E
  5
7980
331
76D9
  5
76DB
331
770C
  5
770E
331
774B
  5
774D
331
7780
  5
7782
331
77C7
  5
77C9
331
76E1
  5
76E3
331
7714
  5
7716
331
7753
  5
7756
331
7788
  5
778A
331
775B
  5
775D
331
7790
  5
7792
331
77CF
  5
77D1
331
771C
  5
771E
331
7798
  5
779A
331
7A62
  5
7A64
331
77D7
  5
77D9
331
7724
  5
7726
331
79BB
  5
79BD
331
79FA
  5
79FC
331
7A39
  5
7A3B
331
79C3
  5
79C5
331
7A0A
  5
7A0C
331
7A41
  5
7A43
331
79CB
  5
79CD
331
79D3
  5
79D5
331
7A12
  5
7A14
331
7A49
  5
7A4B
331
78C9
  5
78CB
331
7908
  5
790A
331
781C
  5
781E
331
7853
  5
7855
331
77DD
  5
77DF
331
7892
  5
7894
331
7947
  5
7949
331
7986
  5
7988
331
789A
  5
789C
331
78D1
  5
78D3
331
7824
  5
7826
331
785B
  5
785D
331
7910
  5
7912
331
77E5
  5
77E7
331
39A1
  5
39A1
331
794F
  5
7951
331
798E
  5
7990
331
78A2
  5
78A4
331
78D9
  5
78DB
331
77ED
  5
77EF
331
782C
  5
782E
331
7863
  5
7865
331
7918
  5
791A
331
7920
  5
7922
331
7957
  5
7959
331
786B
  5
786D
331
77F5
  5
77F7
331
78AA
  5
78AC
331
78E1
  5
78E3
331
7996
  5
7998
331
799E
  5
79A0
331
772C
  5
772E
331
7761
  5
7763
331
77A0
  5
77A2
331
76C2
  5
76C3
331
76F5
  5
76F7
331
7734
  5
7736
331
7769
  5
776B
331
77A8
  5
77AB
331
77B0
  5
77B2
331
76CA
  5
76CC
331
773C
  5
773E
331
7771
  5
7773
331
77B8
  5
77BA
331
76D2
  5
76D4
331
7705
  5
7707
331
7744
  5
7746
331
7779
  5
777B
331
7A51
  5
7A53
331
79DB
  5
79DD
331
7A1A
  5
7A1C
331
7A59
  5
7A5B
331
79E3
  5
79E5
331
7A22
  5
7A24
331
7A2A
  5
7A2C
331
7A79
  5
7A65
331
79EB
  5
79ED
331
78E9
  5
78EB
331
7928
  5
792A
331
783C
  5
783E
331
7873
  5
7875
331
77FD
  5
77FF
331
78B2
  5
78B4
331
7967
  5
7969
331
78F1
  5
78F3
331
7930
  5
7932
331
7844
  5
7846
331
787B
  5
787D
331
7805
  5
7807
331
78BA
  5
78BC
331
796F
  5
7971
331
79AE
  5
79B0
331
78C2
  5
78C5
331
78F9
  5
78FB
331
780D
  5
780F
331
784C
  5
784E
331
7883
  5
7885
331
7938
  5
793A
331
7977
  5
7979
331
788B
  5
788D
331
7815
  5
7817
331
7901
  5
7903
331
79B6
  5
79B8
331
797F
  5
7981
331
77C0
  5
77C2
331
774C
  5
774E
331
770D
  5
770F
331
76DA
  5
76DC
331
7715
  5
7717
331
76E2
  5
76E4
331
7789
  5
778B
331
77C8
  5
77CA
331
77D0
  5
77D2
331
771D
  5
771F
331
775C
  5
775E
331
7A63
  5
7A69
331
7725
  5
7727
331
7799
  5
779B
331
79FB
  5
79FD
331
7A32
  5
7A34
331
79C4
  5
79C6
331
7A3A
  5
7A3C
331
7A42
  5
7A44
331
79CC
  5
79CE
331
7A0B
  5
7A0D
331
7A4A
  5
7A4C
331
79D4
  5
79D6
331
7A13
  5
7A15
331
7909
  5
790B
331
7940
  5
7942
331
7893
  5
7895
331
78CA
  5
78CC
331
77DE
  5
77E0
331
781D
  5
781F
331
7854
  5
7856
331
7911
  5
7913
331
7948
  5
794A
331
785C
  5
785E
331
789B
  5
789D
331
77E6
  5
77E8
331
7825
  5
7827
331
78D2
  5
78D4
331
7987
  5
7989
331
78DA
  5
78DC
331
7919
  5
791B
331
782D
  5
782F
331
7864
  5
7866
331
77EE
  5
77F0
331
78A3
  5
78A5
331
7950
  5
7952
331
39A2
  5
39A2
331
7958
  5
795A
331
7997
  5
7999
331
78AB
  5
78AD
331
78E2
  5
78E4
331
786C
  5
786E
331
7921
  5
7923
331
77F6
  5
77F8
331
799F
  5
79A1
331
77A1
  5
77A3
331
772D
  5
772F
331
7762
  5
7764
331
776A
  5
776C
331
76C3
  5
76C5
331
76F6
  5
76F8
331
7735
  5
7737
331
7772
  5
7774
331
77B1
  5
77B3
331
773D
  5
773F
331
76CB
  5
76CD
331
76D3
  5
76D5
331
7706
  5
7708
331
7745
  5
7747
331
777A
  5
777C
331
77B9
  5
77BB
331
7A1B
  5
7A1D
331
7A52
  5
7A54
331
79DC
  5
79DE
331
79E4
  5
79E6
331
7A23
  5
7A25
331
7A5A
  5
7A5C
331
7A7A
  5
76C2
331
79EC
  5
79EE
331
7A2B
  5
7A2D
331
78B3
  5
78B5
331
78EA
  5
78EC
331
77FE
  5
7800
331
783D
  5
783F
331
7874
  5
7876
331
7929
  5
792B
331
7931
  5
7933
331
7968
  5
796A
331
787C
  5
787E
331
78BB
  5
78BD
331
7845
  5
7847
331
78F2
  5
78F4
331
79A7
  5
79A9
331
79AF
  5
79B1
331
78FA
  5
78FC
331
7939
  5
793B
331
784D
  5
784F
331
7884
  5
7886
331
780E
  5
7810
331
78C3
  5
78C6
331
7970
  5
7972
331
7978
  5
797A
331
7902
  5
7904
331
79B7
  5
79B9
331
788C
  5
788E
331
7816
  5
7818
331
77C1
  5
77C3
331
770E
  5
7710
331
774D
  5
774F
331
77C9
  5
77CB
331
7716
  5
7718
331
76E3
  5
76E5
331
778A
  5
778C
331
7792
  5
7794
331
77D1
  5
77D3
331
775D
  5
775F
331
771E
  5
7720
331
76EB
  5
76ED
331
779A
  5
779C
331
7726
  5
7728
331
7A64
  5
7A78
331
7A33
  5
7A35
331
79BD
  5
79C0
331
79FC
  5
79FE
331
7A04
  5
7A06
331
79C5
  5
79C7
331
7A0C
  5
7A0E
331
7A43
  5
7A45
331
79CD
  5
79CF
331
7A14
  5
7A16
331
7A4B
  5
7A4D
331
7980
  5
7982
331
78CB
  5
78CD
331
781E
  5
7820
331
7855
  5
7857
331
77DF
  5
77E1
331
7894
  5
7896
331
7941
  5
7943
331
7949
  5
794B
331
7988
  5
798A
331
789C
  5
789E
331
78D3
  5
78D5
331
77E7
  5
77E9
331
7826
  5
7828
331
785D
  5
785F
331
7912
  5
7914
331
791A
  5
791C
331
7951
  5
7953
331
39A3
  5
39A3
331
78A4
  5
78A6
331
78DB
  5
78DD
331
77EF
  5
77F1
331
782E
  5
7830
331
7865
  5
7867
331
7922
  5
7924
331
7959
  5
795B
331
786D
  5
786F
331
78AC
  5
78AE
331
77F7
  5
77F9
331
7836
  5
7838
331
78E3
  5
78E5
331
7998
  5
799A
331
772E
  5
7730
331
7763
  5
7765
331
77A2
  5
77A4
331
76C4
  5
76C6
331
76F7
  5
76F9
331
7736
  5
7738
331
776B
  5
776D
331
77AA
  5
77AC
331
77B2
  5
77B4
331
76CC
  5
76CE
331
76FF
  5
7701
331
773E
  5
7740
331
7773
  5
7775
331
777B
  5
777D
331
77BA
  5
77BC
331
76D4
  5
76D6
331
7707
  5
7709
331
7746
  5
7748
331
7A53
  5
7A55
331
79DD
  5
79DF
331
7A5B
  5
7A5D
331
79E5
  5
79E7
331
7A2C
  5
7A2E
331
79A0
  5
79A2
331
78EB
  5
78ED
331
792A
  5
792C
331
783E
  5
7840
331
7875
  5
7877
331
77FF
  5
7801
331
78B4
  5
78B6
331
7969
  5
796B
331
78BC
  5
78BE
331
78F3
  5
78F5
331
7846
  5
7848
331
787D
  5
787F
331
7932
  5
7934
331
7971
  5
7973
331
79B0
  5
79B2
331
78FB
  5
78FD
331
780F
  5
7811
331
784E
  5
7850
331
7885
  5
7887
331
793A
  5
793C
331
7979
  5
797B
331
788D
  5
788F
331
7817
  5
7819
331
7903
  5
7905
331
774E
  5
7750
331
7783
  5
7785
331
77C2
  5
77C4
331
7717
  5
7719
331
76E4
  5
76E6
331
778B
  5
778D
331
77CA
  5
77CC
331
77D2
  5
77D4
331
76EC
  5
76EE
331
771F
  5
7721
331
775E
  5
7760
331
7793
  5
7795
331
7A65
  5
7A7A
331
7727
  5
7729
331
779B
  5
779D
331
79FD
  5
79FF
331
7A34
  5
7A36
331
79C6
  5
79C8
331
7A05
  5
7A07
331
7A3C
  5
7A3E
331
7A44
  5
7A46
331
79CE
  5
79D0
331
7A0D
  5
7A0F
331
77D8
  5
77DA
331
7A15
  5
7A17
331
7A4C
  5
7A4E
331
7942
  5
7944
331
7856
  5
7858
331
7895
  5
7897
331
77E0
  5
77E2
331
781F
  5
7821
331
78CC
  5
78CE
331
7981
  5
7983
331
7989
  5
798B
331
7913
  5
7915
331
794A
  5
794C
331
785E
  5
7860
331
789D
  5
789F
331
77E8
  5
77EA
331
7827
  5
7829
331
78D4
  5
78D6
331
39A4
  5
39A4
331
78DC
  5
78DE
331
791B
  5
791D
331
782F
  5
7831
331
7866
  5
7868
331
77F0
  5
77F2
331
78A5
  5
78A7
331
7952
  5
7954
331
795A
  5
795C
331
78AD
  5
78AF
331
78E4
  5
78E6
331
7837
  5
7839
331
786E
  5
7870
331
7923
  5
7925
331
76F0
  5
76F2
331
772F
  5
7731
331
7764
  5
7766
331
776C
  5
776E
331
77AB
  5
77AD
331
7737
  5
7739
331
76F8
  5
76FA
331
76C5
  5
76C7
331
7774
  5
7776
331
77B3
  5
77B5
331
773F
  5
7741
331
7700
  5
7702
331
76CD
  5
76CF
331
76D5
  5
76D7
331
7747
  5
7749
331
777C
  5
777E
331
77BB
  5
77BD
331
7A1D
  5
7A1F
331
7A54
  5
7A56
331
79DE
  5
79E0
331
79E6
  5
79E8
331
7A25
  5
7A27
331
7A5C
  5
7A5E
331
79EE
  5
79F0
331
7A2D
  5
7A2F
331
77F8
  5
77FA
331
79F6
  5
79F8
331
792B
  5
792D
331
78B5
  5
78B7
331
78EC
  5
78EE
331
7800
  5
7802
331
783F
  5
7841
331
7876
  5
7878
331
7933
  5
7935
331
796A
  5
796C
331
787E
  5
7880
331
78BD
  5
78BF
331
7808
  5
780A
331
7847
  5
7849
331
78F4
  5
78F6
331
79B1
  5
79B3
331
78FC
  5
78FE
331
793B
  5
793D
331
784F
  5
7851
331
7886
  5
7888
331
7810
  5
7812
331
78C5
  5
78C7
331
7972
  5
7974
331
797A
  5
797C
331
7904
  5
7906
331
788E
  5
7890
331
7708
  5
770A
331
77C3
  5
77C5
331
76DD
  5
76DF
331
7710
  5
7712
331
774F
  5
7751
331
7784
  5
7786
331
778C
  5
778E
331
77CB
  5
77CD
331
76E5
  5
76E7
331
7718
  5
771A
331
7757
  5
7759
331
7794
  5
7796
331
77D3
  5
77D5
331
775F
  5
7761
331
7720
  5
7722
331
76ED
  5
76EF
331
779C
  5
779E
331
79FE
  5
7A00
331
7A06
  5
7A08
331
7A3D
  5
7A3F
331
79C7
  5
79C9
331
7A0E
  5
7A10
331
7A45
  5
7A47
331
79CF
  5
79D1
331
77D9
  5
77DB
331
79D7
  5
79D9
331
7A16
  5
7A18
331
7A4D
  5
7A4F
331
7818
  5
781A
331
7982
  5
7984
331
78CD
  5
78CF
331
7820
  5
7822
331
7857
  5
7859
331
77E1
  5
77E3
331
7896
  5
7898
331
7943
  5
7945
331
794B
  5
794D
331
798A
  5
798C
331
789E
  5
78A0
331
78D5
  5
78D7
331
77E9
  5
77EB
331
7828
  5
782A
331
785F
  5
7861
331
7914
  5
7916
331
791C
  5
791E
331
7953
  5
7955
331
39A5
  5
39A5
331
7867
  5
7869
331
78A6
  5
78A8
331
77F1
  5
77F3
331
7830
  5
7832
331
78DD
  5
78DF
331
7924
  5
7926
331
795B
  5
795D
331
786F
  5
7871
331
78AE
  5
78B0
331
78E5
  5
78E7
331
7728
  5
772A
331
7730
  5
7732
331
7765
  5
7767
331
76F1
  5
76F3
331
76C6
  5
76C8
331
76F9
  5
76FB
331
7738
  5
773A
331
776D
  5
776F
331
77AC
  5
77AE
331
77B4
  5
77B6
331
76CE
  5
76D0
331
7701
  5
7703
331
7740
  5
7742
331
7775
  5
7777
331
777D
  5
777F
331
77BC
  5
77BE
331
76D6
  5
76D8
331
7A55
  5
7A57
331
7A5D
  5
7A5F
331
79E7
  5
79E9
331
7A2E
  5
7A30
331
79F7
  5
79F9
331
77F9
  5
77FB
331
7838
  5
783A
331
79A2
  5
79A4
331
78ED
  5
78EF
331
792C
  5
792E
331
7840
  5
7842
331
7877
  5
7879
331
7801
  5
7803
331
78B6
  5
78B8
331
7963
  5
7965
331
796B
  5
796D
331
78BE
  5
78C0
331
78F5
  5
78F7
331
7809
  5
780B
331
7848
  5
784A
331
787F
  5
7881
331
7934
  5
7936
331
793C
  5
793E
331
7973
  5
7975
331
78C6
  5
78C8
331
78FD
  5
78FF
331
79B2
  5
79B4
331
7811
  5
7813
331
7887
  5
7889
331
797B
  5
797D
331
788F
  5
7891
331
7905
  5
7907
331
7748
  5
774A
331
7709
  5
770B
331
7785
  5
7787
331
77C4
  5
77C6
331
7750
  5
7752
331
7711
  5
7713
331
76DE
  5
76E0
331
7719
  5
771B
331
7758
  5
775A
331
778D
  5
778F
331
77CC
  5
77CE
331
77D4
  5
77D6
331
7721
  5
7723
331
76EE
  5
76F0
331
7795
  5
7797
331
779D
  5
779F
331
79B8
  5
79BA
331
79C0
  5
79C2
331
79C8
  5
79CA
331
7A07
  5
7A09
331
7A3E
  5
7A40
331
7A46
  5
7A48
331
79D0
  5
79D2
331
7A0F
  5
7A11
331
77DA
  5
77DC
331
7A17
  5
7A19
331
7A4E
  5
7A50
331
7819
  5
781B
331
7850
  5
7852
331
7944
  5
7946
331
7858
  5
785A
331
7897
  5
7899
331
77E2
  5
77E4
331
7821
  5
7823
331
78CE
  5
78D0
331
798B
  5
798D
331
78D6
  5
78D8
331
7915
  5
7917
331
7860
  5
7862
331
789F
  5
78A1
331
794C
  5
794E
331
77EA
  5
77EC
331
7829
  5
782B
331
39A6
  5
39A6
331
7993
  5
7995
331
78DE
  5
78E0
331
791D
  5
791F
331
7831
  5
7833
331
7868
  5
786A
331
77F2
  5
77F4
331
78A7
  5
78A9
331
7954
  5
7956
331
795C
  5
795E
331
78AF
  5
78B1
331
78E6
  5
78E8
331
7925
  5
7927
331
7729
  5
772B
331
77A5
  5
77A7
331
76F2
  5
76F4
331
7731
  5
7733
331
7766
  5
7768
331
776E
  5
7770
331
77AD
  5
77AF
331
7739
  5
773B
331
76FA
  5
76FC
331
76C7
  5
76C9
331
76CF
  5
76D1
331
7741
  5
7743
331
7776
  5
7778
331
77B5
  5
77B7
331
7702
  5
7704
331
76D7
  5
76D9
331
777E
  5
7780
331
79D8
  5
79DA
331
7A1F
  5
7A21
331
7A56
  5
7A58
331
79E8
  5
79EA
331
7A5E
  5
7A60
  0
LAYOUT
  5
1E
102
{ACAD_XDICTIONARY
360
7E07
102
}
102
{ACAD_REACTORS
330
1A
102
}
330
1A
100
AcDbPlotSettings
  1

  2

  4

  6

 40
0.0
 41
0.0
 42
0.0
 43
0.0
 44
0.0
 45
0.0
 46
0.0
 47
0.0
 48
0.0
 49
0.0
140
0.0
141
0.0
142
1.0
143
1.0
 70
   688
 72
     0
 73
     0
 74
     5
  7

 75
    16
147
1.0
148
0.0
149
0.0
100
AcDbLayout
  1
Layout1
 70
     1
 71
     1
 10
0.0
 20
0.0
 11
420.0
 21
297.0
 12
0.0
 22
0.0
 32
0.0
 14
1.000000000000000E+20
 24
1.000000000000000E+20
 34
1.000000000000000E+20
 15
-1.000000000000000E+20
 25
-1.000000000000000E+20
 35
-1.000000000000000E+20
146
0.0
 13
0.0
 23
0.0
 33
0.0
 16
1.0
 26
0.0
 36
0.0
 17
0.0
 27
1.0
 37
0.0
 76
     0
330
1B
  0
LAYOUT
  5
26
102
{ACAD_XDICTIONARY
360
7E0B
102
}
102
{ACAD_REACTORS
330
1A
102
}
330
1A
100
AcDbPlotSettings
  1

  2

  4

  6

 40
0.0
 41
0.0
 42
0.0
 43
0.0
 44
0.0
 45
0.0
 46
0.0
 47
0.0
 48
0.0
 49
0.0
140
0.0
141
0.0
142
1.0
143
1.0
 70
   688
 72
     0
 73
     0
 74
     5
  7

 75
    16
147
1.0
148
0.0
149
0.0
100
AcDbLayout
  1
Layout2
 70
     1
 71
     2
 10
0.0
 20
0.0
 11
12.0
 21
9.0
 12
0.0
 22
0.0
 32
0.0
 14
0.0
 24
0.0
 34
0.0
 15
0.0
 25
0.0
 35
0.0
146
0.0
 13
0.0
 23
0.0
 33
0.0
 16
1.0
 26
0.0
 36
0.0
 17
0.0
 27
1.0
 37
0.0
 76
     0
330
23
  0
LAYOUT
  5
22
102
{ACAD_XDICTIONARY
360
7E09
102
}
102
{ACAD_REACTORS
330
1A
102
}
330
1A
100
AcDbPlotSettings
  1

  2
Canon PIXMA iP1500
  4
A4
  6

 40
4.180416584014891
 41
5.831418037414549
 42
4.180404663085936
 43
3.757080078125
 44
209.9733276367186
 45
296.9683227539062
 46
0.0
 47
0.0
 48
11528.96360592916
 49
2027.752051331327
140
11760.34449923632
141
2098.722005111305
142
1.0
143
1.0
 70
 11952
 72
     1
 73
     1
 74
     4
  7

 75
    16
147
1.0
148
-11528.96360592916
149
-2027.752051331327
100
AcDbLayout
  1
Model
 70
     1
 71
     0
 10
0.0
 20
0.0
 11
12.0
 21
9.0
 12
0.0
 22
0.0
 32
0.0
 14
0.0
 24
0.0
 34
0.0
 15
0.0
 25
0.0
 35
0.0
146
0.0
 13
0.0
 23
0.0
 33
0.0
 16
1.0
 26
0.0
 36
0.0
 17
0.0
 27
1.0
 37
0.0
 76
     0
330
1F
331
768F
  0
MATERIAL
  5
7693
330
7691
100
AcDbMaterial
  1
ByBlock
  0
MATERIAL
  5
7692
330
7691
100
AcDbMaterial
  1
ByLayer
  0
MATERIAL
  5
7694
330
7691
100
AcDbMaterial
  1
Global
  0
MLINESTYLE
  5
18
102
{ACAD_REACTORS
330
17
102
}
330
17
100
AcDbMlineStyle
  2
STANDARD
 70
     0
  3

 62
   256
 51
90.0
 52
90.0
 71
     2
 49
0.5
 62
   256
  6
BYLAYER
 49
-0.5
 62
   256
  6
BYLAYER
  0
ACDBPLACEHOLDER
  5
F
102
{ACAD_REACTORS
330
E
102
}
330
E
  0
ACAD_PROXY_OBJECT
  5
76A8
102
{ACAD_XDICTIONARY
360
7AA3
102
}
102
{ACAD_REACTORS
330
76A7
102
}
330
76A7
100
AcDbProxyObject
 90
      499
 91
      506
 95
   983063
 70
     0
 93
     1849
310
4254DD185B99185C990028000000000000F83F0000000000003E0FC00000000000004901028000000C1008070000C3001FDFF8000000C1003FBFF000000182007F7FE00000030400FEFFC00000060801FDFF8000000C1003FBFF000000182000000000000000C2020B0000001820100E000186003FBFF000000182007F7FE0
310
0000030400FEFFC00000060801FDFF8000000C1003FBFF000000182007F7FE0000003040000000000000012404160000003040201C00030C007F7FE00000030400FEFFC00000060801FDFF8000000C1003FBFF000000182007F7FE00000030400FEFFC000000608000
340
11
340
11
340
11
 94
        0
1001
ACAD
1000
AcRTDxfName
1000
TABLESTYLE
1000
AcRTDxfName
1000
TABLESTYLE
  0
ACAD_PROXY_OBJECT
  5
769B
102
{ACAD_REACTORS
330
7695
102
}
330
7695
100
AcDbProxyObject
 90
      499
 91
      505
 95
   983063
 70
     0
 93
      444
310
430C9915DA5C99599C985B59401049028333333333333E3BF0000000000000FB0107901411070040501600405405064090741402480A034A
 94
        0
1001
ACAD
1000
AcDbSavedByObjectVersion
1070
     0
1000
AcRTDxfName
1000
VISUALSTYLE
1000
AcRTDxfName
1000
VISUALSTYLE
  0
ACAD_PROXY_OBJECT
  5
769D
102
{ACAD_REACTORS
330
7695
102
}
330
7695
100
AcDbProxyObject
 90
      499
 91
      505
 95
   983063
 70
     0
 93
      508
310
428CD108121A5919195B8010640502408333333333333E3BF0000000000000FB01079024090700405020000000000001110200405405064090740C02480A0349
 94
        0
1001
ACAD
1000
AcDbSavedByObjectVersion
1070
     0
1000
AcRTDxfName
1000
VISUALSTYLE
1000
AcRTDxfName
1000
VISUALSTYLE
  0
ACAD_PROXY_OBJECT
  5
769C
102
{ACAD_REACTORS
330
7695
102
}
330
7695
100
AcDbProxyObject
 90
      499
 91
      505
 95
   983063
 70
     0
 93
      444
310
430CD915DA5C99599C985B59401059028333333333333E3BF0000000000000FB0107901411070040501600405405064090741402480A0349
 94
        0
1001
ACAD
1000
AcDbSavedByObjectVersion
1070
     0
1000
AcRTDxfName
1000
VISUALSTYLE
1000
AcRTDxfName
1000
VISUALSTYLE
  0
ACAD_PROXY_OBJECT
  5
769A
102
{ACAD_REACTORS
330
7695
102
}
330
7695
100
AcDbProxyObject
 90
      499
 91
      505
 95
   983063
 70
     0
 93
      396
310
4190985CDA58C0107406404333333333333E3BF0000000000000FB0107A41107004050150841D405064090741402480A0355
 94
        0
1001
ACAD
1000
AcDbSavedByObjectVersion
1070
     0
1000
AcRTDxfName
1000
VISUALSTYLE
1000
AcRTDxfName
1000
VISUALSTYLE
  0
ACAD_PROXY_OBJECT
  5
76A1
102
{ACAD_REACTORS
330
7695
102
}
330
7695
100
AcDbProxyObject
 90
      499
 91
      505
 95
   983063
 70
     0
 93
      436
310
42509C9A59DA1D195B8010C409028333333333333E3BF0000000000000FB010790141107004050150841D405064090741402480A029951
 94
        0
1001
ACAD
1000
AcDbSavedByObjectVersion
1070
     0
1000
AcRTDxfName
1000
VISUALSTYLE
1000
AcRTDxfName
1000
VISUALSTYLE
  0
ACAD_PROXY_OBJECT
  5
76A5
102
{ACAD_REACTORS
330
7695
102
}
330
7695
100
AcDbProxyObject
 90
      499
 91
      505
 95
   983063
 70
     0
 93
      460
310
4310DBDB1BDC90DA185B99D9401104090240C333333333333E3BF0000000000000FB0108901411070040501508421405064090741402480A0355
 94
        0
1001
ACAD
1000
AcDbSavedByObjectVersion
1070
     0
1000
AcRTDxfName
1000
VISUALSTYLE
1000
AcRTDxfName
1000
VISUALSTYLE
  0
ACAD_PROXY_OBJECT
  5
769E
102
{ACAD_REACTORS
330
7695
102
}
330
7695
100
AcDbProxyObject
 90
      499
 91
      505
 95
   983063
 70
     0
 93
      508
310
42D0DBDB98D95C1D1D585B0010940D028333333333333E3BF0000000000000FB0107902409070040501000000000000111010841D405064090740C02480A0349
 94
        0
1001
ACAD
1000
AcDbSavedByObjectVersion
1070
     0
1000
AcRTDxfName
1000
VISUALSTYLE
1000
AcRTDxfName
1000
VISUALSTYLE
  0
ACAD_PROXY_OBJECT
  5
76A0
102
{ACAD_REACTORS
330
7695
102
}
330
7695
100
AcDbProxyObject
 90
      499
 91
      505
 95
   983063
 70
     0
 93
      420
310
41111A5B4010B409028333333333333E3BF0000000000000FB010790141107004050150841D405064090741402480A02677FFFFFD1
 94
        0
1001
ACAD
1000
AcDbSavedByObjectVersion
1070
     0
1000
AcRTDxfName
1000
VISUALSTYLE
1000
AcRTDxfName
1000
VISUALSTYLE
  0
ACAD_PROXY_OBJECT
  5
76A4
102
{ACAD_REACTORS
330
7695
102
}
330
7695
100
AcDbProxyObject
 90
      499
 91
      505
 95
   983063
 70
     0
 93
      452
310
43119858D95C185D1D195C9B8010F409028333333333333E3BF0000000000000FB010790141107004050150841D405064090741402480A0359
 94
        0
1001
ACAD
1000
AcDbSavedByObjectVersion
1070
     0
1000
AcRTDxfName
1000
VISUALSTYLE
1000
AcRTDxfName
1000
VISUALSTYLE
  0
ACAD_PROXY_OBJECT
  5
7696
102
{ACAD_REACTORS
330
7695
102
}
330
7695
100
AcDbProxyObject
 90
      499
 91
      505
 95
   983063
 70
     0
 93
      396
310
41519B185D00240901404333333333333E3BF0000000000000F9010740A41107004050150841D405064090741402480A1B50
 94
        0
1001
ACAD
1000
AcDbSavedByObjectVersion
1070
     0
1000
AcRTDxfName
1000
VISUALSTYLE
1000
AcRTDxfName
1000
VISUALSTYLE
  0
ACAD_PROXY_OBJECT
  5
7697
102
{ACAD_REACTORS
330
7695
102
}
330
7695
100
AcDbProxyObject
 90
      499
 91
      505
 95
   983063
 70
     0
 93
      484
310
43919B185D15DA5D1A115919D95CC010140901404333333333333E3BF0000000000000F9010740901411070040501600405405064090741402480A1B50
 94
        0
1001
ACAD
1000
AcDbSavedByObjectVersion
1070
     0
1000
AcRTDxfName
1000
VISUALSTYLE
1000
AcRTDxfName
1000
VISUALSTYLE
  0
ACAD_PROXY_OBJECT
  5
7698
102
{ACAD_REACTORS
330
7695
102
}
330
7695
100
AcDbProxyObject
 90
      499
 91
      505
 95
   983063
 70
     0
 93
      420
310
4211DBDD5C985D590010240902404333333333333E3BF0000000000000F9010740A411070040501641D405064090741402480A1B51
 94
        0
1001
ACAD
1000
AcDbSavedByObjectVersion
1070
     0
1000
AcRTDxfName
1000
VISUALSTYLE
1000
AcRTDxfName
1000
VISUALSTYLE
  0
ACAD_PROXY_OBJECT
  5
7699
102
{ACAD_REACTORS
330
7695
102
}
330
7695
100
AcDbProxyObject
 90
      499
 91
      505
 95
   983063
 70
     0
 93
      508
310
4451DBDD5C985D5915DA5D1A115919D95CC010340902404333333333333E3BF0000000000000F9010740901411070040501600405405064090741402480A1B59
 94
        0
1001
ACAD
1000
AcDbSavedByObjectVersion
1070
     0
1000
AcRTDxfName
1000
VISUALSTYLE
1000
AcRTDxfName
1000
VISUALSTYLE
  0
ACAD_PROXY_OBJECT
  5
76A3
102
{ACAD_REACTORS
330
7695
102
}
330
7695
100
AcDbProxyObject
 90
      499
 91
      505
 95
   983063
 70
     0
 93
      452
310
43131A5B995C185D1D195C9B8010E409028333333333333E3BF0000000000000FB010790141107004050750841D405064090741402483A0359
 94
        0
1001
ACAD
1000
AcDbSavedByObjectVersion
1070
     0
1000
AcRTDxfName
1000
VISUALSTYLE
1000
AcRTDxfName
1000
VISUALSTYLE
  0
ACAD_PROXY_OBJECT
  5
769F
102
{ACAD_REACTORS
330
7695
102
}
330
7695
100
AcDbProxyObject
 90
      499
 91
      505
 95
   983063
 70
     0
 93
      428
310
429499585B1A5CDD1A58C0108409028333333333333E3BF0000000000000FB01079019070040501508421405064090741402480A1B41
 94
        0
1001
ACAD
1000
AcDbSavedByObjectVersion
1070
     0
1000
AcRTDxfName
1000
VISUALSTYLE
1000
AcRTDxfName
1000
VISUALSTYLE
  0
ACAD_PROXY_OBJECT
  5
76A2
102
{ACAD_REACTORS
330
7695
102
}
330
7695
100
AcDbProxyObject
 90
      499
 91
      505
 95
   983063
 70
     0
 93
      420
310
42151A1A58DAD95B8010D409028333333333333E3BF0000000000000FB010790141107004050150C41D405064090741402480A0351
 94
        0
1001
ACAD
1000
AcDbSavedByObjectVersion
1070
     0
1000
AcRTDxfName
1000
VISUALSTYLE
1000
AcRTDxfName
1000
VISUALSTYLE
  0
XRECORD
  5
7E06
102
{ACAD_REACTORS
330
7E04
102
}
330
7E04
100
AcDbXrecord
280
     1
340
76A6
  0
XRECORD
  5
7E05
102
{ACAD_REACTORS
330
7E04
102
}
330
7E04
100
AcDbXrecord
280
     1
340
7691
  0
DICTIONARYVAR
  5
76BA
102
{ACAD_REACTORS
330
5F0E
102
}
330
5F0E
100
DictionaryVariables
280
     0
  1
STANDARD
  0
DICTIONARYVAR
  5
768C
102
{ACAD_REACTORS
330
5F0E
102
}
330
5F0E
100
DictionaryVariables
280
     0
  1
1
  0
DICTIONARYVAR
  5
7AA7
102
{ACAD_REACTORS
330
5F0E
102
}
330
5F0E
100
DictionaryVariables
280
     0
  1
0
  0
DICTIONARYVAR
  5
7AAD
102
{ACAD_REACTORS
330
5F0E
102
}
330
5F0E
100
DictionaryVariables
280
     0
  1

  0
DICTIONARYVAR
  5
5F0F
102
{ACAD_REACTORS
330
5F0E
102
}
330
5F0E
100
DictionaryVariables
280
     0
  1
96
  0
DICTIONARY
  5
7E07
330
1E
100
AcDbDictionary
280
     1
281
     1
  3
ACAD_XREC_ROUNDTRIP
360
7E08
  0
DICTIONARY
  5
7E0B
330
26
100
AcDbDictionary
280
     1
281
     1
  3
ACAD_XREC_ROUNDTRIP
360
7E0C
  0
DICTIONARY
  5
7E09
330
22
100
AcDbDictionary
280
     1
281
     1
  3
ACAD_XREC_ROUNDTRIP
360
7E0A
  0
DICTIONARY
  5
7AA3
330
76A8
100
AcDbDictionary
280
     1
281
     1
  3
ACAD_XREC_ROUNDTRIP
360
7AA4
  0
XRECORD
  5
7E08
102
{ACAD_REACTORS
330
7E07
102
}
330
7E07
100
AcDbXrecord
280
     1
102
SHADEPLOT
 70
     0
102
SHADEPLOTRESLEVEL
 70
     2
102
SHADEPLOTCUSTOMDPI
 70
   300
  0
XRECORD
  5
7E0C
102
{ACAD_REACTORS
330
7E0B
102
}
330
7E0B
100
AcDbXrecord
280
     1
102
SHADEPLOT
 70
     0
102
SHADEPLOTRESLEVEL
 70
     2
102
SHADEPLOTCUSTOMDPI
 70
   300
  0
XRECORD
  5
7E0A
102
{ACAD_REACTORS
330
7E09
102
}
330
7E09
100
AcDbXrecord
280
     1
102
SHADEPLOT
 70
     0
102
SHADEPLOTRESLEVEL
 70
     2
102
SHADEPLOTCUSTOMDPI
 70
   300
  0
XRECORD
  5
7AA4
102
{ACAD_REACTORS
330
7AA3
102
}
330
7AA3
100
AcDbXrecord
280
     1
102
ACAD_ROUNDTRIP_PRE2007_TABLESTYLE
 90
      512
 91
        0
  1

 92
      512
 93
        0
  2

 94
      512
 95
        0
  3

  0
ENDSEC
  0
EOF
