  0
SECTION
  2
HEADER
  9
$ACADVER
  1
AC1015
  9
$ACADMAINTVER
 70
    20
  9
$DWGCODEPAGE
  3
ANSI_1252
  9
$INSBASE
 10
0.0
 20
0.0
 30
0.0
  9
$EXTMIN
 10
-2549.648596566251
 20
1023.580513010284
 30
0.0
  9
$EXTMAX
 10
-828.2820523125447
 20
2202.316053677424
 30
0.0
  9
$LIMMIN
 10
-2726.650858914921
 20
956.0689685798033
  9
$LIMMAX
 10
-494.7457785033211
 20
2284.543234745617
  9
$ORTHOMODE
 70
     0
  9
$REGENMODE
 70
     1
  9
$FILLMODE
 70
     1
  9
$QTEXTMODE
 70
     0
  9
$MIRRTEXT
 70
     1
  9
$LTSCALE
 40
5.0
  9
$ATTMODE
 70
     1
  9
$TEXTSIZE
 40
2.5
  9
$TRACEWID
 40
1.0
  9
$TEXTSTYLE
  7
STANDARD
  9
$CLAYER
  8
0
  9
$CELTYPE
  6
BYLAYER
  9
$CECOLOR
 62
   256
  9
$CELTSCALE
 40
1.0
  9
$DISPSILH
 70
     0
  9
$DIMSCALE
 40
0.0
  9
$DIMASZ
 40
2.5
  9
$DIMEXO
 40
0.625
  9
$DIMDLI
 40
3.75
  9
$DIMRND
 40
0.0
  9
$DIMDLE
 40
0.0
  9
$DIMEXE
 40
1.25
  9
$DIMTP
 40
0.0
  9
$DIMTM
 40
0.0
  9
$DIMTXT
 40
5.0
  9
$DIMCEN
 40
2.5
  9
$DIMTSZ
 40
0.0
  9
$DIMTOL
 70
     0
  9
$DIMLIM
 70
     0
  9
$DIMTIH
 70
     0
  9
$DIMTOH
 70
     0
  9
$DIMSE1
 70
     0
  9
$DIMSE2
 70
     0
  9
$DIMTAD
 70
     1
  9
$DIMZIN
 70
     8
  9
$DIMBLK
  1

  9
$DIMASO
 70
     1
  9
$DIMSHO
 70
     1
  9
$DIMPOST
  1

  9
$DIMAPOST
  1

  9
$DIMALT
 70
     0
  9
$DIMALTD
 70
     4
  9
$DIMALTF
 40
0.0394
  9
$DIMLFAC
 40
1.0
  9
$DIMTOFL
 70
     1
  9
$DIMTVP
 40
0.0
  9
$DIMTIX
 70
     0
  9
$DIMSOXD
 70
     0
  9
$DIMSAH
 70
     0
  9
$DIMBLK1
  1

  9
$DIMBLK2
  1

  9
$DIMSTYLE
  2
STANDARD
  9
$DIMCLRD
 70
     0
  9
$DIMCLRE
 70
     0
  9
$DIMCLRT
 70
     0
  9
$DIMTFAC
 40
1.0
  9
$DIMGAP
 40
0.625
  9
$DIMJUST
 70
     0
  9
$DIMSD1
 70
     0
  9
$DIMSD2
 70
     0
  9
$DIMTOLJ
 70
     1
  9
$DIMTZIN
 70
     0
  9
$DIMALTZ
 70
     0
  9
$DIMALTTZ
 70
     0
  9
$DIMUPT
 70
     0
  9
$DIMDEC
 70
     4
  9
$DIMTDEC
 70
     4
  9
$DIMALTU
 70
     8
  9
$DIMALTTD
 70
     4
  9
$DIMTXSTY
  7
STANDARD
  9
$DIMAUNIT
 70
     0
  9
$DIMADEC
 70
     0
  9
$DIMALTRND
 40
0.0
  9
$DIMAZIN
 70
     0
  9
$DIMDSEP
 70
    46
  9
$DIMATFIT
 70
     3
  9
$DIMFRAC
 70
     0
  9
$DIMLDRBLK
  1

  9
$DIMLUNIT
 70
     6
  9
$DIMLWD
 70
    -2
  9
$DIMLWE
 70
    -2
  9
$DIMTMOVE
 70
     0
  9
$LUNITS
 70
     2
  9
$LUPREC
 70
     2
  9
$SKETCHINC
 40
1.0
  9
$FILLETRAD
 40
25.0
  9
$AUNITS
 70
     0
  9
$AUPREC
 70
     1
  9
$MENU
  1
.
  9
$ELEVATION
 40
0.0
  9
$PELEVATION
 40
0.0
  9
$THICKNESS
 40
0.0
  9
$LIMCHECK
 70
     0
  9
$CHAMFERA
 40
10.0
  9
$CHAMFERB
 40
10.0
  9
$CHAMFERC
 40
20.0
  9
$CHAMFERD
 40
0.0
  9
$SKPOLY
 70
     0
  9
$TDCREATE
 40
2451906.681546528
  9
$TDUCREATE
 40
2451906.639879861
  9
$TDUPDATE
 40
2456744.574469213
  9
$TDUUPDATE
 40
2456744.532802547
  9
$TDINDWG
 40
0.6341465278
  9
$TDUSRTIMER
 40
0.6341465278
  9
$USRTIMER
 70
     1
  9
$ANGBASE
 50
0.0
  9
$ANGDIR
 70
     0
  9
$PDMODE
 70
     0
  9
$PDSIZE
 40
0.0
  9
$PLINEWID
 40
0.0
  9
$SPLFRAME
 70
     0
  9
$SPLINETYPE
 70
     6
  9
$SPLINESEGS
 70
     8
  9
$HANDSEED
  5
DC4D
  9
$SURFTAB1
 70
     6
  9
$SURFTAB2
 70
     6
  9
$SURFTYPE
 70
     6
  9
$SURFU
 70
     6
  9
$SURFV
 70
     6
  9
$UCSBASE
  2

  9
$UCSNAME
  2

  9
$UCSORG
 10
0.0
 20
0.0
 30
0.0
  9
$UCSXDIR
 10
1.0
 20
0.0
 30
0.0
  9
$UCSYDIR
 10
0.0
 20
1.0
 30
0.0
  9
$UCSORTHOREF
  2

  9
$UCSORTHOVIEW
 70
     0
  9
$UCSORGTOP
 10
0.0
 20
0.0
 30
0.0
  9
$UCSORGBOTTOM
 10
0.0
 20
0.0
 30
0.0
  9
$UCSORGLEFT
 10
0.0
 20
0.0
 30
0.0
  9
$UCSORGRIGHT
 10
0.0
 20
0.0
 30
0.0
  9
$UCSORGFRONT
 10
0.0
 20
0.0
 30
0.0
  9
$UCSORGBACK
 10
0.0
 20
0.0
 30
0.0
  9
$PUCSBASE
  2

  9
$PUCSNAME
  2

  9
$PUCSORG
 10
0.0
 20
0.0
 30
0.0
  9
$PUCSXDIR
 10
1.0
 20
0.0
 30
0.0
  9
$PUCSYDIR
 10
0.0
 20
1.0
 30
0.0
  9
$PUCSORTHOREF
  2

  9
$PUCSORTHOVIEW
 70
     0
  9
$PUCSORGTOP
 10
0.0
 20
0.0
 30
0.0
  9
$PUCSORGBOTTOM
 10
0.0
 20
0.0
 30
0.0
  9
$PUCSORGLEFT
 10
0.0
 20
0.0
 30
0.0
  9
$PUCSORGRIGHT
 10
0.0
 20
0.0
 30
0.0
  9
$PUCSORGFRONT
 10
0.0
 20
0.0
 30
0.0
  9
$PUCSORGBACK
 10
0.0
 20
0.0
 30
0.0
  9
$USERI1
 70
     0
  9
$USERI2
 70
     0
  9
$USERI3
 70
     0
  9
$USERI4
 70
     0
  9
$USERI5
 70
     0
  9
$USERR1
 40
0.0
  9
$USERR2
 40
0.0
  9
$USERR3
 40
0.0
  9
$USERR4
 40
0.0
  9
$USERR5
 40
0.0
  9
$WORLDVIEW
 70
     1
  9
$SHADEDGE
 70
     3
  9
$SHADEDIF
 70
    70
  9
$TILEMODE
 70
     1
  9
$MAXACTVP
 70
    48
  9
$PINSBASE
 10
0.0
 20
0.0
 30
0.0
  9
$PLIMCHECK
 70
     0
  9
$PEXTMIN
 10
1.000000000000000E+20
 20
1.000000000000000E+20
 30
1.000000000000000E+20
  9
$PEXTMAX
 10
-1.000000000000000E+20
 20
-1.000000000000000E+20
 30
-1.000000000000000E+20
  9
$PLIMMIN
 10
0.0
 20
0.0
  9
$PLIMMAX
 10
420.0
 20
297.0
  9
$UNITMODE
 70
     0
  9
$VISRETAIN
 70
     1
  9
$PLINEGEN
 70
     0
  9
$PSLTSCALE
 70
     1
  9
$TREEDEPTH
 70
  3020
  9
$CMLSTYLE
  2
STANDARD
  9
$CMLJUST
 70
     0
  9
$CMLSCALE
 40
20.0
  9
$PROXYGRAPHICS
 70
     1
  9
$MEASUREMENT
 70
     0
  9
$CELWEIGHT
370
    -1
  9
$ENDCAPS
280
     0
  9
$JOINSTYLE
280
     0
  9
$LWDISPLAY
290
     0
  9
$INSUNITS
 70
     0
  9
$HYPERLINKBASE
  1

  9
$STYLESHEET
  1

  9
$XEDIT
290
     1
  9
$CEPSNTYPE
380
     0
  9
$PSTYLEMODE
290
     1
  9
$FINGERPRINTGUID
  2
{CCBAFF2A-4AA7-4C1D-801E-9B3ACCCF964C}
  9
$VERSIONGUID
  2
{1D72AD6C-7C68-4456-9605-831C2F55B16F}
  9
$EXTNAMES
290
     1
  9
$PSVPSCALE
 40
0.0
  9
$OLESTARTUP
290
     0
  0
ENDSEC
  0
SECTION
  2
CLASSES
  0
CLASS
  1
RASTERVARIABLES
  2
AcDbRasterVariables
  3
ISM
 90
        0
280
     0
281
     0
  0
CLASS
  1
IMAGEDEF
  2
AcDbRasterImageDef
  3
ISM
 90
        0
280
     0
281
     0
  0
CLASS
  1
IMAGEDEF_REACTOR
  2
AcDbRasterImageDefReactor
  3
ISM
 90
    32769
280
     0
281
     0
  0
CLASS
  1
IMAGE
  2
AcDbRasterImage
  3
ISM
 90
    32895
280
     0
281
     1
  0
CLASS
  1
IDBUFFER
  2
AcDbIdBuffer
  3
ObjectDBX Classes
 90
        0
280
     0
281
     0
  0
CLASS
  1
DICTIONARYVAR
  2
AcDbDictionaryVar
  3
ObjectDBX Classes
 90
        0
280
     0
281
     0
  0
CLASS
  1
ACDBDICTIONARYWDFLT
  2
AcDbDictionaryWithDefault
  3
ObjectDBX Classes
 90
        0
280
     0
281
     0
  0
CLASS
  1
ACDBPLACEHOLDER
  2
AcDbPlaceHolder
  3
ObjectDBX Classes
 90
        0
280
     0
281
     0
  0
CLASS
  1
LAYOUT
  2
AcDbLayout
  3
ObjectDBX Classes
 90
        0
280
     0
281
     0
  0
ENDSEC
  0
SECTION
  2
TABLES
  0
TABLE
  2
VPORT
  5
8
330
0
100
AcDbSymbolTable
 70
     3
  0
VPORT
  5
DC45
330
8
100
AcDbSymbolTableRecord
100
AcDbViewportTableRecord
  2
*Active
 70
     0
 10
0.0
 20
0.0
 11
1.0
 21
1.0
 12
-2439.838418341055
 22
1542.82456243672
 13
0.0
 23
0.0
 14
10.0
 24
10.0
 15
10.0
 25
10.0
 16
0.0
 26
0.0
 36
1.0
 17
0.0
 27
0.0
 37
0.0
 40
187.4952534607756
 41
2.241758241758241
 42
50.0
 43
0.0
 44
0.0
 50
0.0
 51
0.0
 71
     0
 72
   100
 73
     1
 74
     0
 75
     0
 76
     0
 77
     0
 78
     0
281
     0
 65
     1
110
0.0
120
0.0
130
0.0
111
1.0
121
0.0
131
0.0
112
0.0
122
1.0
132
0.0
 79
     0
146
0.0
  0
ENDTAB
  0
TABLE
  2
LTYPE
  5
5
330
0
100
AcDbSymbolTable
 70
    12
  0
LTYPE
  5
12
330
5
100
AcDbSymbolTableRecord
100
AcDbLinetypeTableRecord
  2
BYBLOCK
 70
     0
  3

 72
    65
 73
     0
 40
0.0
  0
LTYPE
  5
13
330
5
100
AcDbSymbolTableRecord
100
AcDbLinetypeTableRecord
  2
BYLAYER
 70
     0
  3

 72
    65
 73
     0
 40
0.0
  0
LTYPE
  5
14
330
5
100
AcDbSymbolTableRecord
100
AcDbLinetypeTableRecord
  2
CONTINUOUS
 70
     0
  3
Solid line
 72
    65
 73
     0
 40
0.0
  0
LTYPE
  5
106
330
5
100
AcDbSymbolTableRecord
100
AcDbLinetypeTableRecord
  2
DASHED
 70
     0
  3
__ __ __ __ __ __ __ __ __ __ __ __ __ __ __
 72
    65
 73
     2
 40
0.75
 49
0.5
 74
     0
 49
-0.25
 74
     0
  0
LTYPE
  5
107
330
5
100
AcDbSymbolTableRecord
100
AcDbLinetypeTableRecord
  2
HIDDEN
 70
     0
  3
_ _ _ _ _ _ _ _ _ _ _ _ _ _ _ _ _ _ _ _ _ _ 
 72
    65
 73
     2
 40
0.25
 49
0.125
 74
     0
 49
-0.125
 74
     0
  0
LTYPE
  5
108
330
5
100
AcDbSymbolTableRecord
100
AcDbLinetypeTableRecord
  2
CENTER
 70
     0
  3
____ _ ____ _ ____ _ ____ _ ____ _ ____ _ __
 72
    65
 73
     4
 40
2.0
 49
1.25
 74
     0
 49
-0.25
 74
     0
 49
0.25
 74
     0
 49
-0.25
 74
     0
  0
LTYPE
  5
109
330
5
100
AcDbSymbolTableRecord
100
AcDbLinetypeTableRecord
  2
PHANTOM
 70
     0
  3
_____ _ _ _____ _ _ _____ _ _ _____ _ _ ____
 72
    65
 73
     6
 40
2.5
 49
1.25
 74
     0
 49
-0.25
 74
     0
 49
0.25
 74
     0
 49
-0.25
 74
     0
 49
0.25
 74
     0
 49
-0.25
 74
     0
  0
LTYPE
  5
10A
330
5
100
AcDbSymbolTableRecord
100
AcDbLinetypeTableRecord
  2
DOT
 70
     0
  3
............................................
 72
    65
 73
     2
 40
0.25
 49
0.0
 74
     0
 49
-0.25
 74
     0
  0
LTYPE
  5
10B
330
5
100
AcDbSymbolTableRecord
100
AcDbLinetypeTableRecord
  2
DASHDOT
 70
     0
  3
__ . __ . __ . __ . __ . __ . __ . __ . __ .
 72
    65
 73
     4
 40
1.0
 49
0.5
 74
     0
 49
-0.25
 74
     0
 49
0.0
 74
     0
 49
-0.25
 74
     0
  0
LTYPE
  5
10C
330
5
100
AcDbSymbolTableRecord
100
AcDbLinetypeTableRecord
  2
BORDER
 70
     0
  3
__ __ . __ __ . __ __ . __ __ . __ __ . __ _
 72
    65
 73
     6
 40
1.75
 49
0.5
 74
     0
 49
-0.25
 74
     0
 49
0.5
 74
     0
 49
-0.25
 74
     0
 49
0.0
 74
     0
 49
-0.25
 74
     0
  0
LTYPE
  5
10D
330
5
100
AcDbSymbolTableRecord
100
AcDbLinetypeTableRecord
  2
DIVIDE
 70
     0
  3
__ . . __ . . __ . . __ . . __ . . __ . . __
 72
    65
 73
     6
 40
1.25
 49
0.5
 74
     0
 49
-0.25
 74
     0
 49
0.0
 74
     0
 49
-0.25
 74
     0
 49
0.0
 74
     0
 49
-0.25
 74
     0
  0
LTYPE
  5
10E
330
5
100
AcDbSymbolTableRecord
100
AcDbLinetypeTableRecord
  2
DOTS
 70
     0
  3
close                                       
 72
    65
 73
     2
 40
0.1
 49
0.05
 74
     0
 49
-0.05
 74
     0
  0
LTYPE
  5
10F
330
5
100
AcDbSymbolTableRecord
100
AcDbLinetypeTableRecord
  2
CLOSE
 70
     0
  3
                                            
 72
    65
 73
     0
 40
0.0
  0
LTYPE
  5
244A
330
5
100
AcDbSymbolTableRecord
100
AcDbLinetypeTableRecord
  2
ACAD_ISO02W100
 70
     0
  3
tratteggiata ISO __ __ __ __ __ __ __ __ __ __ 
 72
    65
 73
     2
 40
15.0
 49
12.0
 74
     0
 49
-3.0
 74
     0
  0
ENDTAB
  0
TABLE
  2
LAYER
  5
2
330
0
100
AcDbSymbolTable
 70
    15
  0
LAYER
  5
E
330
2
100
AcDbSymbolTableRecord
100
AcDbLayerTableRecord
  2
0
 70
     0
 62
     7
  6
CONTINUOUS
370
    -3
390
DC16
  0
LAYER
  5
110
330
2
100
AcDbSymbolTableRecord
100
AcDbLayerTableRecord
  2
LAYER01
 70
     0
 62
     7
  6
CONTINUOUS
370
    -3
390
DC16
  0
LAYER
  5
111
330
2
100
AcDbSymbolTableRecord
100
AcDbLayerTableRecord
  2
LAYER02
 70
     0
 62
     7
  6
CONTINUOUS
370
    -3
390
DC16
  0
LAYER
  5
112
330
2
100
AcDbSymbolTableRecord
100
AcDbLayerTableRecord
  2
LAYER03
 70
     0
 62
     7
  6
CONTINUOUS
370
    -3
390
DC16
  0
LAYER
  5
113
330
2
100
AcDbSymbolTableRecord
100
AcDbLayerTableRecord
  2
LAYER04
 70
     0
 62
     7
  6
CONTINUOUS
370
    -3
390
DC16
  0
LAYER
  5
114
330
2
100
AcDbSymbolTableRecord
100
AcDbLayerTableRecord
  2
LAYER05
 70
     0
 62
     7
  6
CONTINUOUS
370
    -3
390
DC16
  0
LAYER
  5
115
330
2
100
AcDbSymbolTableRecord
100
AcDbLayerTableRecord
  2
LAYER06
 70
     0
 62
     7
  6
CONTINUOUS
370
    -3
390
DC16
  0
LAYER
  5
116
330
2
100
AcDbSymbolTableRecord
100
AcDbLayerTableRecord
  2
LAYER07
 70
     0
 62
     7
  6
CONTINUOUS
370
    -3
390
DC16
  0
LAYER
  5
117
330
2
100
AcDbSymbolTableRecord
100
AcDbLayerTableRecord
  2
LAYER08
 70
     0
 62
     7
  6
CONTINUOUS
370
    -3
390
DC16
  0
LAYER
  5
118
330
2
100
AcDbSymbolTableRecord
100
AcDbLayerTableRecord
  2
LAYER09
 70
     0
 62
     7
  6
CONTINUOUS
370
    -3
390
DC16
  0
LAYER
  5
119
330
2
100
AcDbSymbolTableRecord
100
AcDbLayerTableRecord
  2
LAYER10
 70
     0
 62
     7
  6
CONTINUOUS
370
    -3
390
DC16
  0
LAYER
  5
11A
330
2
100
AcDbSymbolTableRecord
100
AcDbLayerTableRecord
  2
7
 70
     0
 62
     7
  6
CONTINUOUS
370
    -3
390
DC16
  0
LAYER
  5
B0D
330
2
100
AcDbSymbolTableRecord
100
AcDbLayerTableRecord
  2
DEFPOINTS
 70
     0
 62
    -7
  6
CONTINUOUS
290
     0
370
    -3
390
DC16
  0
LAYER
  5
BFCC
330
2
100
AcDbSymbolTableRecord
100
AcDbLayerTableRecord
  2
RIPASSO
 70
     0
 62
     7
  6
CONTINUOUS
370
    -3
390
DC16
  0
ENDTAB
  0
TABLE
  2
STYLE
  5
3
330
0
100
AcDbSymbolTable
 70
     2
  0
STYLE
  5
F
330
3
100
AcDbSymbolTableRecord
100
AcDbTextStyleTableRecord
  2
STANDARD
 70
     0
 40
0.0
 41
1.0
 50
0.0
 71
     0
 42
2.5
  3
txt
  4

  0
STYLE
  5
2449
330
3
100
AcDbSymbolTableRecord
100
AcDbTextStyleTableRecord
  2

 70
     1
 40
0.0
 41
1.0
 50
0.0
 71
     0
 42
2.5
  3
ltypeshp.shx
  4

  0
ENDTAB
  0
TABLE
  2
VIEW
  5
6
330
0
100
AcDbSymbolTable
 70
     0
  0
ENDTAB
  0
TABLE
  2
UCS
  5
7
330
0
100
AcDbSymbolTable
 70
     0
  0
ENDTAB
  0
TABLE
  2
APPID
  5
9
330
0
100
AcDbSymbolTable
 70
     1
  0
APPID
  5
10
330
9
100
AcDbSymbolTableRecord
100
AcDbRegAppTableRecord
  2
ACAD
 70
     0
  0
ENDTAB
  0
TABLE
  2
DIMSTYLE
  5
A
330
0
100
AcDbSymbolTable
 70
     1
100
AcDbDimStyleTable
 71
     0
  0
DIMSTYLE
105
1D
330
A
100
AcDbSymbolTableRecord
100
AcDbDimStyleTableRecord
  2
STANDARD
 70
     0
 40
0.0
 41
2.5
 42
0.625
 43
3.75
 44
1.25
 73
     0
 74
     0
 77
     1
 78
     8
140
5.0
141
2.5
143
0.0394
147
0.625
171
     4
172
     1
273
     8
274
     4
277
     6
340
F
  0
ENDTAB
  0
TABLE
  2
BLOCK_RECORD
  5
1
330
0
100
AcDbSymbolTable
 70
    18
  0
BLOCK_RECORD
  5
18
330
1
100
AcDbSymbolTableRecord
100
AcDbBlockTableRecord
  2
*MODEL_SPACE
340
DC1B
  0
BLOCK_RECORD
  5
15
330
1
100
AcDbSymbolTableRecord
100
AcDbBlockTableRecord
  2
*PAPER_SPACE
340
DC1C
  0
BLOCK_RECORD
  5
B4F
102
{ACAD_XDICTIONARY
360
B54
102
}
330
1
100
AcDbSymbolTableRecord
100
AcDbBlockTableRecord
  2
XRIF2
340
0
102
{BLKREFS
331
13B7
102
}
  0
BLOCK_RECORD
  5
1366
330
1
100
AcDbSymbolTableRecord
100
AcDbBlockTableRecord
  2
A$C62911543
340
0
  0
BLOCK_RECORD
  5
13B4
330
1
100
AcDbSymbolTableRecord
100
AcDbBlockTableRecord
  2
A$C53DC7C98
340
0
  0
BLOCK_RECORD
  5
25C5
330
1
100
AcDbSymbolTableRecord
100
AcDbBlockTableRecord
  2
*D3
340
0
  0
BLOCK_RECORD
  5
BFC6
102
{ACAD_XDICTIONARY
360
BFC7
102
}
330
1
100
AcDbSymbolTableRecord
100
AcDbBlockTableRecord
  2
XRIF1
340
0
  0
BLOCK_RECORD
  5
D377
330
1
100
AcDbSymbolTableRecord
100
AcDbBlockTableRecord
  2
*D5
340
0
  0
BLOCK_RECORD
  5
D42C
330
1
100
AcDbSymbolTableRecord
100
AcDbBlockTableRecord
  2
A$C78FA631D
340
0
  0
BLOCK_RECORD
  5
D49B
330
1
100
AcDbSymbolTableRecord
100
AcDbBlockTableRecord
  2
A$C5B843344
340
0
  0
BLOCK_RECORD
  5
D9EA
330
1
100
AcDbSymbolTableRecord
100
AcDbBlockTableRecord
  2
A$C38AE60AF
340
0
  0
BLOCK_RECORD
  5
DA36
330
1
100
AcDbSymbolTableRecord
100
AcDbBlockTableRecord
  2
A$C5D7416B9
340
0
  0
BLOCK_RECORD
  5
DA40
330
1
100
AcDbSymbolTableRecord
100
AcDbBlockTableRecord
  2
A$C2A792741
340
0
  0
BLOCK_RECORD
  5
DB06
330
1
100
AcDbSymbolTableRecord
100
AcDbBlockTableRecord
  2
A$C13137506
340
0
  0
BLOCK_RECORD
  5
DB28
330
1
100
AcDbSymbolTableRecord
100
AcDbBlockTableRecord
  2
*D12
340
0
  0
BLOCK_RECORD
  5
DB4B
330
1
100
AcDbSymbolTableRecord
100
AcDbBlockTableRecord
  2
*D13
340
0
  0
BLOCK_RECORD
  5
DB8C
330
1
100
AcDbSymbolTableRecord
100
AcDbBlockTableRecord
  2
A$C73EF678E
340
0
  0
BLOCK_RECORD
  5
DBC8
330
1
100
AcDbSymbolTableRecord
100
AcDbBlockTableRecord
  2
A$C16E911A7
340
0
  0
BLOCK_RECORD
  5
DBE0
330
1
100
AcDbSymbolTableRecord
100
AcDbBlockTableRecord
  2
A$C1FF52CBD
340
0
  0
ENDTAB
  0
ENDSEC
  0
SECTION
  2
BLOCKS
  0
BLOCK
  5
19
330
18
100
AcDbEntity
  8
0
100
AcDbBlockBegin
  2
*MODEL_SPACE
 70
     0
 10
0.0
 20
0.0
 30
0.0
  3
*MODEL_SPACE
  1

  0
ENDBLK
  5
1A
330
18
100
AcDbEntity
  8
0
100
AcDbBlockEnd
  0
BLOCK
  5
16
330
15
100
AcDbEntity
 67
     1
  8
0
100
AcDbBlockBegin
  2
*PAPER_SPACE
 70
     0
 10
0.0
 20
0.0
 30
0.0
  3
*PAPER_SPACE
  1

  0
ENDBLK
  5
17
330
15
100
AcDbEntity
 67
     1
  8
0
100
AcDbBlockEnd
  0
BLOCK
  5
B50
330
B4F
100
AcDbEntity
  8
0
100
AcDbBlockBegin
  2
XRIF2
 70
     4
 10
0.0
 20
0.0
 30
0.0
  3
XRIF2
  1
C:\WINDOWS\Desktop\AERO MODELLISMO\mot. thunder t. gp 15 profilo.dwg
  0
ENDBLK
  5
B51
330
B4F
100
AcDbEntity
  8
0
100
AcDbBlockEnd
  0
BLOCK
  5
138A
330
1366
100
AcDbEntity
  8
0
100
AcDbBlockBegin
  2
A$C62911543
 70
     0
 10
0.0
 20
0.0
 30
0.0
  3
A$C62911543
  1

  0
SPLINE
  5
1367
330
1366
100
AcDbEntity
  8
0
100
AcDbSpline
210
0.0
220
0.0
230
1.0
 70
     8
 71
     3
 72
    12
 73
     8
 74
     0
 42
0.0000000001
 43
0.0000000001
 40
12.23719390989215
 40
12.23719390989215
 40
12.23719390989215
 40
12.23719390989215
 40
39.68727188258269
 40
91.72663484554473
 40
121.5622871833007
 40
139.176415607743
 40
170.576360816954
 40
170.576360816954
 40
170.576360816954
 40
170.576360816954
 10
397.8694559141467
 20
27.61799884974562
 30
0.0
 10
397.7175930687952
 20
36.82517562513112
 30
0.0
 10
396.1589888354624
 20
63.29074051580619
 30
0.0
 10
379.5638190686569
 20
97.15296332153048
 30
0.0
 10
356.2200219927295
 20
122.0860806886121
 30
0.0
 10
330.0115783799423
 20
129.8692258429928
 30
0.0
 10
314.1228215851934
 20
125.7787753885745
 30
0.0
 10
303.99185337163
 20
122.0972390848706
 30
0.0
  0
LINE
  5
1368
330
1366
100
AcDbEntity
  8
0
100
AcDbLine
 10
334.6457895190283
 20
41.51941793509286
 30
0.0
 11
334.6457895190282
 21
127.3553600931577
 31
0.0
  0
LINE
  5
1369
330
1366
100
AcDbEntity
  8
0
100
AcDbLine
 10
241.1090757828409
 20
44.74802235413699
 30
0.0
 11
299.5539298262936
 21
118.8892912062169
 31
0.0
  0
LINE
  5
136A
330
1366
100
AcDbEntity
  8
0
100
AcDbLine
 10
269.7975475073466
 20
41.06371905773811
 30
0.0
 11
333.7222060472614
 21
41.06371905773811
 31
0.0
  0
LINE
  5
136B
330
1366
100
AcDbEntity
  8
0
  6
DASHED
 48
4.0
100
AcDbLine
 10
241.1090757828409
 20
38.87603835569144
 30
0.0
 11
264.9851961194308
 21
36.03593411132215
 31
0.0
  0
LINE
  5
136C
330
1366
100
AcDbEntity
  8
0
  6
DASHED
 48
4.0
100
AcDbLine
 10
241.1090757828409
 20
44.74802235413699
 30
0.0
 11
241.1090757828409
 21
38.87603835569144
 31
0.0
  0
LINE
  5
136D
330
1366
100
AcDbEntity
  8
0
  6
DASHED
 48
4.0
100
AcDbLine
 10
264.9851961194308
 20
36.03593411132215
 30
0.0
 11
264.9851961194308
 21
41.06371905773811
 31
0.0
  0
LINE
  5
136E
330
1366
100
AcDbEntity
  8
0
  6
DASHED
100
AcDbLine
 10
269.7975475073466
 20
41.06371905773811
 30
0.0
 11
264.9851961194308
 21
41.06371905773811
 31
0.0
  0
ARC
  5
136F
330
1366
100
AcDbEntity
  8
0
100
AcDbCircle
 10
387.8708158909626
 20
27.45308163781397
 30
0.0
 40
10.0
100
AcDbArc
 50
287.6721796201491
 51
0.944948858618444
  0
LINE
  5
1370
330
1366
100
AcDbEntity
  8
0
100
AcDbLine
 10
334.6457895190282
 20
-0.0000023944726308
 30
0.0
 11
334.6457895190282
 21
36.60802018038249
 31
0.0
  0
LINE
  5
1371
330
1366
100
AcDbEntity
  8
0
100
AcDbLine
 10
334.6457895190282
 20
-0.0000023944726308
 30
0.0
 11
390.9065204253181
 21
17.92499169385905
 31
0.0
  0
LINE
  5
1372
330
1366
100
AcDbEntity
  8
0
100
AcDbLine
 10
333.7222060472614
 20
41.06371905773811
 30
0.0
 11
342.5045649712711
 21
45.39696150364306
 31
0.0
  0
ARC
  5
1373
330
1366
100
AcDbEntity
  8
0
100
AcDbCircle
 10
340.1719739653345
 20
39.06371905773767
 30
0.0
 40
6.749143699729178
100
AcDbArc
 50
17.2375404404367
 51
69.78078714788725
  0
ARC
  5
1374
330
1366
100
AcDbEntity
  8
0
100
AcDbCircle
 10
340.1719739653345
 20
39.06371905773767
 30
0.0
 40
6.749143699729178
100
AcDbArc
 50
290.2192128521108
 51
342.7624595595715
  0
LINE
  5
1375
330
1366
100
AcDbEntity
  8
0
100
AcDbLine
 10
334.6457895190282
 20
36.60802018038271
 30
0.0
 11
342.5045649712711
 21
32.73047661183227
 31
0.0
  0
ARC
  5
1376
330
1366
100
AcDbEntity
  8
0
  6
DASHED
 48
2.0
100
AcDbCircle
 10
340.1719739653338
 20
39.06371905773813
 30
0.0
 40
6.749143699729605
100
AcDbArc
 50
342.7624595595684
 51
17.23754044043158
  0
LINE
  5
1377
330
1366
100
AcDbEntity
  8
0
100
AcDbLine
 10
143.8058376347028
 20
164.0925601990939
 30
0.0
 11
291.2962080793816
 21
164.0925601990939
 31
0.0
  0
LINE
  5
1378
330
1366
100
AcDbEntity
  8
0
100
AcDbLine
 10
279.4966186556405
 20
203.8854578999494
 30
0.0
 11
147.8058376347016
 21
224.789464437973
 31
0.0
  0
LINE
  5
1379
330
1366
100
AcDbEntity
  8
0
100
AcDbLine
 10
169.2550992660076
 20
125.5123370253118
 30
0.0
 11
155.5489140964141
 21
157.016284357119
 31
0.0
  0
LINE
  5
137A
330
1366
100
AcDbEntity
  8
0
100
AcDbLine
 10
12.11505661376236
 20
203.885457899949
 30
0.0
 11
143.805837634703
 21
224.789464437973
 31
0.0
  0
LINE
  5
137B
330
1366
100
AcDbEntity
  8
0
100
AcDbLine
 10
143.8058376347028
 20
164.0925601990939
 30
0.0
 11
0.3154671900233552
 21
164.0925601990939
 31
0.0
  0
LINE
  5
137C
330
1366
100
AcDbEntity
  8
0
100
AcDbLine
 10
122.3565760033971
 20
125.5123370253118
 30
0.0
 11
13.12092986094126
 21
140.3619604814612
 31
0.0
  0
SPLINE
  5
137D
330
1366
100
AcDbEntity
  8
0
100
AcDbSpline
210
0.0
220
0.0
230
1.0
 70
     8
 71
     3
 72
    11
 73
     7
 74
     0
 42
0.0000000001
 43
0.0000000001
 40
6.043598056626757
 40
6.043598056626757
 40
6.043598056626757
 40
6.043598056626757
 40
13.24451774142199
 40
48.53959605381989
 40
62.11898434122854
 40
70.53742093385901
 40
70.53742093385901
 40
70.53742093385901
 40
70.53742093385901
 10
13.12092986094217
 20
140.3619604814623
 30
0.0
 10
11.09281022710343
 20
141.6993241025247
 30
0.0
 10
-0.0357019995467454
 20
150.2171125435723
 30
0.0
 10
-0.3787283258084244
 20
172.1292793394991
 30
0.0
 10
0.1508460117865979
 20
191.4516427252697
 30
0.0
 10
3.943032378188718
 20
197.6456387938705
 30
0.0
 10
5.628536138317712
 20
199.9360910004325
 30
0.0
  0
ARC
  5
137E
330
1366
100
AcDbEntity
  8
0
100
AcDbCircle
 10
13.68278384565281
 20
194.0091108360623
 30
0.0
 40
10.0
100
AcDbArc
 50
99.01962288058015
 51
143.6512976949759
  0
LINE
  5
137F
330
1366
100
AcDbEntity
  8
0
100
AcDbLine
 10
122.3565760033971
 20
125.5123370253118
 30
0.0
 11
136.062761172991
 21
157.016284357119
 31
0.0
  0
LINE
  5
1380
330
1366
100
AcDbEntity
  8
0
100
AcDbLine
 10
155.5489140964141
 20
157.016284357119
 30
0.0
 11
136.0627611729906
 21
157.0162843571188
 31
0.0
  0
LINE
  5
1381
330
1366
100
AcDbEntity
  8
0
100
AcDbLine
 10
135.7925255270111
 20
195.7363357326731
 30
0.0
 11
163.4880302217261
 21
195.7363357326731
 31
0.0
  0
LINE
  5
1382
330
1366
100
AcDbEntity
  8
0
100
AcDbLine
 10
135.7925255270111
 20
178.4452260465285
 30
0.0
 11
163.4880302217261
 21
178.4452260465285
 31
0.0
  0
LINE
  5
1383
330
1366
100
AcDbEntity
  8
0
100
AcDbLine
 10
163.4880302217261
 20
195.7363357326731
 30
0.0
 11
135.7925255270111
 21
178.4452260465285
 31
0.0
  0
LINE
  5
1384
330
1366
100
AcDbEntity
  8
0
100
AcDbLine
 10
147.8058376347016
 20
224.789464437973
 30
0.0
 11
143.805837634703
 21
224.789464437973
 31
0.0
  0
SPLINE
  5
1385
330
1366
100
AcDbEntity
  8
0
100
AcDbSpline
210
0.0
220
0.0
230
1.0
 70
     8
 71
     3
 72
    11
 73
     7
 74
     0
 42
0.0000000001
 43
0.0000000001
 40
6.043598056626757
 40
6.043598056626757
 40
6.043598056626757
 40
6.043598056626757
 40
13.24451774142199
 40
48.53959605381989
 40
62.11898434122854
 40
70.53742093385664
 40
70.53742093385664
 40
70.53742093385664
 40
70.53742093385664
 10
278.4907454084625
 20
140.3619604814623
 30
0.0
 10
280.5188650423017
 20
141.6993241025247
 30
0.0
 10
291.6473772689517
 20
150.2171125435723
 30
0.0
 10
291.9904035952134
 20
172.1292793394991
 30
0.0
 10
291.4608292576181
 20
191.451642725269
 30
0.0
 10
287.6686428912167
 20
197.6456387938691
 30
0.0
 10
285.9831391310881
 20
199.9360910004304
 30
0.0
  0
LINE
  5
1386
330
1366
100
AcDbEntity
  8
0
100
AcDbLine
 10
169.2550992660076
 20
125.5123370253118
 30
0.0
 11
278.4907454084635
 21
140.3619604814612
 31
0.0
  0
ARC
  5
1387
330
1366
100
AcDbEntity
  8
0
100
AcDbCircle
 10
307.407274716671
 20
112.6985744437793
 30
0.0
 40
10.0
100
AcDbArc
 50
109.9708571146678
 51
141.7516249979351
  0
ARC
  5
1388
330
1366
100
AcDbEntity
  8
0
100
AcDbCircle
 10
307.407274716672
 20
112.6985744437693
 30
0.0
 40
10.0
100
AcDbArc
 50
109.9708571146535
 51
141.7516249979487
  0
ARC
  5
1389
330
1366
100
AcDbEntity
  8
0
100
AcDbCircle
 10
277.9288914237501
 20
194.0091108360609
 30
0.0
 40
10.0
100
AcDbArc
 50
36.34870230500983
 51
80.98037711942856
  0
ENDBLK
  5
138B
330
1366
100
AcDbEntity
  8
0
100
AcDbBlockEnd
  0
BLOCK
  5
13E4
330
13B4
100
AcDbEntity
  8
0
100
AcDbBlockBegin
  2
A$C53DC7C98
 70
     0
 10
0.0
 20
0.0
 30
0.0
  3
A$C53DC7C98
  1

  0
LINE
  5
13B5
330
13B4
100
AcDbEntity
  8
0
100
AcDbLine
 10
258.2829152676431
 20
113.4603397785604
 30
0.0
 11
64.34269903460972
 21
103.5163477516626
 31
0.0
  0
SPLINE
  5
13B6
330
13B4
100
AcDbEntity
  8
0
100
AcDbSpline
210
0.0
220
0.0
230
1.0
 70
     8
 71
     3
 72
    10
 73
     6
 74
     0
 42
0.0000000001
 43
0.0000000001
 40
10.75392866486214
 40
10.75392866486214
 40
10.75392866486214
 40
10.75392866486214
 40
25.06347901190895
 40
75.37361313311109
 40
179.2146857983096
 40
179.2146857983096
 40
179.2146857983096
 40
179.2146857983096
 10
16.31399171371868
 20
23.83054038554702
 30
0.0
 10
20.69363764474929
 20
21.92856309413037
 30
0.0
 10
40.61838834146282
 20
13.77776632695941
 30
0.0
 10
96.59351083610271
 20
4.553108018933016
 30
0.0
 10
147.8586610930351
 20
2.04713266233375
 30
0.0
 10
182.4343951438484
 20
1.069498691917942
 30
0.0
  0
INSERT
  5
13B7
330
13B4
100
AcDbEntity
  8
0
100
AcDbBlockReference
  2
XRIF2
 10
38.24698720618153
 20
-139.5595006600933
 30
0.0
  0
SPLINE
  5
13B8
330
13B4
100
AcDbEntity
  8
0
100
AcDbSpline
210
0.0
220
0.0
230
1.0
 70
     8
 71
     3
 72
     8
 73
     4
 74
     0
 42
0.0000000001
 43
0.0000000001
 40
7.335905133051316
 40
7.335905133051316
 40
7.335905133051316
 40
7.335905133051316
 40
42.17779302337378
 40
42.17779302337378
 40
42.17779302337378
 40
42.17779302337378
 10
64.34269903460972
 20
103.5163477516626
 30
0.0
 10
37.61783106871326
 20
101.5644266229606
 30
0.0
 10
26.49683354244962
 20
97.65269587818693
 30
0.0
 10
16.3139917137305
 20
93.03190812439787
 30
0.0
  0
LINE
  5
13B9
330
13B4
100
AcDbEntity
  8
0
100
AcDbLine
 10
16.31399171371868
 20
93.03190812439243
 30
0.0
 11
16.31399171371868
 21
23.83054038554702
 31
0.0
  0
LINE
  5
13BA
330
13B4
100
AcDbEntity
  8
0
  6
DASHED
 62
     1
 48
4.0
100
AcDbLine
 10
789.9633276448883
 20
94.10561085613879
 30
0.0
 11
784.0389900512625
 21
94.10561085613879
 31
0.0
  0
LINE
  5
13BB
330
13B4
100
AcDbEntity
  8
0
  6
DASHED
 62
     1
 48
4.0
100
AcDbLine
 10
784.2581422691488
 20
94.75732899087324
 30
0.0
 11
789.9633276448883
 21
94.75732899087324
 31
0.0
  0
LINE
  5
13BC
330
13B4
100
AcDbEntity
  8
0
100
AcDbLine
 10
782.8120178711743
 20
92.33533092624883
 30
0.0
 11
791.5943767951838
 21
88.00208848034392
 31
0.0
  0
LINE
  5
13BD
330
13B4
100
AcDbEntity
  8
0
100
AcDbLine
 10
782.8120178711743
 20
96.33533092624977
 30
0.0
 11
791.5943767951838
 21
100.6685733721547
 31
0.0
  0
LINE
  5
13BE
330
13B4
100
AcDbEntity
  8
0
100
AcDbLine
 10
784.8120178711736
 20
92.33533092624927
 30
0.0
 11
816.1538989740282
 21
92.33533092624977
 31
0.0
  0
LINE
  5
13BF
330
13B4
100
AcDbEntity
  8
0
100
AcDbLine
 10
784.8120178711743
 20
96.33533092625022
 30
0.0
 11
816.1538989740281
 21
96.33533092625022
 31
0.0
  0
LINE
  5
13C0
330
13B4
100
AcDbEntity
  8
0
100
AcDbLine
 10
783.7356013429411
 20
55.27160947403899
 30
0.0
 11
839.9963322492329
 21
73.19660356237114
 31
0.0
  0
SPLINE
  5
13C1
330
13B4
100
AcDbEntity
  8
0
100
AcDbSpline
210
0.0
220
0.0
230
1.0
 70
     8
 71
     3
 72
    12
 73
     8
 74
     0
 42
0.0000000001
 43
0.0000000001
 40
12.23719390989288
 40
12.23719390989288
 40
12.23719390989288
 40
12.23719390989288
 40
39.68727188258269
 40
91.72663484554473
 40
121.5622871833007
 40
139.176415607743
 40
170.576360816954
 40
170.576360816954
 40
170.576360816954
 40
170.576360816954
 10
846.9592677380592
 20
82.88961071825861
 30
0.0
 10
846.8074048927075
 20
92.09678749364412
 30
0.0
 10
845.248800659375
 20
118.5623523843192
 30
0.0
 10
828.6536308925695
 20
152.424575190043
 30
0.0
 10
805.3098338166423
 20
177.3576925571242
 30
0.0
 10
779.101390203855
 20
185.1408377115053
 30
0.0
 10
763.2126334091061
 20
181.0503872570871
 30
0.0
 10
753.0816651955428
 20
177.3688509533831
 30
0.0
  0
SPLINE
  5
13C2
330
13B4
100
AcDbEntity
  8
0
100
AcDbSpline
210
0.0
220
0.0
230
1.0
 70
     8
 71
     3
 72
    10
 73
     6
 74
     0
 42
0.0000000001
 43
0.0000000001
 40
0.0
 40
0.0
 40
0.0
 40
0.0
 40
131.4642053983943
 40
306.427438160548
 40
321.0521450394317
 40
321.0521450394317
 40
321.0521450394317
 40
321.0521450394317
 10
397.6643637819134
 20
130.216278340969
 30
0.0
 10
441.3297533511418
 20
126.520649421921
 30
0.0
 10
543.1085867714849
 20
117.9065776399939
 30
0.0
 10
649.47321259654
 20
105.7678988314928
 30
0.0
 10
712.0603869197174
 20
97.01720618648961
 30
0.0
 10
718.8873593312593
 20
96.33533092624977
 30
0.0
  0
SPLINE
  5
13C3
330
13B4
100
AcDbEntity
  8
0
100
AcDbSpline
210
0.0
220
0.0
230
1.0
 70
     8
 71
     3
 72
    10
 73
     6
 74
     0
 42
0.0000000001
 43
0.0000000001
 40
410.1364781280398
 40
410.1364781280398
 40
410.1364781280398
 40
410.1364781280398
 40
526.9648151707627
 40
685.8904726219233
 40
784.5338551105444
 40
784.5338551105444
 40
784.5338551105444
 40
784.5338551105444
 10
413.3039896071029
 20
3.382243890498556
 30
0.0
 10
452.178857374453
 20
5.692036754535137
 30
0.0
 10
543.7781751367623
 20
13.7436471367987
 30
0.0
 10
667.5851667409006
 20
30.50473421668357
 30
0.0
 10
751.5708843783849
 20
48.41309417464525
 30
0.0
 10
783.7356013429411
 20
55.27160947403899
 30
0.0
  0
SPLINE
  5
13C4
330
13B4
100
AcDbEntity
  8
0
100
AcDbSpline
210
0.0
220
0.0
230
1.0
 70
     8
 71
     3
 72
    33
 73
    29
 74
    27
 42
0.0000000001
 43
0.0000000001
 44
0.0000000001
 40
0.0
 40
0.0
 40
0.0
 40
0.0
 40
20.17959595634212
 40
46.17637250433787
 40
71.21758614078325
 40
94.57346309832672
 40
117.7895273250519
 40
132.067382466313
 40
146.8473109047406
 40
157.5821870634447
 40
177.8395037197215
 40
187.2094266163653
 40
201.3318302722903
 40
210.2970508561045
 40
213.5479464555278
 40
223.3429082171098
 40
233.1646217958132
 40
236.6862679358755
 40
238.2347196064869
 40
239.909163947268
 40
242.0524617361849
 40
246.2367203005866
 40
257.6477410292667
 40
271.3885103899562
 40
282.3763464783237
 40
294.6144890891209
 40
307.8996853136603
 40
321.9951907505268
 40
321.9951907505268
 40
321.9951907505268
 40
321.9951907505268
 10
412.8015652393353
 20
6.616451024337036
 30
0.0
 10
406.333896865017
 20
8.466284394381023
 30
0.0
 10
391.5341226409362
 20
12.6992033760547
 30
0.0
 10
368.4676574367119
 20
18.33415690815809
 30
0.0
 10
344.2325737106158
 20
23.60711382078975
 30
0.0
 10
320.717465281281
 20
27.7446874525172
 30
0.0
 10
300.6242146939678
 20
30.5626490686496
 30
0.0
 10
283.2798926262297
 20
32.26303611587715
 30
0.0
 10
270.0398661759609
 20
33.11872292308841
 30
0.0
 10
254.7883646048705
 20
33.57996742280457
 30
0.0
 10
241.3256387335898
 20
33.46728285228449
 30
0.0
 10
226.7641055144749
 20
32.61418833815675
 30
0.0
 10
216.0255386711323
 20
31.09749865925897
 30
0.0
 10
207.4817776603749
 20
29.06031084927377
 30
0.0
 10
200.4145769528033
 20
27.06760808168816
 30
0.0
 10
193.2619408903222
 20
24.55447987186369
 30
0.0
 10
186.225325973045
 20
20.83763392237908
 30
0.0
 10
183.1559537599982
 20
16.8474674539753
 30
0.0
 10
182.4590651286784
 20
14.61130089336659
 30
0.0
 10
183.1872929719052
 20
12.84580427189048
 30
0.0
 10
185.2339653034661
 20
11.0583282269077
 30
0.0
 10
190.8872450877809
 20
9.019416537566577
 30
0.0
 10
200.6123940631417
 20
7.809334692583338
 30
0.0
 10
212.6335802318452
 20
7.030883719354835
 30
0.0
 10
224.9524307357779
 20
6.663062217183769
 30
0.0
 10
237.1222820637704
 20
6.535893918253122
 30
0.0
 10
250.3286460312379
 20
6.517810275626626
 30
0.0
 10
259.4555340945923
 20
6.516546293600674
 30
0.0
 10
264.1540294768351
 20
6.515895599336545
 30
0.0
 11
412.8015652393353
 21
6.616451024337036
 31
0.0
 11
393.3687364393354
 21
12.05531651183651
 31
0.0
 11
368.1332681143353
 21
18.30059707433656
 31
0.0
 11
343.6499141643353
 21
23.55680861356473
 31
0.0
 11
320.6499141643353
 21
27.6184571035144
 31
0.0
 11
297.6499141643353
 21
30.77846314455769
 31
0.0
 11
283.4399684893353
 21
32.1693590243367
 31
0.0
 11
268.6898678143352
 21
33.10787632433676
 31
0.0
 11
257.9600124643353
 21
33.43616021183675
 31
0.0
 11
237.7040093518353
 21
33.20547423683661
 31
0.0
 11
228.3533406643351
 21
32.60509919933679
 31
0.0
 11
214.3751507518355
 21
30.59201902433665
 31
0.0
 11
205.6499141643353
 21
28.53157572043483
 31
0.0
 11
202.5224264893354
 21
27.64436489933678
 31
0.0
 11
193.3127325643351
 21
24.30927663683679
 31
0.0
 11
185.0178958393353
 21
19.04983357433662
 31
0.0
 11
183.0006790182933
 21
16.16316978499071
 31
0.0
 11
182.6499141643353
 21
14.65496999933657
 31
0.0
 11
183.2118415393354
 21
13.07762999933675
 31
0.0
 11
184.7576347393353
 21
11.59295872433677
 31
0.0
 11
188.5984576393352
 21
9.932808374336671
 31
0.0
 11
199.8458776768352
 21
8.007467736836588
 31
0.0
 11
213.5539481143353
 21
7.06007789933642
 31
0.0
 11
224.5361778643351
 21
6.709119749337105
 31
0.0
 11
236.7733787518355
 21
6.557300774336906
 31
0.0
 11
250.0585249018352
 21
6.520824786836782
 31
0.0
 11
264.1540294768351
 21
6.515895599336545
 31
0.0
  0
LINE
  5
13C5
330
13B4
100
AcDbEntity
  8
0
100
AcDbLine
 10
412.8015652393353
 20
6.616451024337036
 30
0.0
 11
264.1540294768351
 21
6.515895599336545
 31
0.0
  0
SPLINE
  5
13C6
330
13B4
100
AcDbEntity
  8
0
100
AcDbSpline
210
0.0
220
0.0
230
1.0
 70
     8
 71
     3
 72
     9
 73
     5
 74
     3
 42
0.0000000001
 43
0.0000000001
 44
0.0000000001
 40
0.0
 40
0.0
 40
0.0
 40
0.0
 40
127.3264079007495
 40
230.9240516608494
 40
230.9240516608494
 40
230.9240516608494
 40
230.9240516608494
 10
413.3039896071029
 20
3.382243890498556
 30
0.0
 10
370.8814217172827
 20
1.766216191836089
 30
0.0
 10
293.9422272446719
 20
-1.164673557776476
 30
0.0
 10
216.967128968199
 20
0.3776004264518137
 30
0.0
 10
182.4343951438484
 20
1.069498691917942
 30
0.0
 11
413.3039896071029
 21
3.382243890498556
 31
0.0
 11
286.0253705516157
 21
-0.1059189835968937
 31
0.0
 11
182.4343951438484
 21
1.069498691917942
 31
0.0
  0
LINE
  5
13C7
330
13B4
100
AcDbEntity
  8
0
100
AcDbLine
 10
279.6422172180982
 20
132.601772600954
 30
0.0
 11
397.6643637819134
 21
130.216278340969
 31
0.0
  0
LINE
  5
13C8
330
13B4
100
AcDbEntity
  8
0
100
AcDbLine
 10
279.6422172180982
 20
132.601772600954
 30
0.0
 11
258.2829152676431
 21
113.4603397785604
 31
0.0
  0
LINE
  5
13C9
330
13B4
100
AcDbEntity
  8
0
100
AcDbLine
 10
783.7356013429413
 20
96.79102980360449
 30
0.0
 11
783.7356013429411
 21
182.6269719616693
 31
0.0
  0
LINE
  5
13CA
330
13B4
100
AcDbEntity
  8
0
100
AcDbLine
 10
690.1988876067536
 20
100.0196342226486
 30
0.0
 11
748.6437416502066
 21
174.1609030747286
 31
0.0
  0
LINE
  5
13CB
330
13B4
100
AcDbEntity
  8
0
  6
DASHED
 48
4.0
100
AcDbLine
 10
690.1988876067536
 20
94.14765022420308
 30
0.0
 11
714.0750079433438
 21
91.30754597983377
 31
0.0
  0
LINE
  5
13CC
330
13B4
100
AcDbEntity
  8
0
  6
DASHED
 48
4.0
100
AcDbLine
 10
690.1988876067536
 20
100.0196342226486
 30
0.0
 11
690.1988876067536
 21
94.14765022420308
 31
0.0
  0
LINE
  5
13CD
330
13B4
100
AcDbEntity
  8
0
100
AcDbLine
 10
783.7356013429411
 20
55.27160947403899
 30
0.0
 11
783.7356013429411
 21
91.87963204889411
 31
0.0
  0
LINE
  5
13CE
330
13B4
100
AcDbEntity
  8
0
100
AcDbLine
 10
718.8873593312593
 20
96.33533092624977
 30
0.0
 11
782.8120178711743
 21
96.33533092624977
 31
0.0
  0
LINE
  5
13CF
330
13B4
100
AcDbEntity
  8
0
100
AcDbLine
 10
718.8873593312593
 20
92.33533092624977
 30
0.0
 11
782.8120178711743
 21
92.33533092624927
 31
0.0
  0
LINE
  5
13D0
330
13B4
100
AcDbEntity
  8
0
  6
DASHED
100
AcDbLine
 10
718.8873593312593
 20
96.33533092624977
 30
0.0
 11
714.0750079433438
 21
96.33533092624977
 31
0.0
  0
LINE
  5
13D1
330
13B4
100
AcDbEntity
  8
0
  6
DASHED
 48
4.0
100
AcDbLine
 10
714.0750079433438
 20
91.30754597983377
 30
0.0
 11
714.0750079433438
 21
96.33533092624977
 31
0.0
  0
ARC
  5
13D2
330
13B4
100
AcDbEntity
  8
0
100
AcDbCircle
 10
718.8873593312593
 20
94.33533092624974
 30
0.0
 40
2.0
100
AcDbArc
 50
90.0
 51
180.0
  0
ARC
  5
13D3
330
13B4
100
AcDbEntity
  8
0
100
AcDbCircle
 10
718.8873593312593
 20
94.33533092624974
 30
0.0
 40
2.0
100
AcDbArc
 50
180.0
 51
269.9999999999996
  0
LINE
  5
13D4
330
13B4
100
AcDbEntity
  8
0
100
AcDbLine
 10
716.8873593312594
 20
94.33533092624974
 30
0.0
 11
716.8873593312594
 21
94.33533092624974
 31
0.0
  0
LINE
  5
13D5
330
13B4
100
AcDbEntity
  8
0
  6
DASHED
 62
     1
 48
4.0
100
AcDbLine
 10
782.9179013340428
 20
94.10561085613879
 30
0.0
 11
777.458676101598
 21
94.10561085613879
 31
0.0
  0
LINE
  5
13D6
330
13B4
100
AcDbEntity
  8
0
  6
DASHED
 62
     1
 48
4.0
100
AcDbLine
 10
777.458676101598
 20
94.82249784736723
 30
0.0
 11
782.8640089925294
 21
94.82249784736723
 31
0.0
  0
LINE
  5
13D7
330
13B4
100
AcDbEntity
  8
0
  6
DASHED
 62
     1
 48
4.0
100
AcDbLine
 10
777.458676101598
 20
94.10561085613879
 30
0.0
 11
777.458676101598
 21
94.82249784736723
 31
0.0
  0
ARC
  5
13D8
330
13B4
100
AcDbEntity
  8
0
100
AcDbCircle
 10
788.2410171846768
 20
94.3353309262493
 30
0.0
 40
3.969639315101931
100
AcDbArc
 50
149.7466746815033
 51
210.2533253184919
  0
CIRCLE
  5
13D9
330
13B4
100
AcDbEntity
  8
0
 62
     1
100
AcDbCircle
 10
783.5481527739102
 20
94.51345951394294
 30
0.0
 40
0.7507046057721709
  0
LINE
  5
13DA
330
13B4
100
AcDbEntity
  8
0
100
AcDbLine
 10
782.8120178711741
 20
96.33533092624977
 30
0.0
 11
782.8120178711743
 21
92.33533092624927
 31
0.0
  0
ARC
  5
13DB
330
13B4
100
AcDbEntity
  8
0
100
AcDbCircle
 10
756.4970865405853
 20
167.9701863122823
 30
0.0
 40
10.0
100
AcDbArc
 50
109.9708571146597
 51
141.7516249979578
  0
ARC
  5
13DC
330
13B4
100
AcDbEntity
  8
0
  6
DASHED
 48
2.0
100
AcDbCircle
 10
789.2617857892468
 20
94.33533092624974
 30
0.0
 40
6.749143699729605
100
AcDbArc
 50
342.7624595595684
 51
17.23754044043158
  0
ARC
  5
13DD
330
13B4
100
AcDbEntity
  8
0
100
AcDbCircle
 10
789.2617857892473
 20
94.3353309262493
 30
0.0
 40
6.749143699729178
100
AcDbArc
 50
17.2375404404367
 51
69.78078714788725
  0
LINE
  5
13DE
330
13B4
100
AcDbEntity
  8
0
  6
DASHED
 62
     1
 48
4.0
100
AcDbLine
 10
789.9633276448883
 20
94.75732899087324
 30
0.0
 11
789.9633276448883
 21
94.10561085613879
 31
0.0
  0
ARC
  5
13DF
330
13B4
100
AcDbEntity
  8
0
100
AcDbCircle
 10
816.1538989740282
 20
94.33533092624974
 30
0.0
 40
2.0
100
AcDbArc
 50
270.0
 51
0.0000000000032569
  0
ARC
  5
13E0
330
13B4
100
AcDbEntity
  8
0
100
AcDbCircle
 10
816.1538989740281
 20
94.33533092625021
 30
0.0
 40
2.0
100
AcDbArc
 50
0.0
 51
89.9999999999992
  0
ARC
  5
13E1
330
13B4
100
AcDbEntity
  8
0
100
AcDbCircle
 10
789.2617857892473
 20
94.3353309262493
 30
0.0
 40
6.749143699729178
100
AcDbArc
 50
290.2192128521108
 51
342.7624595595715
  0
LINE
  5
13E2
330
13B4
100
AcDbEntity
  8
0
100
AcDbLine
 10
818.1538989740282
 20
94.33533092625021
 30
0.0
 11
818.1538989740282
 21
94.33533092624974
 31
0.0
  0
ARC
  5
13E3
330
13B4
100
AcDbEntity
  8
0
100
AcDbCircle
 10
836.9606277148756
 20
82.72469350632539
 30
0.0
 40
10.0
100
AcDbArc
 50
287.6721796201495
 51
0.9449488586210602
  0
ENDBLK
  5
13E5
330
13B4
100
AcDbEntity
  8
0
100
AcDbBlockEnd
  0
BLOCK
  5
CFE8
330
25C5
100
AcDbEntity
  8
0
100
AcDbBlockBegin
  2
*D3
 70
     1
 10
0.0
 20
0.0
 30
0.0
  3
*D3
  1

  0
LINE
  5
CFE9
330
25C5
100
AcDbEntity
  8
0
  6
ByBlock
 62
     0
100
AcDbLine
 10
-645.8315903855837
 20
1888.855071530262
 30
0.0
 11
-639.2872598481556
 21
1889.312695701049
 31
0.0
  0
ARC
  5
CFEA
330
25C5
100
AcDbEntity
  8
0
  6
ByBlock
 62
     0
100
AcDbCircle
 10
-765.5274514074426
 20
1880.485121566172
 30
0.0
 40
125.2984572408221
100
AcDbArc
 50
357.7135899673778
 51
358.8567949836888
  0
ARC
  5
CFEB
330
25C5
100
AcDbEntity
  8
0
  6
ByBlock
 62
     0
100
AcDbCircle
 10
-765.5274514074426
 20
1880.485121566172
 30
0.0
 40
125.2984572408221
100
AcDbArc
 50
5.143205016310061
 51
6.286410032621097
  0
ARC
  5
CFEC
330
25C5
100
AcDbEntity
  8
0
  6
ByBlock
 62
     0
100
AcDbCircle
 10
-765.5274514074426
 20
1880.485121566172
 30
0.0
 40
125.2984572408221
100
AcDbArc
 50
359.9999999999998
 51
3.999999999999026
  0
SOLID
  5
CFED
330
25C5
100
AcDbEntity
  8
0
  6
ByBlock
 62
     0
100
AcDbTrace
 10
-640.6705805493035
 20
1877.989402716272
 30
0.0
 11
-639.8372886854074
 21
1877.981089232694
 31
0.0
 12
-640.2289941666204
 22
1880.485121566172
 32
0.0
 13
-640.2289941666204
 23
1880.485121566172
 33
0.0
  0
SOLID
  5
CFEE
330
25C5
100
AcDbEntity
  8
0
  6
ByBlock
 62
     0
100
AcDbTrace
 10
-640.3181360703572
 20
1891.750756738549
 30
0.0
 11
-641.1488181578549
 21
1891.684336004174
 31
0.0
 12
-640.5342149109805
 22
1889.225500108868
 32
0.0
 13
-640.5342149109805
 23
1889.225500108868
 33
0.0
  0
MTEXT
  5
CFEF
330
25C5
100
AcDbEntity
  8
0
  6
ByBlock
 62
     0
100
AcDbMText
 10
-637.1822262668858
 20
1884.96703558867
 30
0.0
 40
5.0
 41
0.0
 71
     5
 72
     1
  1
\A1;4°
 11
0.034899496702494
 21
-0.999390827019096
 31
0.0
 73
     1
 44
1.0
1001
ACAD
1000
MTEXTBEGIN
1070
    73
1070
     1
1070
    44
1040
1.0
1070
    74
1070
     0
1000
MTEXTEND
  0
POINT
  5
CFF0
330
25C5
100
AcDbEntity
  8
DEFPOINTS
  6
ByBlock
 62
     0
100
AcDbPoint
 10
-640.262919829118
 20
1883.400685901444
 30
0.0
  0
POINT
  5
CFF1
330
25C5
100
AcDbEntity
  8
DEFPOINTS
  6
ByBlock
 62
     0
100
AcDbPoint
 10
-765.5274514074372
 20
1880.485121566172
 30
0.0
  0
POINT
  5
CFF2
330
25C5
100
AcDbEntity
  8
DEFPOINTS
  6
ByBlock
 62
     0
100
AcDbPoint
 10
-765.5274514074371
 20
1880.485121566172
 30
0.0
  0
POINT
  5
CFF3
330
25C5
100
AcDbEntity
  8
DEFPOINTS
  6
ByBlock
 62
     0
100
AcDbPoint
 10
-640.2289941666205
 20
1880.485121566172
 30
0.0
  0
POINT
  5
CFF4
330
25C5
100
AcDbEntity
  8
DEFPOINTS
  6
ByBlock
 62
     0
100
AcDbPoint
 10
-646.455067916996
 20
1888.811473734172
 30
0.0
  0
ENDBLK
  5
CFF5
330
25C5
100
AcDbEntity
  8
0
100
AcDbBlockEnd
  0
BLOCK
  5
BFC9
330
BFC6
100
AcDbEntity
  8
0
100
AcDbBlockBegin
  2
XRIF1
 70
     0
 10
0.0
 20
0.0
 30
0.0
  3
XRIF1
  1
C:\WINDOWS\Desktop\AERO MODELLISMO\mot. thunder t. gp 15 pianta.dwg
  0
TEXT
  5
BFCB
330
BFC6
100
AcDbEntity
  8
0
100
AcDbText
 10
0.0
 20
0.0
 30
0.0
 40
2.5
  1
Xrif XRIF1
100
AcDbText
  0
ENDBLK
  5
BFCA
330
BFC6
100
AcDbEntity
  8
0
100
AcDbBlockEnd
  0
BLOCK
  5
D38F
330
D377
100
AcDbEntity
  8
0
100
AcDbBlockBegin
  2
*D5
 70
     1
 10
0.0
 20
0.0
 30
0.0
  3
*D5
  1

  0
LINE
  5
D390
330
D377
100
AcDbEntity
  8
0
  6
ByBlock
 62
     0
100
AcDbLine
 10
-1769.368131596203
 20
1885.783501667415
 30
0.0
 11
-1734.895701115746
 21
1885.783501667415
 31
0.0
  0
LINE
  5
D391
330
D377
100
AcDbEntity
  8
0
  6
ByBlock
 62
     0
100
AcDbLine
 10
-1769.368131596203
 20
1685.783501667415
 30
0.0
 11
-1734.895701115746
 21
1685.783501667415
 31
0.0
  0
LINE
  5
D392
330
D377
100
AcDbEntity
  8
0
  6
ByBlock
 62
     0
100
AcDbLine
 10
-1736.145701115746
 20
1883.283501667415
 30
0.0
 11
-1736.145701115746
 21
1688.283501667415
 31
0.0
  0
SOLID
  5
D393
330
D377
100
AcDbEntity
  8
0
  6
ByBlock
 62
     0
100
AcDbTrace
 10
-1736.562367782413
 20
1883.283501667415
 30
0.0
 11
-1735.729034449079
 21
1883.283501667415
 31
0.0
 12
-1736.145701115746
 22
1885.783501667415
 32
0.0
 13
-1736.145701115746
 23
1885.783501667415
 33
0.0
  0
SOLID
  5
D394
330
D377
100
AcDbEntity
  8
0
  6
ByBlock
 62
     0
100
AcDbTrace
 10
-1736.562367782413
 20
1688.283501667415
 30
0.0
 11
-1735.729034449079
 21
1688.283501667415
 31
0.0
 12
-1736.145701115746
 22
1685.783501667415
 32
0.0
 13
-1736.145701115746
 23
1685.783501667415
 33
0.0
  0
MTEXT
  5
D395
330
D377
100
AcDbEntity
  8
0
  6
ByBlock
 62
     0
100
AcDbMText
 10
-1744.270701115746
 20
1785.783501667415
 30
0.0
 40
15.0
 41
0.0
 71
     5
 72
     1
  1
\A1;200
 11
0.0000000000000001
 21
1.0
 31
0.0
 73
     1
 44
1.0
1001
ACAD
1000
MTEXTBEGIN
1070
    73
1070
     1
1070
    44
1040
1.0
1070
    74
1070
     0
1000
MTEXTEND
  0
POINT
  5
D396
330
D377
100
AcDbEntity
  8
DEFPOINTS
  6
ByBlock
 62
     0
100
AcDbPoint
 10
-1769.993131596203
 20
1885.783501667415
 30
0.0
  0
POINT
  5
D397
330
D377
100
AcDbEntity
  8
DEFPOINTS
  6
ByBlock
 62
     0
100
AcDbPoint
 10
-1769.993131596203
 20
1685.783501667415
 30
0.0
  0
POINT
  5
D398
330
D377
100
AcDbEntity
  8
DEFPOINTS
  6
ByBlock
 62
     0
100
AcDbPoint
 10
-1736.145701115746
 20
1685.783501667415
 30
0.0
  0
ENDBLK
  5
D399
330
D377
100
AcDbEntity
  8
0
100
AcDbBlockEnd
  0
BLOCK
  5
D453
330
D42C
100
AcDbEntity
  8
0
100
AcDbBlockBegin
  2
A$C78FA631D
 70
     0
 10
0.0
 20
0.0
 30
0.0
  3
A$C78FA631D
  1

  0
SPLINE
  5
D42D
330
D42C
100
AcDbEntity
  8
0
100
AcDbSpline
210
0.0
220
0.0
230
1.0
 70
    24
 71
     3
 72
     9
 73
     5
 74
     3
 42
0.0000000001
 43
0.0000000001
 44
0.0000000001
 40
0.0
 40
0.0
 40
0.0
 40
0.0
 40
3.789972542200501
 40
7.579945084400804
 40
7.579945084400804
 40
7.579945084400804
 40
7.579945084400804
 10
137.4496857116076
 20
98.12427787238041
 30
0.0
 10
138.7130098923411
 20
98.12427787238052
 30
0.0
 10
141.2396582538081
 20
98.12427787238076
 30
0.0
 10
143.7663066152749
 20
98.1242778723805
 30
0.0
 10
145.0296307960084
 20
98.12427787238041
 30
0.0
 11
137.4496857116076
 21
98.12427787238041
 31
0.0
 11
141.2396582538081
 21
98.12427787238062
 31
0.0
 11
145.0296307960084
 21
98.12427787238041
 31
0.0
  0
SPLINE
  5
D42E
330
D42C
100
AcDbEntity
  8
0
100
AcDbSpline
210
0.0
220
0.0
230
1.0
 70
    24
 71
     3
 72
     9
 73
     5
 74
     3
 42
0.0000000001
 43
0.0000000001
 44
0.0000000001
 40
0.0
 40
0.0
 40
0.0
 40
0.0
 40
3.789972542200302
 40
7.579945084400605
 40
7.579945084400605
 40
7.579945084400605
 40
7.579945084400605
 10
137.4496857116078
 20
0.5483403723806079
 30
0.0
 10
138.7130098923412
 20
0.5483403723806078
 30
0.0
 10
141.2396582538081
 20
0.5483403723806078
 30
0.0
 10
143.7663066152749
 20
0.5483403723806079
 30
0.0
 10
145.0296307960084
 20
0.5483403723806079
 30
0.0
 11
137.4496857116078
 21
0.5483403723806079
 31
0.0
 11
141.2396582538081
 21
0.5483403723806079
 31
0.0
 11
145.0296307960084
 21
0.5483403723806079
 31
0.0
  0
SPLINE
  5
D42F
330
D42C
100
AcDbEntity
  8
0
100
AcDbSpline
210
0.0
220
0.0
230
1.0
 70
     8
 71
     3
 72
    13
 73
     9
 74
     7
 42
0.0000000001
 43
0.0000000001
 44
0.0000000001
 40
0.0
 40
0.0
 40
0.0
 40
0.0
 40
13.78947898278123
 40
17.36355531496998
 40
66.38680463446033
 40
103.5113006623878
 40
114.7243762852385
 40
131.3371433610321
 40
131.3371433610321
 40
131.3371433610321
 40
131.3371433610321
 10
137.4496857116078
 20
0.5483403723806079
 30
0.0
 10
132.8746205797258
 20
0.6396914837130672
 30
0.0
 10
127.1137505289994
 20
0.7547197655419735
 30
0.0
 10
104.85671957135
 20
4.677462029964763
 30
0.0
 10
107.0564253574413
 20
48.83938766525696
 30
0.0
 10
108.496130097384
 20
78.05581220226567
 30
0.0
 10
121.6300130413117
 20
97.39835782448514
 30
0.0
 10
131.5357172364261
 20
97.85290258110677
 30
0.0
 10
137.4496857116078
 20
98.12427787238041
 30
0.0
 11
137.4496857116078
 21
0.5483403723806079
 31
0.0
 11
123.6863425519186
 21
1.396936675225332
 31
0.0
 11
120.1815176930267
 21
2.097096897463869
 31
0.0
 11
107.0767169616078
 21
49.33630912238051
 31
0.0
 11
114.2233128327407
 21
85.76643913563065
 31
0.0
 11
121.2329625505212
 21
94.51846037405266
 31
0.0
 11
137.4496857116078
 21
98.12427787238041
 31
0.0
  0
SPLINE
  5
D430
330
D42C
100
AcDbEntity
  8
0
100
AcDbSpline
210
0.0
220
0.0
230
1.0
 70
     8
 71
     3
 72
    14
 73
    10
 74
     0
 42
0.0000000001
 43
0.0000000001
 40
3.453702967664137
 40
3.453702967664137
 40
3.453702967664137
 40
3.453702967664137
 40
18.31056725060762
 40
39.47086617275651
 40
50.82731382939821
 40
83.04924042202395
 40
115.6745372039088
 40
130.3217571674404
 40
142.72372309611
 40
142.72372309611
 40
142.72372309611
 40
142.72372309611
 10
39.07021374448595
 20
0.0000008002530194
 30
0.0
 10
43.57368009060974
 20
0.0302309531048195
 30
0.0
 10
54.3202212983524
 20
0.7974188532548398
 30
0.0
 10
68.35955151583675
 20
7.782515970790427
 30
0.0
 10
69.53380749448616
 20
32.46286272977978
 30
0.0
 10
69.53366690767371
 20
49.53854314941417
 30
0.0
 10
65.62856115103568
 20
74.93112993423801
 30
0.0
 10
49.23140952818993
 20
83.93426498935651
 30
0.0
 10
42.84853705651221
 20
84.68888912815328
 30
0.0
 10
39.07021374448595
 20
84.6890633002531
 30
0.0
  0
SPLINE
  5
D431
330
D42C
100
AcDbEntity
  8
0
100
AcDbSpline
210
0.0
220
0.0
230
1.0
 70
     8
 71
     3
 72
    14
 73
    10
 74
     0
 42
0.0000000001
 43
0.0000000001
 40
3.453702967664137
 40
3.453702967664137
 40
3.453702967664137
 40
3.453702967664137
 40
18.31056725060762
 40
39.47086617275651
 40
50.82731382939821
 40
83.04924042202395
 40
115.6745372039088
 40
130.3217571674404
 40
142.72372309611
 40
142.72372309611
 40
142.72372309611
 40
142.72372309611
 10
30.32097817158683
 20
0.0000008002530194
 30
0.0
 10
25.81751182546304
 20
0.0302309531048195
 30
0.0
 10
15.07097061772038
 20
0.7974188532548398
 30
0.0
 10
1.031640400236027
 20
7.782515970790427
 30
0.0
 10
-0.1426155784133698
 20
32.46286272977978
 30
0.0
 10
-0.1424749916009205
 20
49.53854314941417
 30
0.0
 10
3.7626307650371
 20
74.93112993423801
 30
0.0
 10
20.15978238788284
 20
83.93426498935651
 30
0.0
 10
26.54265485956057
 20
84.68888912815328
 30
0.0
 10
30.32097817158683
 20
84.6890633002531
 30
0.0
  0
LINE
  5
D432
330
D42C
100
AcDbEntity
  8
0
100
AcDbLine
 10
34.6955959580373
 20
84.6890633002531
 30
0.0
 11
34.6955959580373
 21
0.0000008002530194
 31
0.0
  0
SPLINE
  5
D433
330
D42C
100
AcDbEntity
  8
0
100
AcDbSpline
210
0.0
220
0.0
230
1.0
 70
    24
 71
     3
 72
     9
 73
     5
 74
     3
 42
0.0000000001
 43
0.0000000001
 44
0.0000000001
 40
0.0
 40
0.0
 40
0.0
 40
0.0
 40
4.374617786450475
 40
8.749235572900953
 40
8.749235572900953
 40
8.749235572900953
 40
8.749235572900953
 10
30.32097817158683
 20
0.0000008002530194
 30
0.0
 10
31.77918410040366
 20
0.0000008002530194
 30
0.0
 10
34.6955959580373
 20
0.0000008002530194
 30
0.0
 10
37.61200781567096
 20
0.0000008002530194
 30
0.0
 10
39.07021374448778
 20
0.0000008002530194
 30
0.0
 11
30.32097817158683
 21
0.0000008002530194
 31
0.0
 11
34.6955959580373
 21
0.0000008002530194
 31
0.0
 11
39.07021374448778
 21
0.0000008002530194
 31
0.0
  0
MTEXT
  5
D434
330
D42C
100
AcDbEntity
  8
0
100
AcDbMText
 10
16.90643972929456
 20
45.54266326536843
 30
0.0
 40
9.0625
 41
6.814999999999998
 71
     1
 72
     5
  1
A
 73
     1
 44
1.0
1001
ACAD
1000
MTEXTBEGIN
1070
    73
1070
     1
1070
    44
1040
1.0
1070
    74
1070
     0
1000
MTEXTEND
  0
SPLINE
  5
D435
330
D42C
100
AcDbEntity
  8
0
100
AcDbSpline
210
0.0
220
0.0
230
1.0
 70
    24
 71
     3
 72
     9
 73
     5
 74
     3
 42
0.0000000001
 43
0.0000000001
 44
0.0000000001
 40
0.0
 40
0.0
 40
0.0
 40
0.0
 40
4.374617786450922
 40
8.749235572901849
 40
8.749235572901849
 40
8.749235572901849
 40
8.749235572901849
 10
30.32097817158638
 20
84.6890633002531
 30
0.0
 10
31.77918410040335
 20
84.68906330025308
 30
0.0
 10
34.6955959580373
 20
84.6890633002531
 30
0.0
 10
37.61200781567126
 20
84.6890633002531
 30
0.0
 10
39.07021374448823
 20
84.6890633002531
 30
0.0
 11
30.32097817158638
 21
84.6890633002531
 31
0.0
 11
34.6955959580373
 21
84.6890633002531
 31
0.0
 11
39.07021374448823
 21
84.6890633002531
 31
0.0
  0
MTEXT
  5
D436
330
D42C
100
AcDbEntity
  8
0
100
AcDbMText
 10
123.7241083661665
 20
45.54266326536843
 30
0.0
 40
9.0625
 41
6.814999999999998
 71
     1
 72
     5
  1
B
 73
     1
 44
1.0
1001
ACAD
1000
MTEXTBEGIN
1070
    73
1070
     1
1070
    44
1040
1.0
1070
    74
1070
     0
1000
MTEXTEND
  0
SPLINE
  5
D437
330
D42C
100
AcDbEntity
  8
0
100
AcDbSpline
210
0.0
220
0.0
230
1.0
 70
     8
 71
     3
 72
    13
 73
     9
 74
     7
 42
0.0000000001
 43
0.0000000001
 44
0.0000000001
 40
0.0
 40
0.0
 40
0.0
 40
0.0
 40
13.78947898278113
 40
17.36355531496988
 40
66.38680463446021
 40
103.5113006623877
 40
114.7243762852385
 40
131.3371433610319
 40
131.3371433610319
 40
131.3371433610319
 40
131.3371433610319
 10
145.0296307960084
 20
0.5483403723806079
 30
0.0
 10
149.6046959278904
 20
0.6396914837130697
 30
0.0
 10
155.3655659786167
 20
0.7547197655419792
 30
0.0
 10
177.622596936266
 20
4.677462029964763
 30
0.0
 10
175.4228911501746
 20
48.8393876652569
 30
0.0
 10
173.9831864102323
 20
78.05581220226581
 30
0.0
 10
160.8493034663043
 20
97.39835782448505
 30
0.0
 10
150.94359927119
 20
97.85290258110675
 30
0.0
 10
145.0296307960084
 20
98.12427787238041
 30
0.0
 11
145.0296307960084
 21
0.5483403723806079
 31
0.0
 11
158.7929739556975
 21
1.396936675225332
 31
0.0
 11
162.2977988145894
 21
2.097096897463869
 31
0.0
 11
175.4025995460083
 21
49.33630912238051
 31
0.0
 11
168.2560036748755
 21
85.76643913563065
 31
0.0
 11
161.2463539570949
 21
94.51846037405266
 31
0.0
 11
145.0296307960084
 21
98.12427787238041
 31
0.0
  0
LINE
  5
D438
330
D42C
100
AcDbEntity
  8
0
100
AcDbLine
 10
141.2396582538081
 20
0.5483403723806079
 30
0.0
 11
141.2396582538081
 21
98.12427787238062
 31
0.0
  0
LINE
  5
D439
330
D42C
100
AcDbEntity
  8
0
100
AcDbLine
 10
259.556100736949
 20
8.669168306372283
 30
0.0
 11
292.8435665638324
 21
10.12829639942265
 31
0.0
  0
LINE
  5
D43A
330
D42C
100
AcDbEntity
  8
0
100
AcDbLine
 10
278.5105836811458
 20
105.2119808063725
 30
0.0
 11
290.0675113087589
 21
60.73808305537045
 31
0.0
  0
LINE
  5
D43B
330
D42C
100
AcDbEntity
  8
0
100
AcDbLine
 10
240.6016177927522
 20
105.2119808063725
 30
0.0
 11
229.0446901651392
 21
60.73808305537045
 31
0.0
  0
LINE
  5
D43C
330
D42C
100
AcDbEntity
  8
0
100
AcDbLine
 10
259.556100736949
 20
105.2119808063725
 30
0.0
 11
259.556100736949
 21
87.86635580637243
 31
0.0
  0
SPLINE
  5
D43D
330
D42C
100
AcDbEntity
  8
0
100
AcDbSpline
210
0.0
220
0.0
230
1.0
 70
     8
 71
     3
 72
     9
 73
     5
 74
     0
 42
0.0000000001
 43
0.0000000001
 40
47.82155173508804
 40
47.82155173508804
 40
47.82155173508804
 40
47.82155173508804
 40
73.38225217378213
 40
102.105606092669
 40
102.105606092669
 40
102.105606092669
 40
102.105606092669
 10
226.2955714889872
 20
9.963265831443095
 30
0.0
 10
224.8424257351633
 20
18.80840183133523
 30
0.0
 10
225.1517750985631
 20
36.54055440048251
 30
0.0
 10
226.8657537017948
 20
52.35300004722148
 30
0.0
 10
229.0446901651394
 20
60.73808305537113
 30
0.0
  0
LINE
  5
D43E
330
D42C
100
AcDbEntity
  8
0
100
AcDbLine
 10
259.556100736949
 20
87.86635580637243
 30
0.0
 11
259.556100736949
 21
9.756668306372375
 31
0.0
  0
LINE
  5
D43F
330
D42C
100
AcDbEntity
  8
0
100
AcDbLine
 10
259.556100736949
 20
8.669168306372283
 30
0.0
 11
226.2686349100657
 21
10.12829639942265
 31
0.0
  0
MTEXT
  5
D440
330
D42C
100
AcDbEntity
  8
0
100
AcDbMText
 10
242.8277065310699
 20
45.54266326536843
 30
0.0
 40
9.0625
 41
6.814999999999998
 71
     1
 72
     5
  1
C
 73
     1
 44
1.0
1001
ACAD
1000
MTEXTBEGIN
1070
    73
1070
     1
1070
    44
1040
1.0
1070
    74
1070
     0
1000
MTEXTEND
  0
LINE
  5
D441
330
D42C
100
AcDbEntity
  8
0
100
AcDbLine
 10
259.556100736949
 20
9.756668306372375
 30
0.0
 11
259.556100736949
 21
8.669168306372512
 31
0.0
  0
LINE
  5
D442
330
D42C
100
AcDbEntity
  8
0
100
AcDbLine
 10
259.556100736949
 20
105.2119808063725
 30
0.0
 11
240.6016177927522
 21
105.2119808063725
 31
0.0
  0
LINE
  5
D443
330
D42C
100
AcDbEntity
  8
0
100
AcDbLine
 10
259.556100736949
 20
105.2119808063725
 30
0.0
 11
278.5105836811458
 21
105.2119808063725
 31
0.0
  0
SPLINE
  5
D444
330
D42C
100
AcDbEntity
  8
0
100
AcDbSpline
210
0.0
220
0.0
230
1.0
 70
     8
 71
     3
 72
    14
 73
    10
 74
     0
 42
0.0000000001
 43
0.0000000001
 40
16.54510751683757
 40
16.54510751683757
 40
16.54510751683757
 40
16.54510751683757
 40
36.78273726220222
 40
50.97190057865379
 40
72.7299093971624
 40
145.6147639318531
 40
169.3154693965375
 40
182.5726745734737
 40
188.8224542584972
 40
188.8224542584972
 40
188.8224542584972
 40
188.8224542584972
 10
388.6456224123385
 20
7.430406144498191
 30
0.0
 10
393.7516262280451
 20
7.259272982057608
 30
0.0
 10
402.4735442005903
 20
9.065236806232404
 30
0.0
 10
412.863927534657
 20
14.32654872704688
 30
0.0
 10
413.5570013601862
 20
43.04833128891914
 30
0.0
 10
412.8706705043517
 20
71.41829075888381
 30
0.0
 10
404.1660102011608
 20
99.46849710335257
 30
0.0
 10
395.2649464048884
 20
106.2109740130372
 30
0.0
 10
390.2504042894721
 20
106.5202677726392
 30
0.0
 10
388.6456224123385
 20
106.5177249948615
 30
0.0
  0
SPLINE
  5
D445
330
D42C
100
AcDbEntity
  8
0
100
AcDbSpline
210
0.0
220
0.0
230
1.0
 70
     8
 71
     3
 72
    14
 73
    10
 74
     0
 42
0.0000000001
 43
0.0000000001
 40
16.54510751683757
 40
16.54510751683757
 40
16.54510751683757
 40
16.54510751683757
 40
36.78273726220222
 40
50.97190057865379
 40
72.7299093971624
 40
145.6147639318531
 40
169.3154693965375
 40
182.5726745734737
 40
188.8224542584972
 40
188.8224542584972
 40
188.8224542584972
 40
188.8224542584972
 10
379.5417651586772
 20
7.430406144498191
 30
0.0
 10
374.4357613429706
 20
7.259272982057608
 30
0.0
 10
365.7138433704254
 20
9.065236806232404
 30
0.0
 10
355.3234600363587
 20
14.32654872704688
 30
0.0
 10
354.6303862108296
 20
43.04833128891914
 30
0.0
 10
355.3167170666641
 20
71.41829075888381
 30
0.0
 10
364.0213773698548
 20
99.46849710335257
 30
0.0
 10
372.9224411661273
 20
106.2109740130372
 30
0.0
 10
377.9369832815437
 20
106.5202677726392
 30
0.0
 10
379.5417651586772
 20
106.5177249948615
 30
0.0
  0
LINE
  5
D446
330
D42C
100
AcDbEntity
  8
0
100
AcDbLine
 10
384.0936937855079
 20
106.5177249948617
 30
0.0
 11
384.0936937855081
 21
7.430406144498191
 31
0.0
  0
SPLINE
  5
D447
330
D42C
100
AcDbEntity
  8
0
100
AcDbSpline
210
0.0
220
0.0
230
1.0
 70
     8
 71
     3
 72
     9
 73
     5
 74
     0
 42
0.0000000001
 43
0.0000000001
 40
47.82155173508804
 40
47.82155173508804
 40
47.82155173508804
 40
47.82155173508804
 40
73.38225217378213
 40
102.105606092669
 40
102.105606092669
 40
102.105606092669
 40
102.105606092669
 10
292.8166299849108
 20
9.963265831443095
 30
0.0
 10
294.2697757387348
 20
18.80840183133523
 30
0.0
 10
293.9604263753349
 20
36.54055440048251
 30
0.0
 10
292.2464477721032
 20
52.35300004722148
 30
0.0
 10
290.0675113087586
 20
60.73808305537113
 30
0.0
  0
SPLINE
  5
D448
330
D42C
100
AcDbEntity
  8
0
100
AcDbSpline
210
0.0
220
0.0
230
1.0
 70
    24
 71
     3
 72
     9
 73
     5
 74
     3
 42
0.0000000001
 43
0.0000000001
 44
0.0000000001
 40
0.0
 40
0.0
 40
0.0
 40
0.0
 40
4.551928626830886
 40
9.10385725366126
 40
9.10385725366126
 40
9.10385725366126
 40
9.10385725366126
 10
379.5417651586772
 20
7.430406144498191
 30
0.0
 10
381.0590747009542
 20
7.430406144498192
 30
0.0
 10
384.093693785508
 20
7.430406144498192
 30
0.0
 10
387.1283128700616
 20
7.430406144498191
 30
0.0
 10
388.6456224123385
 20
7.430406144498191
 30
0.0
 11
379.5417651586772
 21
7.430406144498191
 31
0.0
 11
384.0936937855081
 21
7.430406144498191
 31
0.0
 11
388.6456224123385
 21
7.430406144498191
 31
0.0
  0
MTEXT
  5
D449
330
D42C
100
AcDbEntity
  8
0
100
AcDbMText
 10
369.7210324921664
 20
45.54266326536843
 30
0.0
 40
9.0625
 41
6.814999999999998
 71
     1
 72
     5
  1
D
 73
     1
 44
1.0
1001
ACAD
1000
MTEXTBEGIN
1070
    73
1070
     1
1070
    44
1040
1.0
1070
    74
1070
     0
1000
MTEXTEND
  0
SPLINE
  5
D44A
330
D42C
100
AcDbEntity
  8
0
100
AcDbSpline
210
0.0
220
0.0
230
1.0
 70
    24
 71
     3
 72
     9
 73
     5
 74
     3
 42
0.0000000001
 43
0.0000000001
 44
0.0000000001
 40
0.0
 40
0.0
 40
0.0
 40
0.0
 40
4.551928626830658
 40
9.10385725366126
 40
9.10385725366126
 40
9.10385725366126
 40
9.10385725366126
 10
379.5417651586772
 20
106.5177249948612
 30
0.0
 10
381.0590747009542
 20
106.5177249948614
 30
0.0
 10
384.0936937855079
 20
106.5177249948619
 30
0.0
 10
387.1283128700616
 20
106.5177249948614
 30
0.0
 10
388.6456224123385
 20
106.5177249948612
 30
0.0
 11
379.5417651586772
 21
106.5177249948612
 31
0.0
 11
384.0936937855079
 21
106.5177249948617
 31
0.0
 11
388.6456224123385
 21
106.5177249948612
 31
0.0
  0
LINE
  5
D44B
330
D42C
100
AcDbEntity
  8
0
100
AcDbLine
 10
487.8489518699061
 20
34.39131355639302
 30
0.0
 11
487.8489518699061
 21
54.30162605639315
 31
0.0
  0
LINE
  5
D44C
330
D42C
100
AcDbEntity
  8
0
100
AcDbLine
 10
468.1689518699063
 20
34.39131355639302
 30
0.0
 11
468.1689518699063
 21
54.30162605639315
 31
0.0
  0
LINE
  5
D44D
330
D42C
100
AcDbEntity
  8
0
100
AcDbLine
 10
478.0089518699061
 20
14.48100105639287
 30
0.0
 11
478.0089518699061
 21
54.30162605639315
 31
0.0
  0
SPLINE
  5
D44E
330
D42C
100
AcDbEntity
  8
0
100
AcDbSpline
210
0.0
220
0.0
230
1.0
 70
     8
 71
     3
 72
    12
 73
     8
 74
     6
 42
0.0000000001
 43
0.0000000001
 44
0.0000000001
 40
0.0
 40
0.0
 40
0.0
 40
0.0
 40
1.912100706229078
 40
6.60923787225469
 40
9.571750189927033
 40
19.49460112019832
 40
24.19032132974273
 40
24.19032132974273
 40
24.19032132974273
 40
24.19032132974273
 10
479.5431706199061
 20
14.48100105639287
 30
0.0
 10
480.1817311994114
 20
14.49762343501962
 30
0.0
 10
482.388936474765
 20
14.55507922382249
 30
0.0
 10
485.4140869225515
 20
16.46431587342067
 30
0.0
 10
487.6747681490981
 20
21.9929826947407
 30
0.0
 10
487.4503689568014
 20
27.97925239605036
 30
0.0
 10
487.7520477792311
 20
32.83240338822611
 30
0.0
 10
487.8489518699061
 20
34.39131355639302
 30
0.0
 11
479.5431706199061
 21
14.48100105639287
 31
0.0
 11
481.4489460743518
 21
14.63640063166349
 31
0.0
 11
485.4223081481054
 21
17.14149372121436
 31
0.0
 11
486.6835691254161
 21
19.82210931832515
 31
0.0
 11
487.6086187195729
 21
29.70174766356513
 31
0.0
 11
487.8489518699061
 21
34.39131355639302
 31
0.0
  0
SPLINE
  5
D44F
330
D42C
100
AcDbEntity
  8
0
100
AcDbSpline
210
0.0
220
0.0
230
1.0
 70
     8
 71
     3
 72
    12
 73
     8
 74
     6
 42
0.0000000001
 43
0.0000000001
 44
0.0000000001
 40
0.0
 40
0.0
 40
0.0
 40
0.0
 40
1.912100706228908
 40
6.609237872254568
 40
9.571750189926959
 40
19.49460112019823
 40
24.19032132974264
 40
24.19032132974264
 40
24.19032132974264
 40
24.19032132974264
 10
476.4747331199061
 20
14.48100105639287
 30
0.0
 10
475.8361725404007
 20
14.49762343501963
 30
0.0
 10
473.6289672650476
 20
14.55507922382252
 30
0.0
 10
470.6038168172609
 20
16.46431587342069
 30
0.0
 10
468.343135590714
 20
21.99298269474062
 30
0.0
 10
468.5675347830109
 20
27.97925239605038
 30
0.0
 10
468.2658559605815
 20
32.83240338822611
 30
0.0
 10
468.1689518699063
 20
34.39131355639302
 30
0.0
 11
476.4747331199061
 21
14.48100105639287
 31
0.0
 11
474.5689576654607
 21
14.63640063166349
 31
0.0
 11
470.595595591707
 21
17.14149372121436
 31
0.0
 11
469.3343346143961
 21
19.82210931832515
 31
0.0
 11
468.4092850202396
 21
29.70174766356513
 31
0.0
 11
468.1689518699063
 21
34.39131355639302
 31
0.0
  0
LINE
  5
D450
330
D42C
100
AcDbEntity
  8
0
100
AcDbLine
 10
476.4747331199061
 20
14.48100105639287
 30
0.0
 11
479.5431706199061
 21
14.48100105639287
 31
0.0
  0
MTEXT
  5
D451
330
D42C
100
AcDbEntity
  8
0
100
AcDbMText
 10
459.872117335102
 20
45.54266326536843
 30
0.0
 40
9.0625
 41
6.814999999999998
 71
     1
 72
     5
  1
E
 73
     1
 44
1.0
1001
ACAD
1000
MTEXTBEGIN
1070
    73
1070
     1
1070
    44
1040
1.0
1070
    74
1070
     0
1000
MTEXTEND
  0
LINE
  5
D452
330
D42C
100
AcDbEntity
  8
0
100
AcDbLine
 10
468.1689518699057
 20
54.30162605639315
 30
0.0
 11
487.8489518699064
 21
54.30162605639292
 31
0.0
  0
ENDBLK
  5
D454
330
D42C
100
AcDbEntity
  8
0
100
AcDbBlockEnd
  0
BLOCK
  5
D634
330
D49B
100
AcDbEntity
  8
0
100
AcDbBlockBegin
  2
A$C5B843344
 70
     0
 10
0.0
 20
0.0
 30
0.0
  3
A$C5B843344
  1

  0
SPLINE
  5
D49C
330
D49B
100
AcDbEntity
  8
0
100
AcDbSpline
210
0.0
220
0.0
230
1.0
 70
    24
 71
     3
 72
     9
 73
     5
 74
     3
 42
0.0000000001
 43
0.0000000001
 44
0.0000000001
 40
0.0
 40
0.0
 40
0.0
 40
0.0
 40
3.789972542200501
 40
7.579945084400804
 40
7.579945084400804
 40
7.579945084400804
 40
7.579945084400804
 10
170.7780496742282
 20
391.539396527892
 30
0.0
 10
172.0413738549617
 20
391.5393965278921
 30
0.0
 10
174.5680222164286
 20
391.5393965278925
 30
0.0
 10
177.0946705778955
 20
391.5393965278921
 30
0.0
 10
178.357994758629
 20
391.539396527892
 30
0.0
 11
170.7780496742282
 21
391.539396527892
 31
0.0
 11
174.5680222164287
 21
391.5393965278923
 31
0.0
 11
178.357994758629
 21
391.539396527892
 31
0.0
  0
SPLINE
  5
D49D
330
D49B
100
AcDbEntity
  8
0
100
AcDbSpline
210
0.0
220
0.0
230
1.0
 70
    24
 71
     3
 72
     9
 73
     5
 74
     3
 42
0.0000000001
 43
0.0000000001
 44
0.0000000001
 40
0.0
 40
0.0
 40
0.0
 40
0.0
 40
3.789972542200274
 40
7.579945084400577
 40
7.579945084400577
 40
7.579945084400577
 40
7.579945084400577
 10
170.7780496742284
 20
293.9634590278922
 30
0.0
 10
172.0413738549618
 20
293.9634590278922
 30
0.0
 10
174.5680222164287
 20
293.9634590278923
 30
0.0
 10
177.0946705778956
 20
293.9634590278922
 30
0.0
 10
178.357994758629
 20
293.9634590278922
 30
0.0
 11
170.7780496742284
 21
293.9634590278922
 31
0.0
 11
174.5680222164287
 21
293.9634590278922
 31
0.0
 11
178.357994758629
 21
293.9634590278922
 31
0.0
  0
MTEXT
  5
D49E
330
D49B
100
AcDbEntity
  8
0
100
AcDbMText
 10
171.4674112807936
 20
265.9980964749645
 30
0.0
 40
18.125
 41
489.1212499999999
 71
     1
 72
     5
  1
sagome per il taglio
 73
     1
 44
1.0
1001
ACAD
1000
MTEXTBEGIN
1070
    73
1070
     1
1070
    44
1040
1.0
1070
    74
1070
     0
1000
MTEXTEND
  0
SPLINE
  5
D49F
330
D49B
100
AcDbEntity
  8
0
100
AcDbSpline
210
0.0
220
0.0
230
1.0
 70
     8
 71
     3
 72
    14
 73
    10
 74
     0
 42
0.0000000001
 43
0.0000000001
 40
3.453702967664137
 40
3.453702967664137
 40
3.453702967664137
 40
3.453702967664137
 40
18.31056725060762
 40
39.47086617275651
 40
50.82731382939821
 40
83.04924042202395
 40
115.6745372039088
 40
130.3217571674404
 40
142.72372309611
 40
142.72372309611
 40
142.72372309611
 40
142.72372309611
 10
72.3985777071066
 20
293.4151194557646
 30
0.0
 10
76.90204405323036
 20
293.4453496086164
 30
0.0
 10
87.64858526097304
 20
294.2125375087664
 30
0.0
 10
101.6879154784574
 20
301.197634626302
 30
0.0
 10
102.8621714571068
 20
325.8779813852914
 30
0.0
 10
102.8620308702943
 20
342.9536618049258
 30
0.0
 10
98.95692511365631
 20
368.3462485897496
 30
0.0
 10
82.55977349081057
 20
377.3493836448681
 30
0.0
 10
76.17690101913286
 20
378.1040077836649
 30
0.0
 10
72.3985777071066
 20
378.1041819557647
 30
0.0
  0
SPLINE
  5
D4A0
330
D49B
100
AcDbEntity
  8
0
100
AcDbSpline
210
0.0
220
0.0
230
1.0
 70
     8
 71
     3
 72
    13
 73
     9
 74
     7
 42
0.0000000001
 43
0.0000000001
 44
0.0000000001
 40
0.0
 40
0.0
 40
0.0
 40
0.0
 40
13.78947898278112
 40
17.36355531496989
 40
66.38680463446023
 40
103.5113006623877
 40
114.7243762852385
 40
131.3371433610319
 40
131.3371433610319
 40
131.3371433610319
 40
131.3371433610319
 10
170.7780496742284
 20
293.9634590278922
 30
0.0
 10
166.2029845423464
 20
294.0548101392246
 30
0.0
 10
160.4421144916201
 20
294.1698384210535
 30
0.0
 10
138.1850835339708
 20
298.0925806854766
 30
0.0
 10
140.3847893200621
 20
342.2545063207686
 30
0.0
 10
141.8244940600045
 20
371.4709308577773
 30
0.0
 10
154.9583770039324
 20
390.8134764799967
 30
0.0
 10
164.8640811990468
 20
391.2680212366184
 30
0.0
 10
170.7780496742284
 20
391.539396527892
 30
0.0
 11
170.7780496742284
 21
293.9634590278922
 31
0.0
 11
157.0147065145393
 21
294.8120553307369
 31
0.0
 11
153.5098816556474
 21
295.5122155529755
 31
0.0
 11
140.4050809242285
 21
342.7514277778921
 31
0.0
 11
147.5516767953613
 21
379.1815577911423
 31
0.0
 11
154.5613265131419
 21
387.9335790295643
 31
0.0
 11
170.7780496742284
 21
391.539396527892
 31
0.0
  0
SPLINE
  5
D4A1
330
D49B
100
AcDbEntity
  8
0
100
AcDbSpline
210
0.0
220
0.0
230
1.0
 70
     8
 71
     3
 72
    14
 73
    10
 74
     0
 42
0.0000000001
 43
0.0000000001
 40
3.453702967664137
 40
3.453702967664137
 40
3.453702967664137
 40
3.453702967664137
 40
18.31056725060762
 40
39.47086617275651
 40
50.82731382939821
 40
83.04924042202395
 40
115.6745372039088
 40
130.3217571674404
 40
142.72372309611
 40
142.72372309611
 40
142.72372309611
 40
142.72372309611
 10
63.64934213420746
 20
293.4151194557646
 30
0.0
 10
59.14587578808369
 20
293.4453496086164
 30
0.0
 10
48.39933458034103
 20
294.2125375087664
 30
0.0
 10
34.36000436285667
 20
301.197634626302
 30
0.0
 10
33.18574838420726
 20
325.8779813852914
 30
0.0
 10
33.18588897101972
 20
342.9536618049258
 30
0.0
 10
37.09099472765775
 20
368.3462485897496
 30
0.0
 10
53.48814635050349
 20
377.3493836448681
 30
0.0
 10
59.87101882218121
 20
378.1040077836649
 30
0.0
 10
63.64934213420746
 20
378.1041819557647
 30
0.0
  0
LINE
  5
D4A2
330
D49B
100
AcDbEntity
  8
0
100
AcDbLine
 10
68.02395992065794
 20
378.1041819557647
 30
0.0
 11
68.02395992065794
 21
293.4151194557646
 31
0.0
  0
SPLINE
  5
D4A3
330
D49B
100
AcDbEntity
  8
0
100
AcDbSpline
210
0.0
220
0.0
230
1.0
 70
    24
 71
     3
 72
     9
 73
     5
 74
     3
 42
0.0000000001
 43
0.0000000001
 44
0.0000000001
 40
0.0
 40
0.0
 40
0.0
 40
0.0
 40
4.374617786450478
 40
8.749235572900936
 40
8.749235572900936
 40
8.749235572900936
 40
8.749235572900936
 10
63.64934213420746
 20
293.4151194557646
 30
0.0
 10
65.10754806302429
 20
293.4151194557646
 30
0.0
 10
68.02395992065793
 20
293.4151194557646
 30
0.0
 10
70.94037177829157
 20
293.4151194557646
 30
0.0
 10
72.3985777071084
 20
293.4151194557646
 30
0.0
 11
63.64934213420746
 21
293.4151194557646
 31
0.0
 11
68.02395992065794
 21
293.4151194557646
 31
0.0
 11
72.3985777071084
 21
293.4151194557646
 31
0.0
  0
MTEXT
  5
D4A4
330
D49B
100
AcDbEntity
  8
0
100
AcDbMText
 10
50.23480369191521
 20
338.95778192088
 30
0.0
 40
9.0625
 41
6.814999999999998
 71
     1
 72
     5
  1
A
 73
     1
 44
1.0
1001
ACAD
1000
MTEXTBEGIN
1070
    73
1070
     1
1070
    44
1040
1.0
1070
    74
1070
     0
1000
MTEXTEND
  0
SPLINE
  5
D4A5
330
D49B
100
AcDbEntity
  8
0
100
AcDbSpline
210
0.0
220
0.0
230
1.0
 70
    24
 71
     3
 72
     9
 73
     5
 74
     3
 42
0.0000000001
 43
0.0000000001
 44
0.0000000001
 40
0.0
 40
0.0
 40
0.0
 40
0.0
 40
4.374617786450926
 40
8.749235572901866
 40
8.749235572901866
 40
8.749235572901866
 40
8.749235572901866
 10
63.64934213420702
 20
378.1041819557647
 30
0.0
 10
65.107548063024
 20
378.1041819557647
 30
0.0
 10
68.02395992065794
 20
378.1041819557647
 30
0.0
 10
70.9403717782919
 20
378.1041819557647
 30
0.0
 10
72.39857770710888
 20
378.1041819557647
 30
0.0
 11
63.64934213420702
 21
378.1041819557647
 31
0.0
 11
68.02395992065794
 21
378.1041819557647
 31
0.0
 11
72.39857770710888
 21
378.1041819557647
 31
0.0
  0
MTEXT
  5
D4A6
330
D49B
100
AcDbEntity
  8
0
100
AcDbMText
 10
157.0524723287872
 20
338.95778192088
 30
0.0
 40
9.0625
 41
6.814999999999998
 71
     1
 72
     5
  1
B
 73
     1
 44
1.0
1001
ACAD
1000
MTEXTBEGIN
1070
    73
1070
     1
1070
    44
1040
1.0
1070
    74
1070
     0
1000
MTEXTEND
  0
SPLINE
  5
D4A7
330
D49B
100
AcDbEntity
  8
0
100
AcDbSpline
210
0.0
220
0.0
230
1.0
 70
     8
 71
     3
 72
    13
 73
     9
 74
     7
 42
0.0000000001
 43
0.0000000001
 44
0.0000000001
 40
0.0
 40
0.0
 40
0.0
 40
0.0
 40
13.78947898278121
 40
17.36355531496989
 40
66.38680463446026
 40
103.5113006623878
 40
114.7243762852386
 40
131.337143361032
 40
131.337143361032
 40
131.337143361032
 40
131.337143361032
 10
178.357994758629
 20
293.9634590278922
 30
0.0
 10
182.933059890511
 20
294.0548101392246
 30
0.0
 10
188.6939299412373
 20
294.1698384210534
 30
0.0
 10
210.9509608988866
 20
298.0925806854767
 30
0.0
 10
208.7512551127953
 20
342.2545063207684
 30
0.0
 10
207.311550372853
 20
371.4709308577774
 30
0.0
 10
194.1776674289249
 20
390.8134764799967
 30
0.0
 10
184.2719632338106
 20
391.2680212366184
 30
0.0
 10
178.357994758629
 20
391.539396527892
 30
0.0
 11
178.357994758629
 21
293.9634590278922
 31
0.0
 11
192.1213379183182
 21
294.8120553307369
 31
0.0
 11
195.62616277721
 21
295.5122155529755
 31
0.0
 11
208.730963508629
 21
342.7514277778921
 31
0.0
 11
201.5843676374962
 21
379.1815577911423
 31
0.0
 11
194.5747179197155
 21
387.9335790295643
 31
0.0
 11
178.357994758629
 21
391.539396527892
 31
0.0
  0
LINE
  5
D4A8
330
D49B
100
AcDbEntity
  8
0
100
AcDbLine
 10
174.5680222164287
 20
293.9634590278922
 30
0.0
 11
174.5680222164287
 21
391.5393965278923
 31
0.0
  0
LINE
  5
D4A9
330
D49B
100
AcDbEntity
  8
0
100
AcDbLine
 10
311.8389476437664
 20
398.6270994618842
 30
0.0
 11
323.3958752713795
 21
354.1532017108821
 31
0.0
  0
LINE
  5
D4AA
330
D49B
100
AcDbEntity
  8
0
100
AcDbLine
 10
292.8844646995697
 20
302.0842869618839
 30
0.0
 11
326.171930526453
 21
303.5434150549343
 31
0.0
  0
LINE
  5
D4AB
330
D49B
100
AcDbEntity
  8
0
100
AcDbLine
 10
273.9299817553729
 20
398.6270994618842
 30
0.0
 11
262.3730541277598
 21
354.1532017108821
 31
0.0
  0
LINE
  5
D4AC
330
D49B
100
AcDbEntity
  8
0
100
AcDbLine
 10
292.8844646995697
 20
398.6270994618842
 30
0.0
 11
292.8844646995697
 21
381.2814744618842
 31
0.0
  0
SPLINE
  5
D4AD
330
D49B
100
AcDbEntity
  8
0
100
AcDbSpline
210
0.0
220
0.0
230
1.0
 70
     8
 71
     3
 72
     9
 73
     5
 74
     0
 42
0.0000000001
 43
0.0000000001
 40
47.82155173508804
 40
47.82155173508804
 40
47.82155173508804
 40
47.82155173508804
 40
73.38225217378213
 40
102.105606092669
 40
102.105606092669
 40
102.105606092669
 40
102.105606092669
 10
259.6239354516078
 20
303.3783844869547
 30
0.0
 10
258.1707896977839
 20
312.2235204868468
 30
0.0
 10
258.4801390611838
 20
329.9556730559941
 30
0.0
 10
260.1941176644154
 20
345.7681187027331
 30
0.0
 10
262.3730541277601
 20
354.1532017108827
 30
0.0
  0
LINE
  5
D4AE
330
D49B
100
AcDbEntity
  8
0
100
AcDbLine
 10
292.8844646995697
 20
381.2814744618842
 30
0.0
 11
292.8844646995697
 21
303.171786961884
 31
0.0
  0
MTEXT
  5
D4AF
330
D49B
100
AcDbEntity
  8
0
100
AcDbMText
 10
276.1560704936905
 20
338.95778192088
 30
0.0
 40
9.0625
 41
6.814999999999998
 71
     1
 72
     5
  1
C
 73
     1
 44
1.0
1001
ACAD
1000
MTEXTBEGIN
1070
    73
1070
     1
1070
    44
1040
1.0
1070
    74
1070
     0
1000
MTEXTEND
  0
LINE
  5
D4B0
330
D49B
100
AcDbEntity
  8
0
100
AcDbLine
 10
292.8844646995697
 20
302.0842869618839
 30
0.0
 11
259.5969988726863
 21
303.5434150549343
 31
0.0
  0
LINE
  5
D4B1
330
D49B
100
AcDbEntity
  8
0
100
AcDbLine
 10
292.8844646995697
 20
303.171786961884
 30
0.0
 11
292.8844646995697
 21
302.0842869618841
 31
0.0
  0
LINE
  5
D4B2
330
D49B
100
AcDbEntity
  8
0
100
AcDbLine
 10
292.8844646995697
 20
398.6270994618842
 30
0.0
 11
273.9299817553729
 21
398.6270994618842
 31
0.0
  0
LINE
  5
D4B3
330
D49B
100
AcDbEntity
  8
0
100
AcDbLine
 10
292.8844646995697
 20
398.6270994618842
 30
0.0
 11
311.8389476437664
 21
398.6270994618842
 31
0.0
  0
SPLINE
  5
D4B4
330
D49B
100
AcDbEntity
  8
0
100
AcDbSpline
210
0.0
220
0.0
230
1.0
 70
     8
 71
     3
 72
    14
 73
    10
 74
     0
 42
0.0000000001
 43
0.0000000001
 40
16.54510751683757
 40
16.54510751683757
 40
16.54510751683757
 40
16.54510751683757
 40
36.78273726220222
 40
50.97190057865379
 40
72.7299093971624
 40
145.6147639318531
 40
169.3154693965375
 40
182.5726745734737
 40
188.8224542584972
 40
188.8224542584972
 40
188.8224542584972
 40
188.8224542584972
 10
421.9739863749591
 20
300.8455248000098
 30
0.0
 10
427.0799901906657
 20
300.6743916375692
 30
0.0
 10
435.801908163211
 20
302.480355461744
 30
0.0
 10
446.1922914972777
 20
307.7416673825585
 30
0.0
 10
446.8853653228067
 20
336.4634499444307
 30
0.0
 10
446.1990344669722
 20
364.8334094143954
 30
0.0
 10
437.4943741637813
 20
392.8836157588642
 30
0.0
 10
428.5933103675089
 20
399.6260926685488
 30
0.0
 10
423.5787682520927
 20
399.9353864281509
 30
0.0
 10
421.9739863749591
 20
399.9328436503732
 30
0.0
  0
LINE
  5
D4B5
330
D49B
100
AcDbEntity
  8
0
100
AcDbLine
 10
417.4220577481285
 20
399.9328436503733
 30
0.0
 11
417.4220577481286
 21
300.8455248000098
 31
0.0
  0
SPLINE
  5
D4B6
330
D49B
100
AcDbEntity
  8
0
100
AcDbSpline
210
0.0
220
0.0
230
1.0
 70
     8
 71
     3
 72
    14
 73
    10
 74
     0
 42
0.0000000001
 43
0.0000000001
 40
16.54510751683757
 40
16.54510751683757
 40
16.54510751683757
 40
16.54510751683757
 40
36.78273726220222
 40
50.97190057865379
 40
72.7299093971624
 40
145.6147639318531
 40
169.3154693965375
 40
182.5726745734737
 40
188.8224542584972
 40
188.8224542584972
 40
188.8224542584972
 40
188.8224542584972
 10
412.8701291212978
 20
300.8455248000098
 30
0.0
 10
407.7641253055912
 20
300.6743916375692
 30
0.0
 10
399.042207333046
 20
302.480355461744
 30
0.0
 10
388.6518239989793
 20
307.7416673825585
 30
0.0
 10
387.9587501734501
 20
336.4634499444307
 30
0.0
 10
388.6450810292847
 20
364.8334094143954
 30
0.0
 10
397.3497413324757
 20
392.8836157588642
 30
0.0
 10
406.2508051287478
 20
399.6260926685488
 30
0.0
 10
411.2653472441643
 20
399.9353864281509
 30
0.0
 10
412.8701291212978
 20
399.9328436503732
 30
0.0
  0
SPLINE
  5
D4B7
330
D49B
100
AcDbEntity
  8
0
100
AcDbSpline
210
0.0
220
0.0
230
1.0
 70
     8
 71
     3
 72
     9
 73
     5
 74
     0
 42
0.0000000001
 43
0.0000000001
 40
47.82155173508804
 40
47.82155173508804
 40
47.82155173508804
 40
47.82155173508804
 40
73.38225217378213
 40
102.105606092669
 40
102.105606092669
 40
102.105606092669
 40
102.105606092669
 10
326.1449939475316
 20
303.3783844869547
 30
0.0
 10
327.5981397013554
 20
312.2235204868468
 30
0.0
 10
327.2887903379555
 20
329.9556730559941
 30
0.0
 10
325.5748117347239
 20
345.7681187027331
 30
0.0
 10
323.3958752713793
 20
354.1532017108827
 30
0.0
  0
SPLINE
  5
D4B8
330
D49B
100
AcDbEntity
  8
0
100
AcDbSpline
210
0.0
220
0.0
230
1.0
 70
    24
 71
     3
 72
     9
 73
     5
 74
     3
 42
0.0000000001
 43
0.0000000001
 44
0.0000000001
 40
0.0
 40
0.0
 40
0.0
 40
0.0
 40
4.551928626830829
 40
9.10385725366126
 40
9.10385725366126
 40
9.10385725366126
 40
9.10385725366126
 10
412.8701291212978
 20
300.8455248000098
 30
0.0
 10
414.3874386635748
 20
300.8455248000098
 30
0.0
 10
417.4220577481285
 20
300.8455248000098
 30
0.0
 10
420.4566768326822
 20
300.8455248000098
 30
0.0
 10
421.9739863749591
 20
300.8455248000098
 30
0.0
 11
412.8701291212978
 21
300.8455248000098
 31
0.0
 11
417.4220577481286
 21
300.8455248000098
 31
0.0
 11
421.9739863749591
 21
300.8455248000098
 31
0.0
  0
MTEXT
  5
D4B9
330
D49B
100
AcDbEntity
  8
0
100
AcDbMText
 10
403.0493964547869
 20
338.95778192088
 30
0.0
 40
9.0625
 41
6.814999999999998
 71
     1
 72
     5
  1
D
 73
     1
 44
1.0
1001
ACAD
1000
MTEXTBEGIN
1070
    73
1070
     1
1070
    44
1040
1.0
1070
    74
1070
     0
1000
MTEXTEND
  0
SPLINE
  5
D4BA
330
D49B
100
AcDbEntity
  8
0
100
AcDbSpline
210
0.0
220
0.0
230
1.0
 70
    24
 71
     3
 72
     9
 73
     5
 74
     3
 42
0.0000000001
 43
0.0000000001
 44
0.0000000001
 40
0.0
 40
0.0
 40
0.0
 40
0.0
 40
4.551928626830658
 40
9.10385725366126
 40
9.10385725366126
 40
9.10385725366126
 40
9.10385725366126
 10
412.8701291212978
 20
399.9328436503729
 30
0.0
 10
414.3874386635747
 20
399.9328436503731
 30
0.0
 10
417.4220577481285
 20
399.9328436503736
 30
0.0
 10
420.4566768326822
 20
399.9328436503731
 30
0.0
 10
421.9739863749591
 20
399.9328436503729
 30
0.0
 11
412.8701291212978
 21
399.9328436503729
 31
0.0
 11
417.4220577481285
 21
399.9328436503733
 31
0.0
 11
421.9739863749591
 21
399.9328436503729
 31
0.0
  0
LINE
  5
D4BB
330
D49B
100
AcDbEntity
  8
0
100
AcDbLine
 10
521.1773158325268
 20
327.8064322119046
 30
0.0
 11
521.1773158325268
 21
347.7167447119048
 31
0.0
  0
LINE
  5
D4BC
330
D49B
100
AcDbEntity
  8
0
100
AcDbLine
 10
501.4973158325268
 20
327.8064322119046
 30
0.0
 11
501.4973158325268
 21
347.7167447119048
 31
0.0
  0
LINE
  5
D4BD
330
D49B
100
AcDbEntity
  8
0
100
AcDbLine
 10
511.3373158325267
 20
307.8961197119045
 30
0.0
 11
511.3373158325267
 21
347.7167447119048
 31
0.0
  0
SPLINE
  5
D4BE
330
D49B
100
AcDbEntity
  8
0
100
AcDbSpline
210
0.0
220
0.0
230
1.0
 70
     8
 71
     3
 72
    12
 73
     8
 74
     6
 42
0.0000000001
 43
0.0000000001
 44
0.0000000001
 40
0.0
 40
0.0
 40
0.0
 40
0.0
 40
1.912100706229027
 40
6.609237872254611
 40
9.571750189927048
 40
19.49460112019822
 40
24.19032132974268
 40
24.19032132974268
 40
24.19032132974268
 40
24.19032132974268
 10
512.8715345825268
 20
307.8961197119045
 30
0.0
 10
513.5100951620321
 20
307.9127420905312
 30
0.0
 10
515.7173004373853
 20
307.9701978793342
 30
0.0
 10
518.742450885172
 20
309.8794345289323
 30
0.0
 10
521.0031321117189
 20
315.4081013502523
 30
0.0
 10
520.7787329194221
 20
321.394371051562
 30
0.0
 10
521.0804117418517
 20
326.2475220437377
 30
0.0
 10
521.1773158325268
 20
327.8064322119046
 30
0.0
 11
512.8715345825268
 21
307.8961197119045
 31
0.0
 11
514.7773100369724
 21
308.0515192871752
 31
0.0
 11
518.750672110726
 21
310.556612376726
 31
0.0
 11
520.0119330880368
 21
313.2372279738368
 31
0.0
 11
520.9369826821935
 21
323.1168663190767
 31
0.0
 11
521.1773158325268
 21
327.8064322119046
 31
0.0
  0
SPLINE
  5
D4BF
330
D49B
100
AcDbEntity
  8
0
100
AcDbSpline
210
0.0
220
0.0
230
1.0
 70
     8
 71
     3
 72
    12
 73
     8
 74
     6
 42
0.0000000001
 43
0.0000000001
 44
0.0000000001
 40
0.0
 40
0.0
 40
0.0
 40
0.0
 40
1.91210070622897
 40
6.609237872254507
 40
9.571750189926943
 40
19.4946011201981
 40
24.19032132974257
 40
24.19032132974257
 40
24.19032132974257
 40
24.19032132974257
 10
509.8030970825267
 20
307.8961197119045
 30
0.0
 10
509.1645365030213
 20
307.9127420905312
 30
0.0
 10
506.9573312276681
 20
307.9701978793342
 30
0.0
 10
503.9321807798814
 20
309.8794345289324
 30
0.0
 10
501.6714995533349
 20
315.4081013502523
 30
0.0
 10
501.8958987456319
 20
321.3943710515621
 30
0.0
 10
501.594219923202
 20
326.2475220437377
 30
0.0
 10
501.4973158325268
 20
327.8064322119046
 30
0.0
 11
509.8030970825267
 21
307.8961197119045
 31
0.0
 11
507.8973216280813
 21
308.0515192871752
 31
0.0
 11
503.9239595543277
 21
310.556612376726
 31
0.0
 11
502.6626985770168
 21
313.2372279738368
 31
0.0
 11
501.7376489828603
 21
323.1168663190767
 31
0.0
 11
501.4973158325268
 21
327.8064322119046
 31
0.0
  0
LINE
  5
D4C0
330
D49B
100
AcDbEntity
  8
0
100
AcDbLine
 10
509.8030970825267
 20
307.8961197119045
 30
0.0
 11
512.8715345825268
 21
307.8961197119045
 31
0.0
  0
MTEXT
  5
D4C1
330
D49B
100
AcDbEntity
  8
0
100
AcDbMText
 10
493.2004812977226
 20
338.95778192088
 30
0.0
 40
9.0625
 41
6.814999999999998
 71
     1
 72
     5
  1
E
 73
     1
 44
1.0
1001
ACAD
1000
MTEXTBEGIN
1070
    73
1070
     1
1070
    44
1040
1.0
1070
    74
1070
     0
1000
MTEXTEND
  0
LINE
  5
D4C2
330
D49B
100
AcDbEntity
  8
0
100
AcDbLine
 10
501.4973158325264
 20
347.7167447119048
 30
0.0
 11
521.177315832527
 21
347.7167447119045
 31
0.0
  0
LINE
  5
D4C3
330
D49B
100
AcDbEntity
  8
0
100
AcDbLine
 10
135.6229499895797
 20
72.30214176242725
 30
0.0
 11
335.1540405405835
 21
72.30214176242725
 31
0.0
  0
LINE
  5
D4C4
330
D49B
100
AcDbEntity
  8
0
100
AcDbLine
 10
135.6229499895797
 20
1.559946488718196
 30
0.0
 11
335.1540405405835
 21
1.559946488718196
 31
0.0
  0
LINE
  5
D4C5
330
D49B
100
AcDbEntity
  8
7
  6
Continuous
100
AcDbLine
 10
174.5610149982351
 20
123.7921049321637
 30
0.0
 11
174.1328037247192
 21
123.7108488521062
 31
0.0
  0
LINE
  5
D4C6
330
D49B
100
AcDbEntity
  8
0
100
AcDbLine
 10
219.2843395964423
 20
204.8607146774811
 30
0.0
 11
43.5260186352557
 21
195.8489719031051
 31
0.0
  0
SPLINE
  5
D4C7
330
D49B
100
AcDbEntity
  8
0
100
AcDbSpline
210
0.0
220
0.0
230
1.0
 70
     8
 71
     3
 72
     9
 73
     5
 74
     0
 42
0.0000000001
 43
0.0000000001
 40
0.0
 40
0.0
 40
0.0
 40
0.0
 40
26.14817534588262
 40
52.36284729549083
 40
52.36284729549083
 40
52.36284729549083
 40
52.36284729549083
 10
43.95312762569846
 20
111.182729062258
 30
0.0
 10
36.37291999481295
 20
112.6922088979161
 30
0.0
 10
21.19322774502052
 20
115.7150072800075
 30
0.0
 10
4.715443610802593
 20
122.3863261307825
 30
0.0
 10
0.0000026256975616
 20
128.5205203767857
 30
0.0
  0
LINE
  5
D4C8
330
D49B
100
AcDbEntity
  8
7
  6
Continuous
100
AcDbLine
 10
152.9701629789624
 20
115.9255606311346
 30
0.0
 11
152.8800806263139
 21
115.843609379576
 31
0.0
  0
SPLINE
  5
D4C9
330
D49B
100
AcDbEntity
  8
0
100
AcDbSpline
210
0.0
220
0.0
230
1.0
 70
     8
 71
     3
 72
    36
 73
    32
 74
     0
 42
0.0000000001
 43
0.0000000001
 40
68.67201936275447
 40
68.67201936275447
 40
68.67201936275447
 40
68.67201936275447
 40
69.74900414529479
 40
69.74900414529479
 40
71.95370618927189
 40
71.95370618927189
 40
74.15840823324895
 40
74.15840823324895
 40
75.47259767790676
 40
75.47259767790676
 40
76.86080320211622
 40
76.86080320211622
 40
78.24900872632565
 40
78.24900872632565
 40
81.02541977474453
 40
81.02541977474453
 40
86.57824187158231
 40
86.57824187158231
 40
97.68388606525784
 40
97.68388606525784
 40
125.1881552805495
 40
125.1881552805495
 40
151.8005459127295
 40
151.8005459127295
 40
178.4129365449094
 40
178.4129365449094
 40
205.0253271770894
 40
205.0253271770894
 40
278.2290279184771
 40
278.2290279184771
 40
366.6531368531072
 40
366.6531368531072
 40
366.6531368531072
 40
366.6531368531072
 10
0.0000026256980163
 20
62.79991977599205
 30
0.0
 10
0.4401523932383499
 20
63.02700242757078
 30
0.0
 10
0.8441164814953481
 20
63.23143205162773
 30
0.0
 10
1.984026348751739
 20
63.79626878884096
 30
0.0
 10
2.625647502955416
 20
64.09637711169171
 30
0.0
 10
3.761227740059438
 20
64.59227866122342
 30
0.0
 10
4.258412540480094
 20
64.78848383977515
 30
0.0
 10
4.960183532786231
 20
65.04193268647487
 30
0.0
 10
5.199992902541453
 20
65.12282562451059
 30
0.0
 10
5.639818846192611
 20
65.26657709138158
 30
0.0
 10
5.8296561442653
 20
65.32652354113905
 30
0.0
 10
6.22165439334003
 20
65.45042829005343
 30
0.0
 10
6.417749460051709
 20
65.51186237732053
 30
0.0
 10
7.006362599080147
 20
65.69463436374554
 30
0.0
 10
7.39920857823472
 20
65.81444192882281
 30
0.0
 10
8.579380029655112
 20
66.16794215144228
 30
0.0
 10
9.368338207691524
 20
66.39571143048602
 30
0.0
 10
11.74434234402906
 20
67.05695040510341
 30
0.0
 10
13.34003087831752
 20
67.46822430418479
 30
0.0
 10
18.91996260626911
 20
68.80400479202581
 30
0.0
 10
22.95261267622255
 20
69.58952249404046
 30
0.0
 10
30.9556976284689
 20
70.88906572522387
 30
0.0
 10
34.92520476086065
 20
71.411505895657
 30
0.0
 10
42.88487275796295
 20
72.29529213474006
 30
0.0
 10
46.87036904695924
 20
72.65966290846041
 30
0.0
 10
54.84729498751541
 20
73.25521071808474
 30
0.0
 10
58.83829858961689
 20
73.48519696671973
 30
0.0
 10
73.81879105806638
 20
74.12813884848538
 30
0.0
 10
84.82723561945112
 20
74.15581776722729
 30
0.0
 10
109.173244344729
 20
73.64739695558114
 30
0.0
 10
122.5185240742526
 20
72.99386642634907
 30
0.0
 10
135.8839178382086
 20
72.29532669611308
 30
0.0
  0
SPLINE
  5
D4CA
330
D49B
100
AcDbEntity
  8
0
100
AcDbSpline
210
0.0
220
0.0
230
1.0
 70
     8
 71
     3
 72
    36
 73
    32
 74
     0
 42
0.0000000001
 43
0.0000000001
 40
68.67201936275447
 40
68.67201936275447
 40
68.67201936275447
 40
68.67201936275447
 40
69.74900414529479
 40
69.74900414529479
 40
71.95370618927189
 40
71.95370618927189
 40
74.15840823324895
 40
74.15840823324895
 40
75.47259767790676
 40
75.47259767790676
 40
76.86080320211447
 40
76.86080320211447
 40
78.24900872632216
 40
78.24900872632216
 40
81.02541977473753
 40
81.02541977473753
 40
86.57824187156831
 40
86.57824187156831
 40
97.68388606522982
 40
97.68388606522982
 40
125.1881553045502
 40
125.1881553045502
 40
151.8005459369264
 40
151.8005459369264
 40
178.4129365693027
 40
178.4129365693027
 40
205.025327201679
 40
205.025327201679
 40
278.2290276815458
 40
278.2290276815458
 40
366.6531368531072
 40
366.6531368531072
 40
366.6531368531072
 40
366.6531368531072
 10
0.0000026256980163
 20
11.06216847515361
 30
0.0
 10
0.4401523932383499
 20
10.8350858235749
 30
0.0
 10
0.8441164814953481
 20
10.63065619951794
 30
0.0
 10
1.984026348751739
 20
10.06581946230471
 30
0.0
 10
2.625647502955416
 20
9.765711139453966
 30
0.0
 10
3.761227740059438
 20
9.26980958992226
 30
0.0
 10
4.258412540480094
 20
9.073604411370522
 30
0.0
 10
4.960183532786231
 20
8.820155564670812
 30
0.0
 10
5.199992902541453
 20
8.739262626635079
 30
0.0
 10
5.639818846192156
 20
8.595511159764326
 30
0.0
 10
5.829656144264844
 20
8.535564710006838
 30
0.0
 10
6.221654393339122
 20
8.411659961092709
 30
0.0
 10
6.417749460050798
 20
8.350225873825365
 30
0.0
 10
7.006362599078328
 20
8.167453887400597
 30
0.0
 10
7.399208578232445
 20
8.047646322323544
 30
0.0
 10
8.579380029651018
 20
7.694146099704312
 30
0.0
 10
9.368338207686974
 20
7.466376820661024
 30
0.0
 10
11.74434234402088
 20
6.805137846044317
 30
0.0
 10
13.34003087830706
 20
6.393863946962937
 30
0.0
 10
18.91996260973019
 20
5.058083458290183
 30
0.0
 10
22.95261268325567
 20
4.272565755734376
 30
0.0
 10
30.95569763920548
 20
2.973022524398629
 30
0.0
 10
34.92520477167091
 20
2.450582354138759
 30
0.0
 10
42.88487276886463
 20
1.566796115344003
 30
0.0
 10
46.87036905789181
 20
1.202425341744628
 30
0.0
 10
54.84729499851801
 20
0.6068775323642514
 30
0.0
 10
58.83829860065315
 20
0.3768912838434062
 30
0.0
 10
73.81879102990388
 20
-0.2660505958324393
 30
0.0
 10
84.82723555189204
 20
-0.2937295158271809
 30
0.0
 10
109.1732442732118
 20
0.2146912920593422
 30
0.0
 10
122.5185240384403
 20
0.8682218229248519
 30
0.0
 10
135.8839178382086
 20
1.566761555032599
 30
0.0
  0
LINE
  5
D4CB
330
D49B
100
AcDbEntity
  8
0
100
AcDbLine
 10
0.0000026256984711
 20
36.93104412557364
 30
0.0
 11
0.0000026256984711
 21
16.7184905938393
 31
0.0
  0
LINE
  5
D4CC
330
D49B
100
AcDbEntity
  8
0
100
AcDbLine
 10
0.0000026256984711
 20
62.79991977599184
 30
0.0
 11
0.0000026256984711
 21
11.06216847515384
 31
0.0
  0
LINE
  5
D4CD
330
D49B
100
AcDbEntity
  8
0
100
AcDbLine
 10
0.0000026256984711
 20
36.93104412557273
 30
0.0
 11
0.0000026256984711
 21
57.14359765730796
 31
0.0
  0
LINE
  5
D4CE
330
D49B
100
AcDbEntity
  8
0
100
AcDbLine
 10
0.0000026256984711
 20
36.93104412557273
 30
0.0
 11
0.0000026256984711
 21
57.14359765730796
 31
0.0
  0
SPLINE
  5
D4CF
330
D49B
100
AcDbEntity
  8
0
100
AcDbSpline
210
0.0
220
0.0
230
1.0
 70
     8
 71
     3
 72
     9
 73
     5
 74
     0
 42
0.0000000001
 43
0.0000000001
 40
61.31410496280631
 40
61.31410496280631
 40
61.31410496280631
 40
61.31410496280631
 40
75.37361313311109
 40
179.2146857983096
 40
179.2146857983096
 40
179.2146857983096
 40
179.2146857983096
 10
43.95312762569846
 20
111.182729062258
 30
0.0
 10
48.16885624508905
 20
110.5128561085687
 30
0.0
 10
83.67875428833759
 20
105.6294717817338
 30
0.0
 10
119.2123592507037
 20
103.8924957284009
 30
0.0
 10
150.5466182342534
 20
103.0065149427116
 30
0.0
  0
LINE
  5
D4D0
330
D49B
100
AcDbEntity
  8
7
  6
Continuous
100
AcDbLine
 10
150.4978168936304
 20
111.8690765510284
 30
0.0
 11
150.4997044119036
 21
111.8372975016734
 31
0.0
  0
LINE
  5
D4D1
330
D49B
100
AcDbEntity
  8
7
  6
Continuous
100
AcDbLine
 10
150.496859037667
 20
111.9017378169744
 30
0.0
 11
150.4978168936304
 21
111.8690765510284
 31
0.0
  0
LINE
  5
D4D2
330
D49B
100
AcDbEntity
  8
7
  6
Continuous
100
AcDbLine
 10
150.4968545668744
 20
111.9361872389622
 30
0.0
 11
150.496859037667
 21
111.9017378169744
 31
0.0
  0
LINE
  5
D4D3
330
D49B
100
AcDbEntity
  8
7
  6
Continuous
100
AcDbLine
 10
150.4968500960804
 20
111.9706366609505
 30
0.0
 11
150.4968545668744
 21
111.9361872389622
 31
0.0
  0
LINE
  5
D4D4
330
D49B
100
AcDbEntity
  8
7
  6
Continuous
100
AcDbLine
 10
150.4990563220053
 20
112.0548890298717
 30
0.0
 11
150.4968500960804
 21
111.9706366609505
 31
0.0
  0
LINE
  5
D4D5
330
D49B
100
AcDbEntity
  8
7
  6
Continuous
100
AcDbLine
 10
150.501195850145
 20
112.1019741584514
 30
0.0
 11
150.4990563220053
 21
112.0548890298717
 31
0.0
  0
LINE
  5
D4D6
330
D49B
100
AcDbEntity
  8
7
  6
Continuous
100
AcDbLine
 10
150.5042650405944
 20
112.149941503623
 30
0.0
 11
150.501195850145
 21
112.1019741584514
 31
0.0
  0
LINE
  5
D4D7
330
D49B
100
AcDbEntity
  8
7
  6
Continuous
100
AcDbLine
 10
150.5073342310447
 20
112.1979088487947
 30
0.0
 11
150.5042650405944
 21
112.149941503623
 31
0.0
  0
LINE
  5
D4D8
330
D49B
100
AcDbEntity
  8
7
  6
Continuous
100
AcDbLine
 10
150.5113093609452
 20
112.245852471106
 30
0.0
 11
150.5073342310447
 21
112.1979088487947
 31
0.0
  0
LINE
  5
D4D9
330
D49B
100
AcDbEntity
  8
7
  6
Continuous
100
AcDbLine
 10
150.5152844908461
 20
112.2937960934177
 30
0.0
 11
150.5113093609452
 21
112.245852471106
 31
0.0
  0
LINE
  5
D4DA
330
D49B
100
AcDbEntity
  8
7
  6
Continuous
100
AcDbLine
 10
150.5201892830569
 20
112.3426219323216
 30
0.0
 11
150.5152844908461
 21
112.2937960934177
 31
0.0
  0
LINE
  5
D4DB
330
D49B
100
AcDbEntity
  8
7
  6
Continuous
100
AcDbLine
 10
150.5260000147182
 20
112.3914240483659
 30
0.0
 11
150.5201892830569
 21
112.3426219323216
 31
0.0
  0
LINE
  5
D4DC
330
D49B
100
AcDbEntity
  8
7
  6
Continuous
100
AcDbLine
 10
150.5318107463804
 20
112.4402261644095
 30
0.0
 11
150.5260000147182
 21
112.3914240483659
 31
0.0
  0
LINE
  5
D4DD
330
D49B
100
AcDbEntity
  8
7
  6
Continuous
100
AcDbLine
 10
150.5385274174928
 20
112.4890045575944
 30
0.0
 11
150.5318107463804
 21
112.4402261644095
 31
0.0
  0
LINE
  5
D4DE
330
D49B
100
AcDbEntity
  8
7
  6
Continuous
100
AcDbLine
 10
150.5461500280553
 20
112.5377592279194
 30
0.0
 11
150.5385274174928
 21
112.4890045575944
 31
0.0
  0
LINE
  5
D4DF
330
D49B
100
AcDbEntity
  8
7
  6
Continuous
100
AcDbLine
 10
150.5537726386187
 20
112.5865138982447
 30
0.0
 11
150.5461500280553
 21
112.5377592279194
 31
0.0
  0
LINE
  5
D4E0
330
D49B
100
AcDbEntity
  8
7
  6
Continuous
100
AcDbLine
 10
150.5623011886328
 20
112.6352448457103
 30
0.0
 11
150.5537726386187
 21
112.5865138982447
 31
0.0
  0
LINE
  5
D4E1
330
D49B
100
AcDbEntity
  8
7
  6
Continuous
100
AcDbLine
 10
150.5717356780974
 20
112.6839520703167
 30
0.0
 11
150.5623011886328
 21
112.6352448457103
 31
0.0
  0
LINE
  5
D4E2
330
D49B
100
AcDbEntity
  8
7
  6
Continuous
100
AcDbLine
 10
150.581170167562
 20
112.732659294923
 30
0.0
 11
150.5717356780974
 21
112.6839520703167
 31
0.0
  0
LINE
  5
D4E3
330
D49B
100
AcDbEntity
  8
7
  6
Continuous
100
AcDbLine
 10
150.5915105964773
 20
112.7813427966703
 30
0.0
 11
150.581170167562
 21
112.732659294923
 31
0.0
  0
LINE
  5
D4E4
330
D49B
100
AcDbEntity
  8
7
  6
Continuous
100
AcDbLine
 10
150.601851025393
 20
112.8300262984171
 30
0.0
 11
150.5915105964773
 21
112.7813427966703
 31
0.0
  0
LINE
  5
D4E5
330
D49B
100
AcDbEntity
  8
7
  6
Continuous
100
AcDbLine
 10
150.6130736709001
 20
112.8777801378535
 30
0.0
 11
150.601851025393
 21
112.8300262984171
 31
0.0
  0
LINE
  5
D4E6
330
D49B
100
AcDbEntity
  8
7
  6
Continuous
100
AcDbLine
 10
150.6252022558569
 20
112.9255102544309
 30
0.0
 11
150.6130736709001
 21
112.8777801378535
 31
0.0
  0
LINE
  5
D4E7
330
D49B
100
AcDbEntity
  8
7
  6
Continuous
100
AcDbLine
 10
150.6373308408147
 20
112.9732403710084
 30
0.0
 11
150.6252022558569
 21
112.9255102544309
 31
0.0
  0
LINE
  5
D4E8
330
D49B
100
AcDbEntity
  8
7
  6
Continuous
100
AcDbLine
 10
150.6503416423638
 20
113.020040825276
 30
0.0
 11
150.6373308408147
 21
112.9732403710084
 31
0.0
  0
LINE
  5
D4E9
330
D49B
100
AcDbEntity
  8
7
  6
Continuous
100
AcDbLine
 10
150.6633524439121
 20
113.066841279543
 30
0.0
 11
150.6503416423638
 21
113.020040825276
 31
0.0
  0
LINE
  5
D4EA
330
D49B
100
AcDbEntity
  8
7
  6
Continuous
100
AcDbLine
 10
150.6772691849123
 20
113.1136180109506
 30
0.0
 11
150.6633524439121
 21
113.066841279543
 31
0.0
  0
LINE
  5
D4EB
330
D49B
100
AcDbEntity
  8
7
  6
Continuous
100
AcDbLine
 10
150.6920681425031
 20
113.1594650800487
 30
0.0
 11
150.6772691849123
 21
113.1136180109506
 31
0.0
  0
LINE
  5
D4EC
330
D49B
100
AcDbEntity
  8
7
  6
Continuous
100
AcDbLine
 10
150.7077730395449
 20
113.2052884262868
 30
0.0
 11
150.6920681425031
 21
113.1594650800487
 31
0.0
  0
LINE
  5
D4ED
330
D49B
100
AcDbEntity
  8
7
  6
Continuous
100
AcDbLine
 10
150.7234542137275
 20
113.250205833074
 30
0.0
 11
150.7077730395449
 21
113.2052884262868
 31
0.0
  0
LINE
  5
D4EE
330
D49B
100
AcDbEntity
  8
7
  6
Continuous
100
AcDbLine
 10
150.7391116650506
 20
113.2942173004105
 30
0.0
 11
150.7234542137275
 21
113.250205833074
 31
0.0
  0
LINE
  5
D4EF
330
D49B
100
AcDbEntity
  8
7
  6
Continuous
100
AcDbLine
 10
150.7750511563872
 20
113.3857453785902
 30
0.0
 11
150.7391116650506
 21
113.2942173004105
 31
0.0
  0
LINE
  5
D4F0
330
D49B
100
AcDbEntity
  8
7
  6
Continuous
100
AcDbLine
 10
150.7944035340915
 20
113.4323797728418
 30
0.0
 11
150.7750511563872
 21
113.3857453785902
 31
0.0
  0
LINE
  5
D4F1
330
D49B
100
AcDbEntity
  8
7
  6
Continuous
100
AcDbLine
 10
150.8146381283868
 20
113.478084504783
 30
0.0
 11
150.7944035340915
 21
113.4323797728418
 31
0.0
  0
LINE
  5
D4F2
330
D49B
100
AcDbEntity
  8
7
  6
Continuous
100
AcDbLine
 10
150.8348252769633
 20
113.5219773578228
 30
0.0
 11
150.8146381283868
 21
113.478084504783
 31
0.0
  0
LINE
  5
D4F3
330
D49B
100
AcDbEntity
  8
7
  6
Continuous
100
AcDbLine
 10
150.8550124255403
 20
113.5658702108624
 30
0.0
 11
150.8348252769633
 21
113.5219773578228
 31
0.0
  0
LINE
  5
D4F4
330
D49B
100
AcDbEntity
  8
7
  6
Continuous
100
AcDbLine
 10
150.876058067849
 20
113.6079274621409
 30
0.0
 11
150.8550124255403
 21
113.5658702108624
 31
0.0
  0
LINE
  5
D4F5
330
D49B
100
AcDbEntity
  8
7
  6
Continuous
100
AcDbLine
 10
150.8970799872986
 20
113.6490787739692
 30
0.0
 11
150.876058067849
 21
113.6079274621409
 31
0.0
  0
LINE
  5
D4F6
330
D49B
100
AcDbEntity
  8
7
  6
Continuous
100
AcDbLine
 10
150.9190078461988
 20
113.6902063629377
 30
0.0
 11
150.8970799872986
 21
113.6490787739692
 31
0.0
  0
LINE
  5
D4F7
330
D49B
100
AcDbEntity
  8
7
  6
Continuous
100
AcDbLine
 10
150.9409119822394
 20
113.7304280124558
 30
0.0
 11
150.9190078461988
 21
113.6902063629377
 31
0.0
  0
LINE
  5
D4F8
330
D49B
100
AcDbEntity
  8
7
  6
Continuous
100
AcDbLine
 10
150.9627923954203
 20
113.7697437225226
 30
0.0
 11
150.9409119822394
 21
113.7304280124558
 31
0.0
  0
LINE
  5
D4F9
330
D49B
100
AcDbEntity
  8
7
  6
Continuous
100
AcDbLine
 10
150.9864609646438
 20
113.8081060474203
 30
0.0
 11
150.9627923954203
 21
113.7697437225226
 31
0.0
  0
LINE
  5
D4FA
330
D49B
100
AcDbEntity
  8
7
  6
Continuous
100
AcDbLine
 10
151.0092235944162
 20
113.8464920951774
 30
0.0
 11
150.9864609646438
 21
113.8081060474203
 31
0.0
  0
LINE
  5
D4FB
330
D49B
100
AcDbEntity
  8
7
  6
Continuous
100
AcDbLine
 10
151.0328921636396
 20
113.8848544200743
 30
0.0
 11
151.0092235944162
 21
113.8464920951774
 31
0.0
  0
LINE
  5
D4FC
330
D49B
100
AcDbEntity
  8
7
  6
Continuous
100
AcDbLine
 10
151.0574429494545
 20
113.9222870826624
 30
0.0
 11
151.0328921636396
 21
113.8848544200743
 31
0.0
  0
LINE
  5
D4FD
330
D49B
100
AcDbEntity
  8
7
  6
Continuous
100
AcDbLine
 10
151.0819700124098
 20
113.9588138057986
 30
0.0
 11
151.0574429494545
 21
113.9222870826624
 31
0.0
  0
LINE
  5
D4FE
330
D49B
100
AcDbEntity
  8
7
  6
Continuous
100
AcDbLine
 10
151.1074267376743
 20
113.9962227455264
 30
0.0
 11
151.0819700124098
 21
113.9588138057986
 31
0.0
  0
LINE
  5
D4FF
330
D49B
100
AcDbEntity
  8
7
  6
Continuous
100
AcDbLine
 10
151.1328597400816
 20
114.0327257458041
 30
0.0
 11
151.1074267376743
 21
113.9962227455264
 31
0.0
  0
LINE
  5
D500
330
D49B
100
AcDbEntity
  8
7
  6
Continuous
100
AcDbLine
 10
151.1592224047981
 20
114.0701109626727
 30
0.0
 11
151.1328597400816
 21
114.0327257458041
 31
0.0
  0
LINE
  5
D501
330
D49B
100
AcDbEntity
  8
7
  6
Continuous
100
AcDbLine
 10
151.1864672861052
 20
114.1065665172311
 30
0.0
 11
151.1592224047981
 21
114.0701109626727
 31
0.0
  0
LINE
  5
D502
330
D49B
100
AcDbEntity
  8
7
  6
Continuous
100
AcDbLine
 10
151.2137121674127
 20
114.1430220717891
 30
0.0
 11
151.1864672861052
 21
114.1065665172311
 31
0.0
  0
LINE
  5
D503
330
D49B
100
AcDbEntity
  8
7
  6
Continuous
100
AcDbLine
 10
151.2418867110304
 20
114.1803598429394
 30
0.0
 11
151.2137121674127
 21
114.1430220717891
 31
0.0
  0
LINE
  5
D504
330
D49B
100
AcDbEntity
  8
7
  6
Continuous
100
AcDbLine
 10
151.2709671940993
 20
114.2176738912294
 30
0.0
 11
151.2418867110304
 21
114.1803598429394
 31
0.0
  0
LINE
  5
D505
330
D49B
100
AcDbEntity
  8
7
  6
Continuous
100
AcDbLine
 10
151.3000476771676
 20
114.2549879395199
 30
0.0
 11
151.2709671940993
 21
114.2176738912294
 31
0.0
  0
LINE
  5
D506
330
D49B
100
AcDbEntity
  8
7
  6
Continuous
100
AcDbLine
 10
151.3300340996865
 20
114.2922782649504
 30
0.0
 11
151.3000476771676
 21
114.2549879395199
 31
0.0
  0
LINE
  5
D507
330
D49B
100
AcDbEntity
  8
7
  6
Continuous
100
AcDbLine
 10
151.3600442450652
 20
114.3304745298326
 30
0.0
 11
151.3300340996865
 21
114.2922782649504
 31
0.0
  0
LINE
  5
D508
330
D49B
100
AcDbEntity
  8
7
  6
Continuous
100
AcDbLine
 10
151.3918899922046
 20
114.3695292884463
 30
0.0
 11
151.3600442450652
 21
114.3304745298326
 31
0.0
  0
LINE
  5
D509
330
D49B
100
AcDbEntity
  8
7
  6
Continuous
100
AcDbLine
 10
151.4237357393444
 20
114.40858404706
 30
0.0
 11
151.3918899922046
 21
114.3695292884463
 31
0.0
  0
LINE
  5
D50A
330
D49B
100
AcDbEntity
  8
7
  6
Continuous
100
AcDbLine
 10
151.5239212923138
 20
114.5301594058576
 30
0.0
 11
151.4237357393444
 21
114.40858404706
 31
0.0
  0
LINE
  5
D50B
330
D49B
100
AcDbEntity
  8
7
  6
Continuous
100
AcDbLine
 10
151.5903068820861
 20
114.607291815056
 30
0.0
 11
151.5239212923138
 21
114.5301594058576
 31
0.0
  0
LINE
  5
D50C
330
D49B
100
AcDbEntity
  8
7
  6
Continuous
100
AcDbLine
 10
151.6548094243785
 20
114.6817538516209
 30
0.0
 11
151.5903068820861
 21
114.607291815056
 31
0.0
  0
LINE
  5
D50D
330
D49B
100
AcDbEntity
  8
7
  6
Continuous
100
AcDbLine
 10
151.7191933523736
 20
114.7516861909316
 30
0.0
 11
151.6548094243785
 21
114.6817538516209
 31
0.0
  0
LINE
  5
D50E
330
D49B
100
AcDbEntity
  8
7
  6
Continuous
100
AcDbLine
 10
151.7826238951993
 20
114.8198303742012
 30
0.0
 11
151.7191933523736
 21
114.7516861909316
 31
0.0
  0
LINE
  5
D50F
330
D49B
100
AcDbEntity
  8
7
  6
Continuous
100
AcDbLine
 10
151.8450773299964
 20
114.8852804619771
 30
0.0
 11
151.7826238951993
 21
114.8198303742012
 31
0.0
  0
LINE
  5
D510
330
D49B
100
AcDbEntity
  8
7
  6
Continuous
100
AcDbLine
 10
151.9083892585245
 20
114.9488949479921
 30
0.0
 11
151.8450773299964
 21
114.8852804619771
 31
0.0
  0
LINE
  5
D511
330
D49B
100
AcDbEntity
  8
7
  6
Continuous
100
AcDbLine
 10
151.9716774641942
 20
115.0116034945567
 30
0.0
 11
151.9083892585245
 21
114.9488949479921
 31
0.0
  0
LINE
  5
D512
330
D49B
100
AcDbEntity
  8
7
  6
Continuous
100
AcDbLine
 10
152.0349182241451
 20
115.0725001622199
 30
0.0
 11
151.9716774641942
 21
115.0116034945567
 31
0.0
  0
LINE
  5
D513
330
D49B
100
AcDbEntity
  8
7
  6
Continuous
100
AcDbLine
 10
152.099970862997
 20
115.1333493841637
 30
0.0
 11
152.0349182241451
 21
115.0725001622199
 31
0.0
  0
LINE
  5
D514
330
D49B
100
AcDbEntity
  8
7
  6
Continuous
100
AcDbLine
 10
152.1650472247083
 20
115.1951045455585
 30
0.0
 11
152.099970862997
 21
115.1333493841637
 31
0.0
  0
LINE
  5
D515
330
D49B
100
AcDbEntity
  8
7
  6
Continuous
100
AcDbLine
 10
152.2319117424617
 20
115.2559063217834
 30
0.0
 11
152.1650472247083
 21
115.1951045455585
 31
0.0
  0
LINE
  5
D516
330
D49B
100
AcDbEntity
  8
7
  6
Continuous
100
AcDbLine
 10
152.3015652471458
 20
115.3193547477833
 30
0.0
 11
152.2319117424617
 21
115.2559063217834
 31
0.0
  0
LINE
  5
D517
330
D49B
100
AcDbEntity
  8
7
  6
Continuous
100
AcDbLine
 10
152.372124691281
 20
115.3827794509227
 30
0.0
 11
152.3015652471458
 21
115.3193547477833
 31
0.0
  0
LINE
  5
D518
330
D49B
100
AcDbEntity
  8
7
  6
Continuous
100
AcDbLine
 10
152.4454731223459
 20
115.4488508038371
 30
0.0
 11
152.372124691281
 21
115.3827794509227
 31
0.0
  0
LINE
  5
D519
330
D49B
100
AcDbEntity
  8
7
  6
Continuous
100
AcDbLine
 10
152.5207046008909
 20
115.5175925293847
 30
0.0
 11
152.4454731223459
 21
115.4488508038371
 31
0.0
  0
LINE
  5
D51A
330
D49B
100
AcDbEntity
  8
7
  6
Continuous
100
AcDbLine
 10
152.6943616700155
 20
115.6753195163621
 30
0.0
 11
152.5207046008909
 21
115.5175925293847
 31
0.0
  0
LINE
  5
D51B
330
D49B
100
AcDbEntity
  8
7
  6
Continuous
100
AcDbLine
 10
152.7881389490449
 20
115.7598936948352
 30
0.0
 11
152.6943616700155
 21
115.6753195163621
 31
0.0
  0
LINE
  5
D51C
330
D49B
100
AcDbEntity
  8
7
  6
Continuous
100
AcDbLine
 10
152.8800806263139
 20
115.843609379576
 30
0.0
 11
152.7881389490449
 21
115.7598936948352
 31
0.0
  0
LINE
  5
D51D
330
D49B
100
AcDbEntity
  8
LAYER01
  6
Continuous
 62
     7
100
AcDbLine
 10
150.501195850145
 20
112.1019741584514
 30
0.0
 11
150.4968545668744
 21
111.9361872389622
 31
0.0
  0
LINE
  5
D51E
330
D49B
100
AcDbEntity
  8
0
100
AcDbLine
 10
150.498429432831
 20
112.0309490981715
 30
0.0
 11
150.498429432831
 21
103.0065149427116
 31
0.0
  0
SPLINE
  5
D51F
330
D49B
100
AcDbEntity
  8
0
100
AcDbSpline
210
0.0
220
0.0
230
1.0
 70
     8
 71
     3
 72
     8
 73
     4
 74
     0
 42
0.0000000001
 43
0.0000000001
 40
7.335905133051316
 40
7.335905133051316
 40
7.335905133051316
 40
7.335905133051316
 40
38.47380361224045
 40
38.47380361224045
 40
38.47380361224045
 40
38.47380361224045
 10
43.5260186352557
 20
195.8489719031051
 30
0.0
 10
20.3137575974697
 20
193.0681761261091
 30
0.0
 10
11.19756396619186
 20
191.0135703996564
 30
0.0
 10
0.0000026256980163
 20
183.8697118196521
 30
0.0
  0
LINE
  5
D520
330
D49B
100
AcDbEntity
  8
0
100
AcDbLine
 10
0.0000026256980163
 20
183.8697118196524
 30
0.0
 11
0.0000026256980163
 21
128.5205203767846
 31
0.0
  0
LINE
  5
D521
330
D49B
100
AcDbEntity
  8
7
  6
Continuous
100
AcDbLine
 10
156.9030475093814
 20
118.4960217989246
 30
0.0
 11
156.73121710043
 21
118.4080521496555
 31
0.0
  0
LINE
  5
D522
330
D49B
100
AcDbEntity
  8
7
  6
Continuous
100
AcDbLine
 10
155.1235325153488
 20
117.5290852259227
 30
0.0
 11
155.0213126361564
 21
117.4683027017636
 31
0.0
  0
LINE
  5
D523
330
D49B
100
AcDbEntity
  8
7
  6
Continuous
100
AcDbLine
 10
153.5074648193113
 20
116.3992205200484
 30
0.0
 11
153.4175248038191
 21
116.3227049051941
 31
0.0
  0
LINE
  5
D524
330
D49B
100
AcDbEntity
  8
7
  6
Continuous
100
AcDbLine
 10
153.5992167137042
 20
116.475688689183
 30
0.0
 11
153.5074648193113
 21
116.3992205200484
 31
0.0
  0
LINE
  5
D525
330
D49B
100
AcDbEntity
  8
7
  6
Continuous
100
AcDbLine
 10
153.691850824689
 20
116.5512271960081
 30
0.0
 11
153.5992167137042
 21
116.475688689183
 31
0.0
  0
LINE
  5
D526
330
D49B
100
AcDbEntity
  8
7
  6
Continuous
100
AcDbLine
 10
153.786296814575
 20
116.6267182571146
 30
0.0
 11
153.691850824689
 21
116.5512271960081
 31
0.0
  0
LINE
  5
D527
330
D49B
100
AcDbEntity
  8
7
  6
Continuous
100
AcDbLine
 10
153.8825546833627
 20
116.7021618725014
 30
0.0
 11
153.786296814575
 21
116.6267182571146
 31
0.0
  0
LINE
  5
D528
330
D49B
100
AcDbEntity
  8
7
  6
Continuous
100
AcDbLine
 10
153.981506647643
 20
116.7766283798596
 30
0.0
 11
153.8825546833627
 21
116.7021618725014
 31
0.0
  0
LINE
  5
D529
330
D49B
100
AcDbEntity
  8
7
  6
Continuous
100
AcDbLine
 10
154.0832001531357
 20
116.8519296580905
 30
0.0
 11
153.981506647643
 21
116.7766283798596
 31
0.0
  0
LINE
  5
D52A
330
D49B
100
AcDbEntity
  8
7
  6
Continuous
100
AcDbLine
 10
154.2956228357688
 20
117.0013890465072
 30
0.0
 11
154.0832001531357
 21
116.8519296580905
 31
0.0
  0
LINE
  5
D52B
330
D49B
100
AcDbEntity
  8
7
  6
Continuous
100
AcDbLine
 10
154.401774869936
 20
117.0738538920889
 30
0.0
 11
154.2956228357688
 21
117.0013890465072
 31
0.0
  0
LINE
  5
D52C
330
D49B
100
AcDbEntity
  8
7
  6
Continuous
100
AcDbLine
 10
154.5069735189345
 20
117.1445305816285
 30
0.0
 11
154.401774869936
 21
117.0738538920889
 31
0.0
  0
LINE
  5
D52D
330
D49B
100
AcDbEntity
  8
7
  6
Continuous
100
AcDbLine
 10
154.6111950599038
 20
117.2125131756747
 30
0.0
 11
154.5069735189345
 21
117.1445305816285
 31
0.0
  0
LINE
  5
D52E
330
D49B
100
AcDbEntity
  8
7
  6
Continuous
100
AcDbLine
 10
154.7144632157037
 20
117.2787076136796
 30
0.0
 11
154.6111950599038
 21
117.2125131756747
 31
0.0
  0
LINE
  5
D52F
330
D49B
100
AcDbEntity
  8
7
  6
Continuous
100
AcDbLine
 10
154.816801709193
 20
117.3440198350922
 30
0.0
 11
154.7144632157037
 21
117.2787076136796
 31
0.0
  0
LINE
  5
D530
330
D49B
100
AcDbEntity
  8
7
  6
Continuous
100
AcDbLine
 10
154.9190690341047
 20
117.4066142381534
 30
0.0
 11
154.816801709193
 21
117.3440198350922
 31
0.0
  0
LINE
  5
D531
330
D49B
100
AcDbEntity
  8
7
  6
Continuous
100
AcDbLine
 10
155.0213126361564
 20
117.4683027017636
 30
0.0
 11
154.9190690341047
 21
117.4066142381534
 31
0.0
  0
LINE
  5
D532
330
D49B
100
AcDbEntity
  8
7
  6
Continuous
100
AcDbLine
 10
155.2257286716822
 20
117.5889618106312
 30
0.0
 11
155.1235325153488
 21
117.5290852259227
 31
0.0
  0
LINE
  5
D533
330
D49B
100
AcDbEntity
  8
7
  6
Continuous
100
AcDbLine
 10
155.3288070446065
 20
117.6479087330294
 30
0.0
 11
155.2257286716822
 21
117.5889618106312
 31
0.0
  0
LINE
  5
D534
330
D49B
100
AcDbEntity
  8
7
  6
Continuous
100
AcDbLine
 10
155.4327913569814
 20
117.7068319325681
 30
0.0
 11
155.3288070446065
 21
117.6479087330294
 31
0.0
  0
LINE
  5
D535
330
D49B
100
AcDbEntity
  8
7
  6
Continuous
100
AcDbLine
 10
155.5376816088078
 20
117.7657314092478
 30
0.0
 11
155.4327913569814
 21
117.7068319325681
 31
0.0
  0
LINE
  5
D536
330
D49B
100
AcDbEntity
  8
7
  6
Continuous
100
AcDbLine
 10
155.6443837395354
 20
117.8245834402091
 30
0.0
 11
155.5376816088078
 21
117.7657314092478
 31
0.0
  0
LINE
  5
D537
330
D49B
100
AcDbEntity
  8
7
  6
Continuous
100
AcDbLine
 10
155.7519918097132
 20
117.8834117483097
 30
0.0
 11
155.6443837395354
 21
117.8245834402091
 31
0.0
  0
LINE
  5
D538
330
D49B
100
AcDbEntity
  8
7
  6
Continuous
100
AcDbLine
 10
155.8614354816526
 20
117.9430985501433
 30
0.0
 11
155.7519918097132
 21
117.8834117483097
 31
0.0
  0
LINE
  5
D539
330
D49B
100
AcDbEntity
  8
7
  6
Continuous
100
AcDbLine
 10
155.972714755353
 20
118.0036438457091
 30
0.0
 11
155.8614354816526
 21
117.9430985501433
 31
0.0
  0
LINE
  5
D53A
330
D49B
100
AcDbEntity
  8
7
  6
Continuous
100
AcDbLine
 10
156.0858296308142
 20
118.0650476350051
 30
0.0
 11
155.972714755353
 21
118.0036438457091
 31
0.0
  0
LINE
  5
D53B
330
D49B
100
AcDbEntity
  8
7
  6
Continuous
100
AcDbLine
 10
156.2016860474868
 20
118.1272861951754
 30
0.0
 11
156.0858296308142
 21
118.0650476350051
 31
0.0
  0
LINE
  5
D53C
330
D49B
100
AcDbEntity
  8
7
  6
Continuous
100
AcDbLine
 10
156.3818834172293
 20
118.223195793767
 30
0.0
 11
156.2016860474868
 21
118.1272861951754
 31
0.0
  0
LINE
  5
D53D
330
D49B
100
AcDbEntity
  8
7
  6
Continuous
100
AcDbLine
 10
156.5583858605905
 20
118.3164824654425
 30
0.0
 11
156.3818834172293
 21
118.223195793767
 31
0.0
  0
LINE
  5
D53E
330
D49B
100
AcDbEntity
  8
7
  6
Continuous
100
AcDbLine
 10
156.73121710043
 20
118.4080521496555
 30
0.0
 11
156.5583858605905
 21
118.3164824654425
 31
0.0
  0
LINE
  5
D53F
330
D49B
100
AcDbEntity
  8
7
  6
Continuous
100
AcDbLine
 10
153.0602453316105
 20
116.0075118826928
 30
0.0
 11
152.9701629789624
 21
115.9255606311346
 31
0.0
  0
LINE
  5
D540
330
D49B
100
AcDbEntity
  8
7
  6
Continuous
100
AcDbLine
 10
153.1493742990887
 20
116.0876749782096
 30
0.0
 11
153.0602453316105
 21
116.0075118826928
 31
0.0
  0
LINE
  5
D541
330
D49B
100
AcDbEntity
  8
7
  6
Continuous
100
AcDbLine
 10
153.2384795437083
 20
116.1669321342751
 30
0.0
 11
153.1493742990887
 21
116.0876749782096
 31
0.0
  0
LINE
  5
D542
330
D49B
100
AcDbEntity
  8
7
  6
Continuous
100
AcDbLine
 10
153.3275610654682
 20
116.2452833508894
 30
0.0
 11
153.2384795437083
 21
116.1669321342751
 31
0.0
  0
LINE
  5
D543
330
D49B
100
AcDbEntity
  8
7
  6
Continuous
100
AcDbLine
 10
153.4175248038191
 20
116.3227049051941
 30
0.0
 11
153.3275610654682
 21
116.2452833508894
 31
0.0
  0
LINE
  5
D544
330
D49B
100
AcDbEntity
  8
7
  6
Continuous
100
AcDbLine
 10
168.0373846098
 20
122.3719182551169
 30
0.0
 11
167.7006969436696
 21
122.2891721057112
 31
0.0
  0
LINE
  5
D545
330
D49B
100
AcDbEntity
  8
7
  6
Continuous
100
AcDbLine
 10
168.3804375749444
 20
122.4554042839588
 30
0.0
 11
168.0373846098
 21
122.3719182551169
 31
0.0
  0
LINE
  5
D546
330
D49B
100
AcDbEntity
  8
7
  6
Continuous
100
AcDbLine
 10
168.8366098863435
 20
122.5658446801092
 30
0.0
 11
168.3804375749444
 21
122.4554042839588
 31
0.0
  0
LINE
  5
D547
330
D49B
100
AcDbEntity
  8
7
  6
Continuous
100
AcDbLine
 10
169.2836279117971
 20
122.6728985470506
 30
0.0
 11
168.8366098863435
 21
122.5658446801092
 31
0.0
  0
LINE
  5
D548
330
D49B
100
AcDbEntity
  8
7
  6
Continuous
100
AcDbLine
 10
169.7242094696585
 20
122.7764947162052
 30
0.0
 11
169.2836279117971
 21
122.6728985470506
 31
0.0
  0
LINE
  5
D549
330
D49B
100
AcDbEntity
  8
7
  6
Continuous
100
AcDbLine
 10
170.1610961011379
 20
122.8774679584446
 30
0.0
 11
169.7242094696585
 21
122.7764947162052
 31
0.0
  0
LINE
  5
D54A
330
D49B
100
AcDbEntity
  8
7
  6
Continuous
100
AcDbLine
 10
170.5970293474484
 20
122.9766530446418
 30
0.0
 11
170.1610961011379
 21
122.8774679584446
 31
0.0
  0
LINE
  5
D54B
330
D49B
100
AcDbEntity
  8
7
  6
Continuous
100
AcDbLine
 10
171.0347270269412
 20
123.0739788062194
 30
0.0
 11
170.5970293474484
 21
122.9766530446418
 31
0.0
  0
LINE
  5
D54C
330
D49B
100
AcDbEntity
  8
7
  6
Continuous
100
AcDbLine
 10
171.4769306808284
 20
123.1702800140485
 30
0.0
 11
171.0347270269412
 21
123.0739788062194
 31
0.0
  0
LINE
  5
D54D
330
D49B
100
AcDbEntity
  8
7
  6
Continuous
100
AcDbLine
 10
171.9263818503214
 20
123.2663914390027
 30
0.0
 11
171.4769306808284
 21
123.1702800140485
 31
0.0
  0
LINE
  5
D54E
330
D49B
100
AcDbEntity
  8
7
  6
Continuous
100
AcDbLine
 10
172.8305774888563
 20
123.45303631505
 30
0.0
 11
171.9263818503214
 21
123.2663914390027
 31
0.0
  0
LINE
  5
D54F
330
D49B
100
AcDbEntity
  8
7
  6
Continuous
100
AcDbLine
 10
173.2689676020654
 20
123.5421848987107
 30
0.0
 11
172.8305774888563
 21
123.45303631505
 31
0.0
  0
LINE
  5
D550
330
D49B
100
AcDbEntity
  8
7
  6
Continuous
100
AcDbLine
 10
173.7027331265831
 20
123.6278283388658
 30
0.0
 11
173.2689676020654
 21
123.5421848987107
 31
0.0
  0
LINE
  5
D551
330
D49B
100
AcDbEntity
  8
7
  6
Continuous
100
AcDbLine
 10
174.1328037247192
 20
123.7108488521062
 30
0.0
 11
173.7027331265831
 21
123.6278283388658
 31
0.0
  0
LINE
  5
D552
330
D49B
100
AcDbEntity
  8
7
  6
Continuous
100
AcDbLine
 10
157.0721126542617
 20
118.58225073787
 30
0.0
 11
156.9030475093814
 21
118.4960217989246
 31
0.0
  0
LINE
  5
D553
330
D49B
100
AcDbEntity
  8
7
  6
Continuous
100
AcDbLine
 10
157.2411540762823
 20
118.6675737373652
 30
0.0
 11
157.0721126542617
 21
118.58225073787
 31
0.0
  0
LINE
  5
D554
330
D49B
100
AcDbEntity
  8
7
  6
Continuous
100
AcDbLine
 10
157.4101480525837
 20
118.7510848579579
 30
0.0
 11
157.2411540762823
 21
118.6675737373652
 31
0.0
  0
LINE
  5
D555
330
D49B
100
AcDbEntity
  8
7
  6
Continuous
100
AcDbLine
 10
157.5790945831672
 20
118.8327840996501
 30
0.0
 11
157.4101480525837
 21
118.7510848579579
 31
0.0
  0
LINE
  5
D556
330
D49B
100
AcDbEntity
  8
7
  6
Continuous
100
AcDbLine
 10
157.7489470532007
 20
118.9144596184828
 30
0.0
 11
157.5790945831672
 21
118.8327840996501
 31
0.0
  0
LINE
  5
D557
330
D49B
100
AcDbEntity
  8
7
  6
Continuous
100
AcDbLine
 10
157.9215173415868
 20
118.9960639687362
 30
0.0
 11
157.7489470532007
 21
118.9144596184828
 31
0.0
  0
LINE
  5
D558
330
D49B
100
AcDbEntity
  8
7
  6
Continuous
100
AcDbLine
 10
158.0958757860151
 20
119.0767149338207
 30
0.0
 11
157.9215173415868
 21
118.9960639687362
 31
0.0
  0
LINE
  5
D559
330
D49B
100
AcDbEntity
  8
7
  6
Continuous
100
AcDbLine
 10
158.273881711106
 20
119.1581769469187
 30
0.0
 11
158.0958757860151
 21
119.0767149338207
 31
0.0
  0
LINE
  5
D55A
330
D49B
100
AcDbEntity
  8
7
  6
Continuous
100
AcDbLine
 10
158.4564410563093
 20
119.2404262851698
 30
0.0
 11
158.273881711106
 21
119.1581769469187
 31
0.0
  0
LINE
  5
D55B
330
D49B
100
AcDbEntity
  8
7
  6
Continuous
100
AcDbLine
 10
158.6426478821759
 20
119.3234866714349
 30
0.0
 11
158.4564410563093
 21
119.2404262851698
 31
0.0
  0
LINE
  5
D55C
330
D49B
100
AcDbEntity
  8
7
  6
Continuous
100
AcDbLine
 10
158.8379852711282
 20
119.4090276474578
 30
0.0
 11
158.6426478821759
 21
119.3234866714349
 31
0.0
  0
LINE
  5
D55D
330
D49B
100
AcDbEntity
  8
7
  6
Continuous
100
AcDbLine
 10
159.030557396009
 20
119.4928279131572
 30
0.0
 11
158.8379852711282
 21
119.4090276474578
 31
0.0
  0
LINE
  5
D55E
330
D49B
100
AcDbEntity
  8
7
  6
Continuous
100
AcDbLine
 10
159.2203642568188
 20
119.5748874685339
 30
0.0
 11
159.030557396009
 21
119.4928279131572
 31
0.0
  0
LINE
  5
D55F
330
D49B
100
AcDbEntity
  8
7
  6
Continuous
100
AcDbLine
 10
159.4082880701489
 20
119.6542766512764
 30
0.0
 11
159.2203642568188
 21
119.5748874685339
 31
0.0
  0
LINE
  5
D560
330
D49B
100
AcDbEntity
  8
7
  6
Continuous
100
AcDbLine
 10
159.5943525588591
 20
119.731901400836
 30
0.0
 11
159.4082880701489
 21
119.6542766512764
 31
0.0
  0
LINE
  5
D561
330
D49B
100
AcDbEntity
  8
7
  6
Continuous
100
AcDbLine
 10
159.7794873852588
 20
119.8086439338051
 30
0.0
 11
159.5943525588591
 21
119.731901400836
 31
0.0
  0
LINE
  5
D562
330
D49B
100
AcDbEntity
  8
7
  6
Continuous
100
AcDbLine
 10
159.9645747659397
 20
119.8835745878721
 30
0.0
 11
159.7794873852588
 21
119.8086439338051
 31
0.0
  0
LINE
  5
D563
330
D49B
100
AcDbEntity
  8
7
  6
Continuous
100
AcDbLine
 10
160.1496384237607
 20
119.9575993024882
 30
0.0
 11
159.9645747659397
 21
119.8835745878721
 31
0.0
  0
LINE
  5
D564
330
D49B
100
AcDbEntity
  8
7
  6
Continuous
100
AcDbLine
 10
160.3346783587233
 20
120.0307180776544
 30
0.0
 11
160.1496384237607
 21
119.9575993024882
 31
0.0
  0
LINE
  5
D565
330
D49B
100
AcDbEntity
  8
7
  6
Continuous
100
AcDbLine
 10
160.5215064497274
 20
120.1028834676503
 30
0.0
 11
160.3346783587233
 21
120.0307180776544
 31
0.0
  0
LINE
  5
D566
330
D49B
100
AcDbEntity
  8
7
  6
Continuous
100
AcDbLine
 10
160.710146419633
 20
120.1750014119277
 30
0.0
 11
160.5215064497274
 21
120.1028834676503
 31
0.0
  0
LINE
  5
D567
330
D49B
100
AcDbEntity
  8
7
  6
Continuous
100
AcDbLine
 10
160.9015042078913
 20
120.2470481876271
 30
0.0
 11
160.710146419633
 21
120.1750014119277
 31
0.0
  0
LINE
  5
D568
330
D49B
100
AcDbEntity
  8
7
  6
Continuous
100
AcDbLine
 10
161.0946501521912
 20
120.3181415781562
 30
0.0
 11
160.9015042078913
 21
120.2470481876271
 31
0.0
  0
LINE
  5
D569
330
D49B
100
AcDbEntity
  8
7
  6
Continuous
100
AcDbLine
 10
161.2923495166042
 20
120.3900222938396
 30
0.0
 11
161.0946501521912
 21
120.3181415781562
 31
0.0
  0
LINE
  5
D56A
330
D49B
100
AcDbEntity
  8
7
  6
Continuous
100
AcDbLine
 10
161.7325425671279
 20
120.548022275758
 30
0.0
 11
161.2923495166042
 21
120.3900222938396
 31
0.0
  0
LINE
  5
D56B
330
D49B
100
AcDbEntity
  8
7
  6
Continuous
100
AcDbLine
 10
161.9676701233352
 20
120.6298016276152
 30
0.0
 11
161.7325425671279
 21
120.548022275758
 31
0.0
  0
LINE
  5
D56C
330
D49B
100
AcDbEntity
  8
7
  6
Continuous
100
AcDbLine
 10
162.2000324154714
 20
120.7098402691483
 30
0.0
 11
161.9676701233352
 21
120.6298016276152
 31
0.0
  0
LINE
  5
D56D
330
D49B
100
AcDbEntity
  8
7
  6
Continuous
100
AcDbLine
 10
162.4296057206773
 20
120.7872322609078
 30
0.0
 11
162.2000324154714
 21
120.7098402691483
 31
0.0
  0
LINE
  5
D56E
330
D49B
100
AcDbEntity
  8
7
  6
Continuous
100
AcDbLine
 10
162.6573197012628
 20
120.8628598194852
 30
0.0
 11
162.4296057206773
 21
120.7872322609078
 31
0.0
  0
LINE
  5
D56F
330
D49B
100
AcDbEntity
  8
7
  6
Continuous
100
AcDbLine
 10
162.8840802966788
 20
120.9366992220191
 30
0.0
 11
162.6573197012628
 21
120.8628598194852
 31
0.0
  0
LINE
  5
D570
330
D49B
100
AcDbEntity
  8
7
  6
Continuous
100
AcDbLine
 10
163.1108171692351
 20
121.0096326851028
 30
0.0
 11
162.8840802966788
 21
120.9366992220191
 31
0.0
  0
LINE
  5
D571
330
D49B
100
AcDbEntity
  8
7
  6
Continuous
100
AcDbLine
 10
163.337530318932
 20
121.0816602087366
 30
0.0
 11
163.1108171692351
 21
121.0096326851028
 31
0.0
  0
LINE
  5
D572
330
D49B
100
AcDbEntity
  8
7
  6
Continuous
100
AcDbLine
 10
163.5651019623612
 20
121.1518521306081
 30
0.0
 11
163.337530318932
 21
121.0816602087366
 31
0.0
  0
LINE
  5
D573
330
D49B
100
AcDbEntity
  8
7
  6
Continuous
100
AcDbLine
 10
163.7954151470014
 20
121.2228788233533
 30
0.0
 11
163.5651019623612
 21
121.1518521306081
 31
0.0
  0
LINE
  5
D574
330
D49B
100
AcDbEntity
  8
7
  6
Continuous
100
AcDbLine
 10
164.0275164876841
 20
121.2929521309281
 30
0.0
 11
163.7954151470014
 21
121.2228788233533
 31
0.0
  0
LINE
  5
D575
330
D49B
100
AcDbEntity
  8
7
  6
Continuous
100
AcDbLine
 10
164.2623356467193
 20
121.362954269925
 30
0.0
 11
164.0275164876841
 21
121.2929521309281
 31
0.0
  0
LINE
  5
D576
330
D49B
100
AcDbEntity
  8
7
  6
Continuous
100
AcDbLine
 10
164.5016845030081
 20
121.4328377946253
 30
0.0
 11
164.2623356467193
 21
121.362954269925
 31
0.0
  0
LINE
  5
D577
330
D49B
100
AcDbEntity
  8
7
  6
Continuous
100
AcDbLine
 10
165.0844896130515
 20
121.6016083188292
 30
0.0
 11
164.5016845030081
 21
121.4328377946253
 31
0.0
  0
LINE
  5
D578
330
D49B
100
AcDbEntity
  8
7
  6
Continuous
100
AcDbLine
 10
165.4178144728319
 20
121.6944146936314
 30
0.0
 11
165.0844896130515
 21
121.6016083188292
 31
0.0
  0
LINE
  5
D579
330
D49B
100
AcDbEntity
  8
7
  6
Continuous
100
AcDbLine
 10
165.7465621896394
 20
121.7855278038298
 30
0.0
 11
165.4178144728319
 21
121.6944146936314
 31
0.0
  0
LINE
  5
D57A
330
D49B
100
AcDbEntity
  8
7
  6
Continuous
100
AcDbLine
 10
166.0724971966567
 20
121.8730883248033
 30
0.0
 11
165.7465621896394
 21
121.7855278038298
 31
0.0
  0
LINE
  5
D57B
330
D49B
100
AcDbEntity
  8
7
  6
Continuous
100
AcDbLine
 10
166.3956432167442
 20
121.9580021960025
 30
0.0
 11
166.0724971966567
 21
121.8730883248033
 31
0.0
  0
LINE
  5
D57C
330
D49B
100
AcDbEntity
  8
7
  6
Continuous
100
AcDbLine
 10
166.7187655139725
 20
122.0420101277507
 30
0.0
 11
166.3956432167442
 21
121.9580021960025
 31
0.0
  0
LINE
  5
D57D
330
D49B
100
AcDbEntity
  8
7
  6
Continuous
100
AcDbLine
 10
167.0436759672429
 20
122.1250646743294
 30
0.0
 11
166.7187655139725
 21
122.0420101277507
 31
0.0
  0
LINE
  5
D57E
330
D49B
100
AcDbEntity
  8
7
  6
Continuous
100
AcDbLine
 10
167.3703745765551
 20
122.207165835739
 30
0.0
 11
167.0436759672429
 21
122.1250646743294
 31
0.0
  0
LINE
  5
D57F
330
D49B
100
AcDbEntity
  8
7
  6
Continuous
100
AcDbLine
 10
167.7006969436696
 20
122.2891721057112
 30
0.0
 11
167.3703745765551
 21
122.207165835739
 31
0.0
  0
LINE
  5
D580
330
D49B
100
AcDbEntity
  8
7
  6
Continuous
100
AcDbLine
 10
316.8359722202326
 20
115.6307027727741
 30
0.0
 11
314.9727274008465
 21
115.966873283334
 31
0.0
  0
SPLINE
  5
D581
330
D49B
100
AcDbEntity
  8
0
100
AcDbSpline
210
0.0
220
0.0
230
1.0
 70
     8
 71
     3
 72
    10
 73
     6
 74
     0
 42
0.0000000001
 43
0.0000000001
 40
410.1364781280398
 40
410.1364781280398
 40
410.1364781280398
 40
410.1364781280398
 40
526.9648151707627
 40
685.8904726219233
 40
784.5338551105444
 40
784.5338551105444
 40
784.5338551105444
 40
784.5338551105444
 10
359.7721882165777
 20
105.1024402789251
 30
0.0
 10
395.0025371307388
 20
107.1956900619586
 30
0.0
 10
478.0144188528315
 20
114.4924619708847
 30
0.0
 10
590.2145049940817
 20
129.6821971370302
 30
0.0
 10
666.3265616030521
 20
145.9116483489331
 30
0.0
 10
695.4758363521809
 20
152.1271778390089
 30
0.0
  0
SPLINE
  5
D582
330
D49B
100
AcDbEntity
  8
0
100
AcDbSpline
210
0.0
220
0.0
230
1.0
 70
     8
 71
     3
 72
    10
 73
     6
 74
     0
 42
0.0000000001
 43
0.0000000001
 40
11.0163847444307
 40
11.0163847444307
 40
11.0163847444307
 40
11.0163847444307
 40
136.5821452953179
 40
228.9525324882644
 40
346.0086586602973
 40
346.0086586602973
 40
346.0086586602973
 40
346.0086586602973
 10
692.0887964711574
 20
29.67299499824276
 30
0.0
 10
627.4300394569886
 20
23.08873369277194
 30
0.0
 10
555.1201249909198
 20
16.15600028528092
 30
0.0
 10
443.9466964101328
 20
5.36479420252499
 30
0.0
 10
374.1602396760595
 20
2.924125407035262
 30
0.0
 10
335.1540405405835
 20
1.55994648871956
 30
0.0
  0
SPLINE
  5
D583
330
D49B
100
AcDbEntity
  8
0
100
AcDbSpline
210
0.0
220
0.0
230
1.0
 70
     8
 71
     3
 72
    10
 73
     6
 74
     0
 42
0.0000000001
 43
0.0000000001
 40
11.0163847444307
 40
11.0163847444307
 40
11.0163847444307
 40
11.0163847444307
 40
136.5821452953179
 40
228.9525324882644
 40
346.0086586602973
 40
346.0086586602973
 40
346.0086586602973
 40
346.0086586602973
 10
692.0887964711574
 20
44.18909325290473
 30
0.0
 10
627.4300394569886
 20
50.7733545583751
 30
0.0
 10
555.1201249909198
 20
57.70608796586566
 30
0.0
 10
443.9466964101328
 20
68.49729404862181
 30
0.0
 10
374.1602396760595
 20
70.93796284411155
 30
0.0
 10
335.1540405405835
 20
72.30214176242725
 30
0.0
  0
LINE
  5
D584
330
D49B
100
AcDbEntity
  8
7
  6
Continuous
100
AcDbLine
 10
352.2000419443698
 20
108.3968129742852
 30
0.0
 11
351.4173353506663
 21
108.5913685136536
 31
0.0
  0
LINE
  5
D585
330
D49B
100
AcDbEntity
  8
7
  6
Continuous
100
AcDbLine
 10
334.9686206719057
 20
112.1542603315711
 30
0.0
 11
332.0060129917251
 21
112.7440457143923
 31
0.0
  0
LINE
  5
D586
330
D49B
100
AcDbEntity
  8
7
  6
Continuous
100
AcDbLine
 10
330.4313121228022
 20
113.0554357832382
 30
0.0
 11
327.2501313356015
 21
113.6763284026558
 31
0.0
  0
LINE
  5
D587
330
D49B
100
AcDbEntity
  8
7
  6
Continuous
100
AcDbLine
 10
320.4114783679011
 20
114.9741006820341
 30
0.0
 11
318.6693447606035
 21
115.2962210560256
 31
0.0
  0
LINE
  5
D588
330
D49B
100
AcDbEntity
  8
7
  6
Continuous
100
AcDbLine
 10
322.1860122896915
 20
114.6429728300488
 30
0.0
 11
320.4114783679011
 21
114.9741006820341
 31
0.0
  0
LINE
  5
D589
330
D49B
100
AcDbEntity
  8
7
  6
Continuous
100
AcDbLine
 10
323.9279561141141
 20
114.3136049404518
 30
0.0
 11
322.1860122896915
 21
114.6429728300488
 31
0.0
  0
LINE
  5
D58A
330
D49B
100
AcDbEntity
  8
7
  6
Continuous
100
AcDbLine
 10
325.5715083812945
 20
114.0004119342914
 30
0.0
 11
323.9279561141141
 21
114.3136049404518
 31
0.0
  0
LINE
  5
D58B
330
D49B
100
AcDbEntity
  8
7
  6
Continuous
100
AcDbLine
 10
327.2501313356015
 20
113.6763284026558
 30
0.0
 11
325.5715083812945
 21
114.0004119342914
 31
0.0
  0
LINE
  5
D58C
330
D49B
100
AcDbEntity
  8
7
  6
Continuous
100
AcDbLine
 10
332.0060129917251
 20
112.7440457143923
 30
0.0
 11
330.4313121228022
 21
113.0554357832382
 31
0.0
  0
LINE
  5
D58D
330
D49B
100
AcDbEntity
  8
7
  6
Continuous
100
AcDbLine
 10
318.6693447606035
 20
115.2962210560256
 30
0.0
 11
316.8359722202326
 21
115.6307027727741
 31
0.0
  0
LINE
  5
D58E
330
D49B
100
AcDbEntity
  8
7
  6
Continuous
100
AcDbLine
 10
349.5346446310299
 20
109.050433921551
 30
0.0
 11
347.5613599663184
 21
109.511871615389
 31
0.0
  0
LINE
  5
D58F
330
D49B
100
AcDbEntity
  8
7
  6
Continuous
100
AcDbLine
 10
344.2264170115618
 20
110.2501107208293
 30
0.0
 11
343.0021293980008
 21
110.5106231054908
 31
0.0
  0
LINE
  5
D590
330
D49B
100
AcDbEntity
  8
7
  6
Continuous
100
AcDbLine
 10
346.4636666472693
 20
109.760003405227
 30
0.0
 11
344.2264170115618
 21
110.2501107208293
 31
0.0
  0
LINE
  5
D591
330
D49B
100
AcDbEntity
  8
7
  6
Continuous
100
AcDbLine
 10
347.5613599663184
 20
109.511871615389
 30
0.0
 11
346.4636666472693
 21
109.760003405227
 31
0.0
  0
LINE
  5
D592
330
D49B
100
AcDbEntity
  8
7
  6
Continuous
100
AcDbLine
 10
350.4985435856793
 20
108.8166843883139
 30
0.0
 11
349.5346446310299
 21
109.050433921551
 31
0.0
  0
LINE
  5
D593
330
D49B
100
AcDbEntity
  8
7
  6
Continuous
100
AcDbLine
 10
351.4173353506663
 20
108.5913685136536
 30
0.0
 11
350.4985435856793
 21
108.8166843883139
 31
0.0
  0
LINE
  5
D594
330
D49B
100
AcDbEntity
  8
7
  6
Continuous
100
AcDbLine
 10
336.433152770727
 20
111.8593535433342
 30
0.0
 11
334.9686206719057
 21
112.1542603315711
 31
0.0
  0
LINE
  5
D595
330
D49B
100
AcDbEntity
  8
7
  6
Continuous
100
AcDbLine
 10
339.1655287453239
 20
111.3055134915359
 30
0.0
 11
336.433152770727
 21
111.8593535433342
 31
0.0
  0
LINE
  5
D596
330
D49B
100
AcDbEntity
  8
7
  6
Continuous
100
AcDbLine
 10
340.5127157270158
 20
111.0299975851353
 30
0.0
 11
339.1655287453239
 21
111.3055134915359
 31
0.0
  0
LINE
  5
D597
330
D49B
100
AcDbEntity
  8
7
  6
Continuous
100
AcDbLine
 10
343.0021293980008
 20
110.5106231054908
 30
0.0
 11
340.5127157270158
 21
111.0299975851353
 31
0.0
  0
LINE
  5
D598
330
D49B
100
AcDbEntity
  8
0
100
AcDbLine
 10
359.3168661332883
 20
106.5396610858072
 30
0.0
 11
359.3168661332883
 21
105.0850955042622
 31
0.0
  0
SPLINE
  5
D599
330
D49B
100
AcDbEntity
  8
0
100
AcDbSpline
210
0.0
220
0.0
230
1.0
 70
     8
 71
     3
 72
     8
 73
     4
 74
     0
 42
0.0000000001
 43
0.0000000001
 40
0.0
 40
0.0
 40
0.0
 40
0.0
 40
0.5026561182425513
 40
0.5026561182425513
 40
0.5026561182425513
 40
0.5026561182425513
 10
359.7721882165777
 20
105.1024402789251
 30
0.0
 10
359.6204141890173
 20
105.0966586620954
 30
0.0
 10
359.4686401614572
 20
105.0908770452658
 30
0.0
 10
359.3168661332882
 20
105.0850955042622
 30
0.0
  0
LINE
  5
D59A
330
D49B
100
AcDbEntity
  8
7
  6
Continuous
100
AcDbLine
 10
359.3168661332883
 20
106.5396610858072
 30
0.0
 11
359.3168661332883
 21
106.5396610858072
 31
0.0
  0
LINE
  5
D59B
330
D49B
100
AcDbEntity
  8
7
  6
Continuous
100
AcDbLine
 10
353.0295015466224
 20
108.1874347544674
 30
0.0
 11
352.2000419443698
 21
108.3968129742852
 31
0.0
  0
LINE
  5
D59C
330
D49B
100
AcDbEntity
  8
7
  6
Continuous
100
AcDbLine
 10
353.8111598637195
 20
107.9874673012543
 30
0.0
 11
353.0295015466224
 21
108.1874347544674
 31
0.0
  0
LINE
  5
D59D
330
D49B
100
AcDbEntity
  8
7
  6
Continuous
100
AcDbLine
 10
354.4522982037177
 20
107.8220025554344
 30
0.0
 11
353.8111598637195
 21
107.9874673012543
 31
0.0
  0
LINE
  5
D59E
330
D49B
100
AcDbEntity
  8
7
  6
Continuous
100
AcDbLine
 10
355.1402132751237
 20
107.6426210686147
 30
0.0
 11
354.4522982037177
 21
107.8220025554344
 31
0.0
  0
LINE
  5
D59F
330
D49B
100
AcDbEntity
  8
7
  6
Continuous
100
AcDbLine
 10
356.2782750516403
 20
107.3435713574526
 30
0.0
 11
355.1402132751237
 21
107.6426210686147
 31
0.0
  0
LINE
  5
D5A0
330
D49B
100
AcDbEntity
  8
7
  6
Continuous
100
AcDbLine
 10
356.8247879293563
 20
107.1996222403356
 30
0.0
 11
356.2782750516403
 21
107.3435713574526
 31
0.0
  0
LINE
  5
D5A1
330
D49B
100
AcDbEntity
  8
7
  6
Continuous
100
AcDbLine
 10
357.3226884739038
 20
107.0687313704868
 30
0.0
 11
356.8247879293563
 21
107.1996222403356
 31
0.0
  0
LINE
  5
D5A2
330
D49B
100
AcDbEntity
  8
7
  6
Continuous
100
AcDbLine
 10
357.6837165220143
 20
106.9731542560437
 30
0.0
 11
357.3226884739038
 21
107.0687313704868
 31
0.0
  0
LINE
  5
D5A3
330
D49B
100
AcDbEntity
  8
7
  6
Continuous
100
AcDbLine
 10
358.0681566586891
 20
106.8715247105517
 30
0.0
 11
357.6837165220143
 21
106.9731542560437
 31
0.0
  0
LINE
  5
D5A4
330
D49B
100
AcDbEntity
  8
7
  6
Continuous
100
AcDbLine
 10
358.4282787673492
 20
106.7759713189673
 30
0.0
 11
358.0681566586891
 21
106.8715247105517
 31
0.0
  0
LINE
  5
D5A5
330
D49B
100
AcDbEntity
  8
7
  6
Continuous
100
AcDbLine
 10
358.6668581816577
 20
106.7126105758282
 30
0.0
 11
358.4282787673492
 21
106.7759713189673
 31
0.0
  0
LINE
  5
D5A6
330
D49B
100
AcDbEntity
  8
7
  6
Continuous
100
AcDbLine
 10
359.0782867189798
 20
106.6030218289474
 30
0.0
 11
358.6668581816577
 21
106.7126105758282
 31
0.0
  0
LINE
  5
D5A7
330
D49B
100
AcDbEntity
  8
7
  6
Continuous
100
AcDbLine
 10
359.3168661332883
 20
106.5396610858072
 30
0.0
 11
359.0782867189798
 21
106.6030218289474
 31
0.0
  0
LINE
  5
D5A8
330
D49B
100
AcDbEntity
  8
0
100
AcDbLine
 10
692.0887964711574
 20
29.67299499824071
 30
0.0
 11
695.4758363521807
 21
30.02398285169193
 31
0.0
  0
LINE
  5
D5A9
330
D49B
100
AcDbEntity
  8
0
100
AcDbLine
 10
692.0887964711574
 20
44.18909325290473
 30
0.0
 11
695.4758363521807
 21
43.83810539945352
 31
0.0
  0
LINE
  5
D5AA
330
D49B
100
AcDbEntity
  8
0
100
AcDbLine
 10
695.4758363521809
 20
43.83810539945328
 30
0.0
 11
695.4758363521809
 21
30.02398285169216
 31
0.0
  0
SPLINE
  5
D5AB
330
D49B
100
AcDbEntity
  8
0
100
AcDbSpline
210
0.0
220
0.0
230
1.0
 70
     8
 71
     3
 72
    10
 73
     6
 74
     0
 42
0.0000000001
 43
0.0000000001
 40
0.0
 40
0.0
 40
0.0
 40
0.0
 40
131.4642053983943
 40
306.427438160548
 40
320.9004770908801
 40
320.9004770908801
 40
320.9004770908801
 40
320.9004770908801
 10
345.5987773124996
 20
220.0457839996641
 30
0.0
 10
385.1705366096128
 20
216.6966202917767
 30
0.0
 10
477.4076043967988
 20
208.8901177394052
 30
0.0
 10
573.7550096496089
 20
197.8946368892214
 30
0.0
 10
630.4294231867555
 20
189.971812245107
 30
0.0
 10
636.5152113521808
 20
189.3603990409663
 30
0.0
  0
LINE
  5
D5AC
330
D49B
100
AcDbEntity
  8
0
100
AcDbLine
 10
238.6412069890421
 20
222.2076381727754
 30
0.0
 11
345.5987773124996
 21
220.0457839996641
 31
0.0
  0
LINE
  5
D5AD
330
D49B
100
AcDbEntity
  8
0
100
AcDbLine
 10
238.6412069890421
 20
222.2076381727754
 30
0.0
 11
219.2843395964423
 21
204.8607146774811
 31
0.0
  0
LINE
  5
D5AE
330
D49B
100
AcDbEntity
  8
7
  6
Continuous
100
AcDbLine
 10
245.7711408101807
 20
125.2726109822338
 30
0.0
 11
244.4151777394016
 21
125.386082341246
 31
0.0
  0
LINE
  5
D5AF
330
D49B
100
AcDbEntity
  8
7
  6
Continuous
100
AcDbLine
 10
210.5481107675259
 20
126.8141394121997
 30
0.0
 11
209.8544265704918
 21
126.8078270344731
 31
0.0
  0
LINE
  5
D5B0
330
D49B
100
AcDbEntity
  8
7
  6
Continuous
100
AcDbLine
 10
192.3688084805649
 20
126.0509127797334
 30
0.0
 11
191.1423266845675
 21
125.9506714801184
 31
0.0
  0
LINE
  5
D5B1
330
D49B
100
AcDbEntity
  8
7
  6
Continuous
100
AcDbLine
 10
174.9901084883424
 20
123.872431349911
 30
0.0
 11
174.5610149982351
 21
123.7921049321637
 31
0.0
  0
LINE
  5
D5B2
330
D49B
100
AcDbEntity
  8
7
  6
Continuous
100
AcDbLine
 10
175.4209664116324
 20
123.9508984430383
 30
0.0
 11
174.9901084883424
 21
123.872431349911
 31
0.0
  0
LINE
  5
D5B3
330
D49B
100
AcDbEntity
  8
7
  6
Continuous
100
AcDbLine
 10
175.8554243698663
 20
124.028364705277
 30
0.0
 11
175.4209664116324
 21
123.9508984430383
 31
0.0
  0
LINE
  5
D5B4
330
D49B
100
AcDbEntity
  8
7
  6
Continuous
100
AcDbLine
 10
176.2962239042556
 20
124.1056649075001
 30
0.0
 11
175.8554243698663
 21
124.028364705277
 31
0.0
  0
LINE
  5
D5B5
330
D49B
100
AcDbEntity
  8
7
  6
Continuous
100
AcDbLine
 10
176.744247231391
 20
124.1818693873965
 30
0.0
 11
176.2962239042556
 21
124.1056649075001
 31
0.0
  0
LINE
  5
D5B6
330
D49B
100
AcDbEntity
  8
7
  6
Continuous
100
AcDbLine
 10
177.2231911141493
 20
124.2617969873279
 30
0.0
 11
176.744247231391
 21
124.1818693873965
 31
0.0
  0
LINE
  5
D5B7
330
D49B
100
AcDbEntity
  8
7
  6
Continuous
100
AcDbLine
 10
177.694816312724
 20
124.339196551781
 30
0.0
 11
177.2231911141493
 21
124.2617969873279
 31
0.0
  0
LINE
  5
D5B8
330
D49B
100
AcDbEntity
  8
7
  6
Continuous
100
AcDbLine
 10
178.1618406454663
 20
124.41399691218
 30
0.0
 11
177.694816312724
 21
124.339196551781
 31
0.0
  0
LINE
  5
D5B9
330
D49B
100
AcDbEntity
  8
7
  6
Continuous
100
AcDbLine
 10
178.626099714137
 20
124.4870565622552
 30
0.0
 11
178.1618406454663
 21
124.41399691218
 31
0.0
  0
LINE
  5
D5BA
330
D49B
100
AcDbEntity
  8
7
  6
Continuous
100
AcDbLine
 10
179.0884757353283
 20
124.5574458396973
 30
0.0
 11
178.626099714137
 21
124.4870565622552
 31
0.0
  0
LINE
  5
D5BB
330
D49B
100
AcDbEntity
  8
7
  6
Continuous
100
AcDbLine
 10
179.5508043108009
 20
124.6260232382369
 30
0.0
 11
179.0884757353283
 21
124.5574458396973
 31
0.0
  0
LINE
  5
D5BC
330
D49B
100
AcDbEntity
  8
7
  6
Continuous
100
AcDbLine
 10
180.0149447651751
 20
124.6945531910598
 30
0.0
 11
179.5508043108009
 21
124.6260232382369
 31
0.0
  0
LINE
  5
D5BD
330
D49B
100
AcDbEntity
  8
7
  6
Continuous
100
AcDbLine
 10
180.4835674710841
 20
124.7611526506823
 30
0.0
 11
180.0149447651751
 21
124.6945531910598
 31
0.0
  0
LINE
  5
D5BE
330
D49B
100
AcDbEntity
  8
7
  6
Continuous
100
AcDbLine
 10
180.9566961513883
 20
124.8267275565572
 30
0.0
 11
180.4835674710841
 21
124.7611526506823
 31
0.0
  0
LINE
  5
D5BF
330
D49B
100
AcDbEntity
  8
7
  6
Continuous
100
AcDbLine
 10
182.0038686339203
 20
124.9688332226749
 30
0.0
 11
180.9566961513883
 21
124.8267275565572
 31
0.0
  0
LINE
  5
D5C0
330
D49B
100
AcDbEntity
  8
7
  6
Continuous
100
AcDbLine
 10
182.561486911738
 20
125.0412612971333
 30
0.0
 11
182.0038686339203
 21
124.9688332226749
 31
0.0
  0
LINE
  5
D5C1
330
D49B
100
AcDbEntity
  8
7
  6
Continuous
100
AcDbLine
 10
183.1145280465834
 20
125.1119961069869
 30
0.0
 11
182.561486911738
 21
125.0412612971333
 31
0.0
  0
LINE
  5
D5C2
330
D49B
100
AcDbEntity
  8
7
  6
Continuous
100
AcDbLine
 10
183.6638742550481
 20
125.1801079899258
 30
0.0
 11
183.1145280465834
 21
125.1119961069869
 31
0.0
  0
LINE
  5
D5C3
330
D49B
100
AcDbEntity
  8
7
  6
Continuous
100
AcDbLine
 10
184.213149294934
 20
125.2455020545128
 30
0.0
 11
183.6638742550481
 21
125.1801079899258
 31
0.0
  0
LINE
  5
D5C4
330
D49B
100
AcDbEntity
  8
7
  6
Continuous
100
AcDbLine
 10
184.763306551411
 20
125.3099664567892
 30
0.0
 11
184.213149294934
 21
125.2455020545128
 31
0.0
  0
LINE
  5
D5C5
330
D49B
100
AcDbEntity
  8
7
  6
Continuous
100
AcDbLine
 10
185.3161579033813
 20
125.373453751037
 30
0.0
 11
184.763306551411
 21
125.3099664567892
 31
0.0
  0
LINE
  5
D5C6
330
D49B
100
AcDbEntity
  8
7
  6
Continuous
100
AcDbLine
 10
185.8762330480986
 20
125.4358453229583
 30
0.0
 11
185.3161579033813
 21
125.373453751037
 31
0.0
  0
LINE
  5
D5C7
330
D49B
100
AcDbEntity
  8
7
  6
Continuous
100
AcDbLine
 10
186.4435319855618
 20
125.4971411725544
 30
0.0
 11
185.8762330480986
 21
125.4358453229583
 31
0.0
  0
LINE
  5
D5C8
330
D49B
100
AcDbEntity
  8
7
  6
Continuous
100
AcDbLine
 10
187.0417277557892
 20
125.5612542027331
 30
0.0
 11
186.4435319855618
 21
125.4971411725544
 31
0.0
  0
LINE
  5
D5C9
330
D49B
100
AcDbEntity
  8
7
  6
Continuous
100
AcDbLine
 10
187.6316751795218
 20
125.621956980844
 30
0.0
 11
187.0417277557892
 21
125.5612542027331
 31
0.0
  0
LINE
  5
D5CA
330
D49B
100
AcDbEntity
  8
7
  6
Continuous
100
AcDbLine
 10
188.2179513997325
 20
125.6809427714904
 30
0.0
 11
187.6316751795218
 21
125.621956980844
 31
0.0
  0
LINE
  5
D5CB
330
D49B
100
AcDbEntity
  8
7
  6
Continuous
100
AcDbLine
 10
188.7996504769708
 20
125.7382352975326
 30
0.0
 11
188.2179513997325
 21
125.6809427714904
 31
0.0
  0
LINE
  5
D5CC
330
D49B
100
AcDbEntity
  8
7
  6
Continuous
100
AcDbLine
 10
189.3813021084895
 20
125.7937159446733
 30
0.0
 11
188.7996504769708
 21
125.7382352975326
 31
0.0
  0
LINE
  5
D5CD
330
D49B
100
AcDbEntity
  8
7
  6
Continuous
100
AcDbLine
 10
189.964718173192
 20
125.8473372671931
 30
0.0
 11
189.3813021084895
 21
125.7937159446733
 31
0.0
  0
LINE
  5
D5CE
330
D49B
100
AcDbEntity
  8
7
  6
Continuous
100
AcDbLine
 10
190.5508046105274
 20
125.8990755422342
 30
0.0
 11
189.964718173192
 21
125.8473372671931
 31
0.0
  0
LINE
  5
D5CF
330
D49B
100
AcDbEntity
  8
7
  6
Continuous
100
AcDbLine
 10
191.1423266845675
 20
125.9506714801184
 30
0.0
 11
190.5508046105274
 21
125.8990755422342
 31
0.0
  0
LINE
  5
D5D0
330
D49B
100
AcDbEntity
  8
7
  6
Continuous
100
AcDbLine
 10
194.2173058947569
 20
126.1901662271541
 30
0.0
 11
193.6042073339142
 21
126.1454812140507
 31
0.0
  0
LINE
  5
D5D1
330
D49B
100
AcDbEntity
  8
7
  6
Continuous
100
AcDbLine
 10
193.6042073339142
 20
126.1454812140507
 30
0.0
 11
192.9892494484511
 21
126.0990317677647
 31
0.0
  0
LINE
  5
D5D2
330
D49B
100
AcDbEntity
  8
7
  6
Continuous
100
AcDbLine
 10
194.8294510704295
 20
126.2330630842148
 30
0.0
 11
194.2173058947569
 21
126.1901662271541
 31
0.0
  0
LINE
  5
D5D3
330
D49B
100
AcDbEntity
  8
7
  6
Continuous
100
AcDbLine
 10
195.4424547398348
 20
126.2741243395146
 30
0.0
 11
194.8294510704295
 21
126.2330630842148
 31
0.0
  0
LINE
  5
D5D4
330
D49B
100
AcDbEntity
  8
7
  6
Continuous
100
AcDbLine
 10
196.0590584441827
 20
126.3141847639267
 30
0.0
 11
195.4424547398348
 21
126.2741243395146
 31
0.0
  0
LINE
  5
D5D5
330
D49B
100
AcDbEntity
  8
7
  6
Continuous
100
AcDbLine
 10
196.6801444000662
 20
126.3523146951404
 30
0.0
 11
196.0590584441827
 21
126.3141847639267
 31
0.0
  0
LINE
  5
D5D6
330
D49B
100
AcDbEntity
  8
7
  6
Continuous
100
AcDbLine
 10
197.9621539248073
 20
126.4266248123015
 30
0.0
 11
196.6801444000662
 21
126.3523146951404
 31
0.0
  0
LINE
  5
D5D7
330
D49B
100
AcDbEntity
  8
7
  6
Continuous
100
AcDbLine
 10
198.6094409561847
 20
126.4613489622395
 30
0.0
 11
197.9621539248073
 21
126.4266248123015
 31
0.0
  0
LINE
  5
D5D8
330
D49B
100
AcDbEntity
  8
7
  6
Continuous
100
AcDbLine
 10
199.2530567840399
 20
126.4943561247139
 30
0.0
 11
198.6094409561847
 21
126.4613489622395
 31
0.0
  0
LINE
  5
D5D9
330
D49B
100
AcDbEntity
  8
7
  6
Continuous
100
AcDbLine
 10
199.8939073478243
 20
126.5256225768653
 30
0.0
 11
199.2530567840399
 21
126.4943561247139
 31
0.0
  0
LINE
  5
D5DA
330
D49B
100
AcDbEntity
  8
7
  6
Continuous
100
AcDbLine
 10
200.5338045264389
 20
126.5551008729742
 30
0.0
 11
199.8939073478243
 21
126.5256225768653
 31
0.0
  0
LINE
  5
D5DB
330
D49B
100
AcDbEntity
  8
7
  6
Continuous
100
AcDbLine
 10
201.1754661382365
 20
126.5827198444628
 30
0.0
 11
200.5338045264389
 21
126.5551008729742
 31
0.0
  0
LINE
  5
D5DC
330
D49B
100
AcDbEntity
  8
7
  6
Continuous
100
AcDbLine
 10
201.818892183217
 20
126.6084794913315
 30
0.0
 11
201.1754661382365
 21
126.5827198444628
 31
0.0
  0
LINE
  5
D5DD
330
D49B
100
AcDbEntity
  8
7
  6
Continuous
100
AcDbLine
 10
202.4677538649018
 20
126.6340968010434
 30
0.0
 11
201.818892183217
 21
126.6084794913315
 31
0.0
  0
LINE
  5
D5DE
330
D49B
100
AcDbEntity
  8
7
  6
Continuous
100
AcDbLine
 10
203.1219800147128
 20
126.6568539552454
 30
0.0
 11
202.4677538649018
 21
126.6340968010434
 31
0.0
  0
LINE
  5
D5DF
330
D49B
100
AcDbEntity
  8
7
  6
Continuous
100
AcDbLine
 10
203.7997843131029
 20
126.6799002545551
 30
0.0
 11
203.1219800147128
 21
126.6568539552454
 31
0.0
  0
LINE
  5
D5E0
330
D49B
100
AcDbEntity
  8
7
  6
Continuous
100
AcDbLine
 10
204.4720818062108
 20
126.7003710726687
 30
0.0
 11
203.7997843131029
 21
126.6799002545551
 31
0.0
  0
LINE
  5
D5E1
330
D49B
100
AcDbEntity
  8
7
  6
Continuous
100
AcDbLine
 10
205.1398258792046
 20
126.7200545656283
 30
0.0
 11
204.4720818062108
 21
126.7003710726687
 31
0.0
  0
LINE
  5
D5E2
330
D49B
100
AcDbEntity
  8
7
  6
Continuous
100
AcDbLine
 10
205.8065928441699
 20
126.7370439630951
 30
0.0
 11
205.1398258792046
 21
126.7200545656283
 31
0.0
  0
LINE
  5
D5E3
330
D49B
100
AcDbEntity
  8
7
  6
Continuous
100
AcDbLine
 10
206.4715242073742
 20
126.7531748668302
 30
0.0
 11
205.8065928441699
 21
126.7370439630951
 31
0.0
  0
LINE
  5
D5E4
330
D49B
100
AcDbEntity
  8
7
  6
Continuous
100
AcDbLine
 10
207.1373140643104
 20
126.7674701688045
 30
0.0
 11
206.4715242073742
 21
126.7531748668302
 31
0.0
  0
LINE
  5
D5E5
330
D49B
100
AcDbEntity
  8
7
  6
Continuous
100
AcDbLine
 10
207.8057742938804
 20
126.7798824232982
 30
0.0
 11
207.1373140643104
 21
126.7674701688045
 31
0.0
  0
LINE
  5
D5E6
330
D49B
100
AcDbEntity
  8
7
  6
Continuous
100
AcDbLine
 10
208.4787167749853
 20
126.7903641845944
 30
0.0
 11
207.8057742938804
 21
126.7798824232982
 31
0.0
  0
LINE
  5
D5E7
330
D49B
100
AcDbEntity
  8
7
  6
Continuous
100
AcDbLine
 10
209.8544265704918
 20
126.8078270344731
 30
0.0
 11
208.4787167749853
 21
126.7903641845944
 31
0.0
  0
LINE
  5
D5E8
330
D49B
100
AcDbEntity
  8
7
  6
Continuous
100
AcDbLine
 10
192.9892494484511
 20
126.0990317677647
 30
0.0
 11
192.3688084805649
 21
126.0509127797334
 31
0.0
  0
LINE
  5
D5E9
330
D49B
100
AcDbEntity
  8
7
  6
Continuous
100
AcDbLine
 10
228.3151209119799
 20
126.4422696255746
 30
0.0
 11
227.4938608416107
 21
126.4800931691682
 31
0.0
  0
LINE
  5
D5EA
330
D49B
100
AcDbEntity
  8
7
  6
Continuous
100
AcDbLine
 10
218.5817459571563
 20
126.7678587498894
 30
0.0
 11
217.7861650593741
 21
126.7823458442906
 31
0.0
  0
LINE
  5
D5EB
330
D49B
100
AcDbEntity
  8
7
  6
Continuous
100
AcDbLine
 10
219.3772794092197
 20
126.7515597765866
 30
0.0
 11
218.5817459571563
 21
126.7678587498894
 31
0.0
  0
LINE
  5
D5EC
330
D49B
100
AcDbEntity
  8
7
  6
Continuous
100
AcDbLine
 10
220.1736713550151
 20
126.7334252015221
 30
0.0
 11
219.3772794092197
 21
126.7515597765866
 31
0.0
  0
LINE
  5
D5ED
330
D49B
100
AcDbEntity
  8
7
  6
Continuous
100
AcDbLine
 10
220.9736396128946
 20
126.7133838561199
 30
0.0
 11
220.1736713550151
 21
126.7334252015221
 31
0.0
  0
LINE
  5
D5EE
330
D49B
100
AcDbEntity
  8
7
  6
Continuous
100
AcDbLine
 10
221.7789960617604
 20
126.6913882946585
 30
0.0
 11
220.9736396128946
 21
126.7133838561199
 31
0.0
  0
LINE
  5
D5EF
330
D49B
100
AcDbEntity
  8
7
  6
Continuous
100
AcDbLine
 10
222.6014941916119
 20
126.666224180517
 30
0.0
 11
221.7789960617604
 21
126.6913882946585
 31
0.0
  0
LINE
  5
D5F0
330
D49B
100
AcDbEntity
  8
7
  6
Continuous
100
AcDbLine
 10
223.4185329618995
 20
126.6402964640804
 30
0.0
 11
222.6014941916119
 21
126.666224180517
 31
0.0
  0
LINE
  5
D5F1
330
D49B
100
AcDbEntity
  8
7
  6
Continuous
100
AcDbLine
 10
224.2336886847079
 20
126.6116983750107
 30
0.0
 11
223.4185329618995
 21
126.6402964640804
 31
0.0
  0
LINE
  5
D5F2
330
D49B
100
AcDbEntity
  8
7
  6
Continuous
100
AcDbLine
 10
225.047891022346
 20
126.5813121298986
 30
0.0
 11
224.2336886847079
 21
126.6116983750107
 31
0.0
  0
LINE
  5
D5F3
330
D49B
100
AcDbEntity
  8
7
  6
Continuous
100
AcDbLine
 10
225.8611636976741
 20
126.5500436681957
 30
0.0
 11
225.047891022346
 21
126.5813121298986
 31
0.0
  0
LINE
  5
D5F4
330
D49B
100
AcDbEntity
  8
7
  6
Continuous
100
AcDbLine
 10
226.6761770833261
 20
126.5160099424222
 30
0.0
 11
225.8611636976741
 21
126.5500436681957
 31
0.0
  0
LINE
  5
D5F5
330
D49B
100
AcDbEntity
  8
7
  6
Continuous
100
AcDbLine
 10
227.4938608416107
 20
126.4800931691682
 30
0.0
 11
226.6761770833261
 21
126.5160099424222
 31
0.0
  0
LINE
  5
D5F6
330
D49B
100
AcDbEntity
  8
7
  6
Continuous
100
AcDbLine
 10
213.9914071474652
 20
126.8209755134142
 30
0.0
 11
213.3015839368277
 21
126.8236276387588
 31
0.0
  0
LINE
  5
D5F7
330
D49B
100
AcDbEntity
  8
7
  6
Continuous
100
AcDbLine
 10
211.2381237610393
 20
126.8187348024626
 30
0.0
 11
210.5481107675259
 21
126.8141394121997
 31
0.0
  0
LINE
  5
D5F8
330
D49B
100
AcDbEntity
  8
7
  6
Continuous
100
AcDbLine
 10
211.9263011527905
 20
126.8224716989928
 30
0.0
 11
211.2381237610393
 21
126.8187348024626
 31
0.0
  0
LINE
  5
D5F9
330
D49B
100
AcDbEntity
  8
7
  6
Continuous
100
AcDbLine
 10
212.6135014365136
 20
126.8235145000308
 30
0.0
 11
211.9263011527905
 21
126.8224716989928
 31
0.0
  0
LINE
  5
D5FA
330
D49B
100
AcDbEntity
  8
7
  6
Continuous
100
AcDbLine
 10
213.3015839368277
 20
126.8236276387588
 30
0.0
 11
212.6135014365136
 21
126.8235145000308
 31
0.0
  0
LINE
  5
D5FB
330
D49B
100
AcDbEntity
  8
7
  6
Continuous
100
AcDbLine
 10
214.6857363324973
 20
126.8172988343231
 30
0.0
 11
213.9914071474652
 21
126.8209755134142
 31
0.0
  0
LINE
  5
D5FC
330
D49B
100
AcDbEntity
  8
7
  6
Continuous
100
AcDbLine
 10
216.1893778442295
 20
126.8042148546437
 30
0.0
 11
214.6857363324973
 21
126.8172988343231
 31
0.0
  0
LINE
  5
D5FD
330
D49B
100
AcDbEntity
  8
7
  6
Continuous
100
AcDbLine
 10
216.9896070535626
 20
126.7941388431993
 30
0.0
 11
216.1893778442295
 21
126.8042148546437
 31
0.0
  0
LINE
  5
D5FE
330
D49B
100
AcDbEntity
  8
7
  6
Continuous
100
AcDbLine
 10
217.7861650593741
 20
126.7823458442906
 30
0.0
 11
216.9896070535626
 21
126.7941388431993
 31
0.0
  0
LINE
  5
D5FF
330
D49B
100
AcDbEntity
  8
7
  6
Continuous
100
AcDbLine
 10
229.2694354673135
 20
126.3964291243953
 30
0.0
 11
228.3151209119799
 21
126.4422696255746
 31
0.0
  0
LINE
  5
D600
330
D49B
100
AcDbEntity
  8
7
  6
Continuous
100
AcDbLine
 10
244.4151777394016
 20
125.386082341246
 30
0.0
 11
243.0582375605934
 21
125.4968596047649
 31
0.0
  0
LINE
  5
D601
330
D49B
100
AcDbEntity
  8
7
  6
Continuous
100
AcDbLine
 10
233.0598520959511
 20
126.1920125357826
 30
0.0
 11
232.1130222848174
 21
126.2467226485944
 31
0.0
  0
LINE
  5
D602
330
D49B
100
AcDbEntity
  8
7
  6
Continuous
100
AcDbLine
 10
230.2191728796749
 20
126.3488953586113
 30
0.0
 11
229.2694354673135
 21
126.3964291243953
 31
0.0
  0
LINE
  5
D603
330
D49B
100
AcDbEntity
  8
7
  6
Continuous
100
AcDbLine
 10
231.1670272445565
 20
126.2986912201947
 30
0.0
 11
230.2191728796749
 21
126.3488953586113
 31
0.0
  0
LINE
  5
D604
330
D49B
100
AcDbEntity
  8
7
  6
Continuous
100
AcDbLine
 10
232.1130222848174
 20
126.2467226485944
 30
0.0
 11
231.1670272445565
 21
126.2986912201947
 31
0.0
  0
LINE
  5
D605
330
D49B
100
AcDbEntity
  8
7
  6
Continuous
100
AcDbLine
 10
234.0093522797185
 20
126.1354193754912
 30
0.0
 11
233.0598520959511
 21
126.1920125357826
 31
0.0
  0
LINE
  5
D606
330
D49B
100
AcDbEntity
  8
7
  6
Continuous
100
AcDbLine
 10
236.0891846945135
 20
126.0038993912665
 30
0.0
 11
234.0093522797185
 21
126.1354193754912
 31
0.0
  0
LINE
  5
D607
330
D49B
100
AcDbEntity
  8
7
  6
Continuous
100
AcDbLine
 10
237.2113634704847
 20
125.9291860730675
 30
0.0
 11
236.0891846945135
 21
126.0038993912665
 31
0.0
  0
LINE
  5
D608
330
D49B
100
AcDbEntity
  8
7
  6
Continuous
100
AcDbLine
 10
238.331659198976
 20
125.851802382235
 30
0.0
 11
237.2113634704847
 21
125.9291860730675
 31
0.0
  0
LINE
  5
D609
330
D49B
100
AcDbEntity
  8
7
  6
Continuous
100
AcDbLine
 10
239.4518837588889
 20
125.7717008730503
 30
0.0
 11
238.331659198976
 21
125.851802382235
 31
0.0
  0
LINE
  5
D60A
330
D49B
100
AcDbEntity
  8
7
  6
Continuous
100
AcDbLine
 10
240.5729430896745
 20
125.6888578226542
 30
0.0
 11
239.4518837588889
 21
125.7717008730503
 31
0.0
  0
LINE
  5
D60B
330
D49B
100
AcDbEntity
  8
7
  6
Continuous
100
AcDbLine
 10
243.0582375605934
 20
125.4968596047649
 30
0.0
 11
240.5729430896745
 21
125.6888578226542
 31
0.0
  0
LINE
  5
D60C
330
D49B
100
AcDbEntity
  8
7
  6
Continuous
100
AcDbLine
 10
282.2610005729148
 20
121.1831101896795
 30
0.0
 11
280.6079471184851
 21
121.410428730893
 31
0.0
  0
LINE
  5
D60D
330
D49B
100
AcDbEntity
  8
7
  6
Continuous
100
AcDbLine
 10
263.812260091325
 20
123.4938337428614
 30
0.0
 11
262.1173481100782
 21
123.6805465980133
 31
0.0
  0
LINE
  5
D60E
330
D49B
100
AcDbEntity
  8
7
  6
Continuous
100
AcDbLine
 10
252.5778304212206
 20
124.6583158665439
 30
0.0
 11
251.2141171839944
 21
124.7874017019539
 31
0.0
  0
LINE
  5
D60F
330
D49B
100
AcDbEntity
  8
7
  6
Continuous
100
AcDbLine
 10
247.1279386518327
 20
125.1563980820101
 30
0.0
 11
245.7711408101807
 21
125.2726109822338
 31
0.0
  0
LINE
  5
D610
330
D49B
100
AcDbEntity
  8
7
  6
Continuous
100
AcDbLine
 10
248.4873594203987
 20
125.0364902554061
 30
0.0
 11
247.1279386518327
 21
125.1563980820101
 31
0.0
  0
LINE
  5
D611
330
D49B
100
AcDbEntity
  8
7
  6
Continuous
100
AcDbLine
 10
249.8512387176406
 20
124.9137459961514
 30
0.0
 11
248.4873594203987
 21
125.0364902554061
 31
0.0
  0
LINE
  5
D612
330
D49B
100
AcDbEntity
  8
7
  6
Continuous
100
AcDbLine
 10
251.2141171839944
 20
124.7874017019539
 30
0.0
 11
249.8512387176406
 21
124.9137459961514
 31
0.0
  0
LINE
  5
D613
330
D49B
100
AcDbEntity
  8
7
  6
Continuous
100
AcDbLine
 10
253.9405665504173
 20
124.5265359356419
 30
0.0
 11
252.5778304212206
 21
124.6583158665439
 31
0.0
  0
LINE
  5
D614
330
D49B
100
AcDbEntity
  8
7
  6
Continuous
100
AcDbLine
 10
255.3032315110365
 20
124.3920381863875
 30
0.0
 11
253.9405665504173
 21
124.5265359356419
 31
0.0
  0
LINE
  5
D615
330
D49B
100
AcDbEntity
  8
7
  6
Continuous
100
AcDbLine
 10
257.00670023595
 20
124.2205127961633
 30
0.0
 11
255.3032315110365
 21
124.3920381863875
 31
0.0
  0
LINE
  5
D616
330
D49B
100
AcDbEntity
  8
7
  6
Continuous
100
AcDbLine
 10
258.7109562860173
 20
124.0444339858277
 30
0.0
 11
257.00670023595
 21
124.2205127961633
 31
0.0
  0
LINE
  5
D617
330
D49B
100
AcDbEntity
  8
7
  6
Continuous
100
AcDbLine
 10
260.4160233840976
 20
123.8647076948282
 30
0.0
 11
258.7109562860173
 21
124.0444339858277
 31
0.0
  0
LINE
  5
D618
330
D49B
100
AcDbEntity
  8
7
  6
Continuous
100
AcDbLine
 10
262.1173481100782
 20
123.6805465980133
 30
0.0
 11
260.4160233840976
 21
123.8647076948282
 31
0.0
  0
LINE
  5
D619
330
D49B
100
AcDbEntity
  8
7
  6
Continuous
100
AcDbLine
 10
272.9393515138738
 20
122.4144507148871
 30
0.0
 11
271.5902474513632
 21
122.5821361037874
 31
0.0
  0
LINE
  5
D61A
330
D49B
100
AcDbEntity
  8
7
  6
Continuous
100
AcDbLine
 10
271.5902474513632
 20
122.5821361037874
 30
0.0
 11
270.2428840991761
 21
122.7470562286178
 31
0.0
  0
LINE
  5
D61B
330
D49B
100
AcDbEntity
  8
7
  6
Continuous
100
AcDbLine
 10
274.2865962517635
 20
122.2450008928028
 30
0.0
 11
272.9393515138738
 21
122.4144507148871
 31
0.0
  0
LINE
  5
D61C
330
D49B
100
AcDbEntity
  8
7
  6
Continuous
100
AcDbLine
 10
275.6265223054695
 20
122.0730230352426
 30
0.0
 11
274.2865962517635
 21
122.2450008928028
 31
0.0
  0
LINE
  5
D61D
330
D49B
100
AcDbEntity
  8
7
  6
Continuous
100
AcDbLine
 10
277.2807900965227
 20
121.857457984029
 30
0.0
 11
275.6265223054695
 21
122.0730230352426
 31
0.0
  0
LINE
  5
D61E
330
D49B
100
AcDbEntity
  8
7
  6
Continuous
100
AcDbLine
 10
278.9448808843776
 20
121.6361963446582
 30
0.0
 11
277.2807900965227
 21
121.857457984029
 31
0.0
  0
LINE
  5
D61F
330
D49B
100
AcDbEntity
  8
7
  6
Continuous
100
AcDbLine
 10
280.6079471184851
 20
121.410428730893
 30
0.0
 11
278.9448808843776
 21
121.6361963446582
 31
0.0
  0
LINE
  5
D620
330
D49B
100
AcDbEntity
  8
7
  6
Continuous
100
AcDbLine
 10
265.510677216078
 20
123.302496299018
 30
0.0
 11
263.812260091325
 21
123.4938337428614
 31
0.0
  0
LINE
  5
D621
330
D49B
100
AcDbEntity
  8
7
  6
Continuous
100
AcDbLine
 10
267.2080697870829
 20
123.106652880781
 30
0.0
 11
265.510677216078
 21
123.302496299018
 31
0.0
  0
LINE
  5
D622
330
D49B
100
AcDbEntity
  8
7
  6
Continuous
100
AcDbLine
 10
270.2428840991761
 20
122.7470562286178
 30
0.0
 11
267.2080697870829
 21
123.106652880781
 31
0.0
  0
LINE
  5
D623
330
D49B
100
AcDbEntity
  8
7
  6
Continuous
100
AcDbLine
 10
299.2944621701727
 20
118.6247869724732
 30
0.0
 11
297.2126249916998
 21
118.9567093581909
 31
0.0
  0
LINE
  5
D624
330
D49B
100
AcDbEntity
  8
7
  6
Continuous
100
AcDbLine
 10
297.2126249916998
 20
118.9567093581909
 30
0.0
 11
293.0350057001017
 21
119.6073208807561
 31
0.0
  0
LINE
  5
D625
330
D49B
100
AcDbEntity
  8
7
  6
Continuous
100
AcDbLine
 10
283.8850402420612
 20
120.9556448405162
 30
0.0
 11
282.2610005729148
 21
121.1831101896795
 31
0.0
  0
LINE
  5
D626
330
D49B
100
AcDbEntity
  8
7
  6
Continuous
100
AcDbLine
 10
285.5207147869114
 20
120.7224354574762
 30
0.0
 11
283.8850402420612
 21
120.9556448405162
 31
0.0
  0
LINE
  5
D627
330
D49B
100
AcDbEntity
  8
7
  6
Continuous
100
AcDbLine
 10
287.1572003797742
 20
120.4855785937736
 30
0.0
 11
285.5207147869114
 21
120.7224354574762
 31
0.0
  0
LINE
  5
D628
330
D49B
100
AcDbEntity
  8
7
  6
Continuous
100
AcDbLine
 10
288.7791434957064
 20
120.2472894169202
 30
0.0
 11
287.1572003797742
 21
120.4855785937736
 31
0.0
  0
LINE
  5
D629
330
D49B
100
AcDbEntity
  8
7
  6
Continuous
100
AcDbLine
 10
290.8985749259891
 20
119.9316072435304
 30
0.0
 11
288.7791434957064
 21
120.2472894169202
 31
0.0
  0
LINE
  5
D62A
330
D49B
100
AcDbEntity
  8
7
  6
Continuous
100
AcDbLine
 10
293.0350057001017
 20
119.6073208807561
 30
0.0
 11
290.8985749259891
 21
119.9316072435304
 31
0.0
  0
LINE
  5
D62B
330
D49B
100
AcDbEntity
  8
7
  6
Continuous
100
AcDbLine
 10
311.2215164454493
 20
116.6298894876988
 30
0.0
 11
309.2767133526349
 21
116.9672891161542
 31
0.0
  0
LINE
  5
D62C
330
D49B
100
AcDbEntity
  8
7
  6
Continuous
100
AcDbLine
 10
303.3476593598444
 20
117.9656482687858
 30
0.0
 11
299.2944621701727
 21
118.6247869724732
 31
0.0
  0
LINE
  5
D62D
330
D49B
100
AcDbEntity
  8
7
  6
Continuous
100
AcDbLine
 10
305.3650562230164
 20
117.6308805088313
 30
0.0
 11
303.3476593598444
 21
117.9656482687858
 31
0.0
  0
LINE
  5
D62E
330
D49B
100
AcDbEntity
  8
7
  6
Continuous
100
AcDbLine
 10
309.2767133526349
 20
116.9672891161542
 30
0.0
 11
305.3650562230164
 21
117.6308805088313
 31
0.0
  0
LINE
  5
D62F
330
D49B
100
AcDbEntity
  8
7
  6
Continuous
100
AcDbLine
 10
314.9727274008465
 20
115.966873283334
 30
0.0
 11
311.2215164454493
 21
116.6298894876988
 31
0.0
  0
LINE
  5
D630
330
D49B
100
AcDbEntity
  8
0
100
AcDbLine
 10
636.7071170290946
 20
185.7161754050746
 30
0.0
 11
695.4758363521809
 21
185.7161754050746
 31
0.0
  0
ARC
  5
D631
330
D49B
100
AcDbEntity
  8
0
100
AcDbCircle
 10
636.7071170290946
 20
187.5286754050746
 30
0.0
 40
1.8125
100
AcDbArc
 50
263.922188473406
 51
269.9999999999996
  0
LINE
  5
D632
330
D49B
100
AcDbEntity
  8
0
100
AcDbLine
 10
636.5152113521808
 20
185.7263634284268
 30
0.0
 11
636.5152113521808
 21
189.360399040966
 31
0.0
  0
LINE
  5
D633
330
D49B
100
AcDbEntity
  8
0
100
AcDbLine
 10
695.4758363521809
 20
152.1271778390087
 30
0.0
 11
695.4758363521809
 21
185.7161754050746
 31
0.0
  0
ENDBLK
  5
D635
330
D49B
100
AcDbEntity
  8
0
100
AcDbBlockEnd
  0
BLOCK
  5
DA04
330
D9EA
100
AcDbEntity
  8
0
100
AcDbBlockBegin
  2
A$C38AE60AF
 70
     0
 10
0.0
 20
0.0
 30
0.0
  3
A$C38AE60AF
  1

  0
LINE
  5
D9EB
330
D9EA
100
AcDbEntity
  8
0
  6
PHANTOM
 62
     4
 48
5.0
100
AcDbLine
 10
-717.1972795917632
 20
-496.5843583392
 30
0.0
 11
-864.9133748898826
 21
-504.1582782946358
 31
0.0
  0
SPLINE
  5
D9EC
330
D9EA
100
AcDbEntity
  8
0
  6
PHANTOM
 62
     4
 48
5.0
100
AcDbSpline
210
0.0
220
0.0
230
1.0
 70
     8
 71
     3
 72
    14
 73
    10
 74
     0
 42
0.0000000001
 43
0.0000000001
 40
94.97784033419478
 40
94.97784033419478
 40
94.97784033419478
 40
94.97784033419478
 40
96.5697368317684
 40
96.5697368317684
 40
118.4979648124746
 40
118.4979648124746
 40
162.3544207738872
 40
162.3544207738872
 40
179.2146857983096
 40
179.2146857983096
 40
179.2146857983096
 40
179.2146857983096
 10
-864.9133748898837
 20
-574.2817628119467
 30
0.0
 10
-864.4405354619747
 20
-574.3288124785486
 30
0.0
 10
-863.9676484696208
 20
-574.3753794583667
 30
0.0
 10
-856.980080845561
 20
-575.0563624694567
 30
0.0
 10
-850.45637643285
 20
-575.6008389583302
 30
0.0
 10
-830.8567750056017
 20
-577.0119459180469
 30
0.0
 10
-817.7523272650528
 20
-577.6561286891364
 30
0.0
 10
-799.5542052329233
 20
-578.3198752225969
 30
0.0
 10
-794.4948746538438
 20
-578.4798602732876
 30
0.0
 10
-789.4295073551216
 20
-578.6230842793661
 30
0.0
  0
LINE
  5
D9ED
330
D9EA
100
AcDbEntity
  8
0
  6
PHANTOM
 62
     4
 48
5.0
100
AcDbLine
 10
-697.8789730012123
 20
-479.4955737258992
 30
0.0
 11
-717.1972795917628
 21
-496.5843583392001
 31
0.0
  0
LINE
  5
D9EE
330
D9EA
100
AcDbEntity
  8
0
  6
PHANTOM
 62
     4
 48
5.0
100
AcDbLine
 10
-697.8789730012123
 20
-479.4955737258992
 30
0.0
 11
-594.8620681102478
 21
-481.5777781464563
 31
0.0
  0
LINE
  5
D9EF
330
D9EA
100
AcDbEntity
  8
0
100
AcDbLine
 10
-621.7391405109473
 20
-444.5984853833888
 30
0.0
 11
-611.6218013673332
 21
-615.2347069794529
 31
0.0
  0
MTEXT
  5
D9F0
330
D9EA
100
AcDbEntity
  8
0
100
AcDbMText
 10
-723.1118769664313
 20
-430.0615826595706
 30
0.0
 40
8.0
 41
489.12
 71
     1
 72
     5
  1
Sagome in compensato
 73
     1
 44
1.0
1001
ACAD
1000
MTEXTBEGIN
1070
    73
1070
     1
1070
    44
1040
1.0
1070
    74
1070
     0
1000
MTEXTEND
  0
LINE
  5
D9F1
330
D9EA
100
AcDbEntity
  8
0
100
AcDbLine
 10
-601.5487041781169
 20
-444.5984853833888
 30
0.0
 11
-535.208712482683
 21
-473.4089072150742
 31
0.0
  0
SPLINE
  5
D9F2
330
D9EA
100
AcDbEntity
  8
0
  6
PHANTOM
 62
     4
 48
5.0
100
AcDbSpline
210
0.0
220
0.0
230
1.0
 70
     8
 71
     3
 72
    22
 73
    18
 74
     0
 42
0.0000000001
 43
0.0000000001
 40
0.0
 40
0.0
 40
0.0
 40
0.0
 40
26.86265960158459
 40
26.86265960158459
 40
80.58797880475378
 40
80.58797880475378
 40
138.4606823365349
 40
138.4606823365349
 40
196.333385868316
 40
196.333385868316
 40
213.2346883498519
 40
213.2346883498519
 40
247.0372933129235
 40
247.0372933129235
 40
257.0359783216394
 40
257.0359783216394
 40
276.4672874025943
 40
276.4672874025943
 40
276.4672874025943
 40
276.4672874025943
 10
-595.5033237046063
 20
-481.5441958857416
 30
0.0
 10
-587.4174519906075
 20
-482.2285452442786
 30
0.0
 10
-579.333317834345
 20
-482.9127480019961
 30
0.0
 10
-555.0872347235538
 20
-484.9775951068651
 30
0.0
 10
-538.9316057481726
 20
-486.3704837253679
 30
0.0
 10
-505.3968170477237
 20
-489.3677879562508
 30
0.0
 10
-488.0206011253806
 20
-490.9805058613604
 30
0.0
 10
-453.2969137982969
 20
-494.4051216390845
 30
0.0
 10
-435.9462612532502
 20
-496.2145466981048
 30
0.0
 10
-413.5474090272132
 20
-498.6938286821093
 30
0.0
 10
-408.4858060614979
 20
-499.2635609212661
 30
0.0
 10
-393.3050047834425
 20
-501.0016865402423
 30
0.0
 10
-383.1898141343572
 20
-502.1990088969085
 30
0.0
 10
-370.0904043256617
 20
-503.8036602841224
 30
0.0
 10
-367.1006806350242
 20
-504.1735499470691
 30
0.0
 10
-358.3023743427782
 20
-505.2730316565775
 30
0.0
 10
-352.4953067723745
 20
-506.0127684021528
 30
0.0
 10
-346.6904305246251
 20
-506.7667698175943
 30
0.0
  0
SPLINE
  5
D9F3
330
D9EA
100
AcDbEntity
  8
0
  6
PHANTOM
 62
     4
 48
5.0
100
AcDbSpline
210
0.0
220
0.0
230
1.0
 70
     8
 71
     3
 72
    14
 73
    10
 74
     0
 42
0.0000000001
 43
0.0000000001
 40
410.1364781280398
 40
410.1364781280398
 40
410.1364781280398
 40
410.1364781280398
 40
474.9251971596509
 40
474.9251971596509
 40
523.4224358724851
 40
523.4224358724851
 40
602.8622849776378
 40
602.8622849776378
 40
672.5270794745661
 40
672.5270794745661
 40
672.5270794745661
 40
672.5270794745661
 10
-581.0796908358557
 20
-576.5407686823391
 30
0.0
 10
-561.6468017330048
 20
-575.3861422834529
 30
0.0
 10
-542.2238479684251
 20
-573.9256568254598
 30
0.0
 10
-508.2811940753011
 20
-570.9252054642992
 30
0.0
 10
-493.7566575134126
 20
-569.4975745450529
 30
0.0
 10
-455.4580479194457
 20
-565.409683207936
 30
0.0
 10
-431.717805882804
 20
-562.5550474415441
 30
0.0
 10
-387.3149844068585
 20
-556.3970452782655
 30
0.0
 10
-366.6313626317119
 20
-553.1916200050948
 30
0.0
 10
-346.0338840198537
 20
-549.5827851410687
 30
0.0
  0
ARC
  5
D9F4
330
D9EA
100
AcDbEntity
  8
0
  6
PHANTOM
 62
     4
 48
5.0
100
AcDbCircle
 10
-348.6225651253019
 20
-534.8078492652578
 30
0.0
 40
15.0
100
AcDbArc
 50
279.9377864455831
 51
359.9999999999965
  0
ARC
  5
D9F5
330
D9EA
100
AcDbEntity
  8
0
  6
PHANTOM
 62
     4
 48
5.0
100
AcDbCircle
 10
-348.622565125301
 20
-521.6418111918184
 30
0.0
 40
15.0
100
AcDbArc
 50
0.0
 51
82.59922712797211
  0
LINE
  5
D9F6
330
D9EA
100
AcDbEntity
  8
0
  6
PHANTOM
 62
     4
 48
5.0
100
AcDbLine
 10
-333.6225651253008
 20
-521.6418111918206
 30
0.0
 11
-333.6225651253008
 21
-534.8078492652594
 31
0.0
  0
LINE
  5
D9F7
330
D9EA
100
AcDbEntity
  8
0
100
AcDbLine
 10
-863.5064140265408
 20
-536.4742309654855
 30
0.0
 11
-826.2713004188297
 21
-532.0986492410614
 31
0.0
  0
MTEXT
  5
D9F8
330
D9EA
100
AcDbEntity
  8
0
100
AcDbMText
 10
-822.462207685599
 20
-526.4479330190095
 30
0.0
 40
2.5
 41
0.0
 71
     1
 72
     5
  1
Posizione parafiamma
 73
     1
 44
1.0
1001
ACAD
1000
MTEXTBEGIN
1070
    73
1070
     1
1070
    44
1040
1.0
1070
    74
1070
     0
1000
MTEXTEND
  0
SPLINE
  5
D9F9
330
D9EA
100
AcDbEntity
  8
0
  6
PHANTOM
 62
     4
 48
5.0
100
AcDbSpline
210
0.0
220
0.0
230
1.0
 70
     8
 71
     3
 72
    10
 73
     6
 74
     0
 42
0.0000000001
 43
0.0000000001
 40
232.4641022275756
 40
232.4641022275756
 40
232.4641022275756
 40
232.4641022275756
 40
268.1088787206814
 40
268.1088787206814
 40
366.6531368531072
 40
366.6531368531072
 40
366.6531368531072
 40
366.6531368531072
 10
-864.9133748898835
 20
-681.7741435823887
 30
0.0
 10
-859.666453293882
 20
-681.8527774228619
 30
0.0
 10
-854.4012158728888
 20
-681.8447680466403
 30
0.0
 10
-834.5118056262151
 20
-681.5643396852931
 30
0.0
 10
-819.7675106125142
 20
-680.8496885433815
 30
0.0
 10
-804.8967819606783
 20
-680.0724727752324
 30
0.0
  0
SPLINE
  5
D9FA
330
D9EA
100
AcDbEntity
  8
0
  6
PHANTOM
 62
     4
 48
5.0
100
AcDbSpline
210
0.0
220
0.0
230
1.0
 70
     8
 71
     3
 72
    10
 73
     6
 74
     0
 42
0.0000000001
 43
0.0000000001
 40
232.4641022276223
 40
232.4641022276223
 40
232.4641022276223
 40
232.4641022276223
 40
268.1088633513086
 40
268.1088633513086
 40
366.6531368531072
 40
366.6531368531072
 40
366.6531368531072
 40
366.6531368531072
 10
-864.913374889883
 20
-627.6149765617065
 30
0.0
 10
-859.666455556281
 20
-627.5363427551159
 30
0.0
 10
-854.4012204134777
 20
-627.5443520905094
 30
0.0
 10
-834.5118102250847
 20
-627.8247802362947
 30
0.0
 10
-819.7675129318136
 20
-628.5394314795276
 30
0.0
 10
-804.8967819606783
 20
-629.3166473688942
 30
0.0
  0
LINE
  5
D9FB
330
D9EA
100
AcDbEntity
  8
0
  6
PHANTOM
 62
     4
 48
5.0
100
AcDbLine
 10
-804.635814112059
 20
-680.065657708918
 30
0.0
 11
-605.1047235610552
 21
-680.065657708918
 31
0.0
  0
LINE
  5
D9FC
330
D9EA
100
AcDbEntity
  8
0
  6
PHANTOM
 62
     4
 48
5.0
100
AcDbLine
 10
-804.635814112059
 20
-629.323462435209
 30
0.0
 11
-605.1047235610552
 21
-629.323462435209
 31
0.0
  0
SPLINE
  5
D9FD
330
D9EA
100
AcDbEntity
  8
0
  6
PHANTOM
 62
     4
 48
5.0
100
AcDbSpline
210
0.0
220
0.0
230
1.0
 70
     8
 71
     3
 72
    24
 73
    20
 74
     0
 42
0.0000000001
 43
0.0000000001
 40
75.44798731245788
 40
75.44798731245788
 40
75.44798731245788
 40
75.44798731245788
 40
92.53913385046827
 40
92.53913385046827
 40
118.8902396095948
 40
118.8902396095948
 40
136.8112638795093
 40
136.8112638795093
 40
183.3619477780087
 40
183.3619477780087
 40
213.1303574200986
 40
213.1303574200986
 40
235.0368357950351
 40
235.0368357950351
 40
256.9433141699715
 40
256.9433141699715
 40
300.7562709198445
 40
300.7562709198445
 40
346.0086586602973
 40
346.0086586602973
 40
346.0086586602973
 40
346.0086586602973
 10
-333.6225651253017
 20
-660.4440744554588
 30
0.0
 10
-340.0326505739047
 20
-661.0720866214085
 30
0.0
 10
-346.2356431159035
 20
-661.677043810276
 30
0.0
 10
-361.6237643761119
 20
-663.1729387578541
 30
0.0
 10
-370.6037819469652
 20
-664.041240320347
 30
0.0
 10
-385.4538684574483
 20
-665.4751328910236
 30
0.0
 10
-391.3999042781293
 20
-666.0487108186221
 30
0.0
 10
-412.7960117810841
 20
-668.1148036942822
 30
0.0
 10
-428.2221075179466
 20
-669.6077149289472
 30
0.0
 10
-453.4867923221098
 20
-671.8788509164279
 30
0.0
 10
-463.3348045551346
 20
-672.7207148725931
 30
0.0
 10
-480.4215952137467
 20
-674.0567265594725
 30
0.0
 10
-487.6596590261462
 20
-674.5826769343364
 30
0.0
 10
-502.1478454619643
 20
-675.5403743148243
 30
0.0
 10
-509.3988981026341
 20
-675.975074646316
 30
0.0
 10
-531.1712275189148
 20
-677.1727804994408
 30
0.0
 10
-545.7116791312683
 20
-677.8293615541088
 30
0.0
 10
-575.3128441917502
 20
-679.0175765160387
 30
0.0
 10
-590.3749505446371
 20
-679.5443938287946
 30
0.0
 10
-605.4542437459661
 20
-680.0717677935562
 30
0.0
  0
SPLINE
  5
D9FE
330
D9EA
100
AcDbEntity
  8
0
  6
PHANTOM
 62
     4
 48
5.0
100
AcDbSpline
210
0.0
220
0.0
230
1.0
 70
     8
 71
     3
 72
    24
 73
    20
 74
     0
 42
0.0000000001
 43
0.0000000001
 40
75.44798731245741
 40
75.44798731245741
 40
75.44798731245741
 40
75.44798731245741
 40
92.53913385046828
 40
92.53913385046828
 40
118.8902396128982
 40
118.8902396128982
 40
136.8112638852457
 40
136.8112638852457
 40
183.3619475441106
 40
183.3619475441106
 40
213.1303571407074
 40
213.1303571407074
 40
235.0368353907911
 40
235.0368353907911
 40
256.9433136408749
 40
256.9433136408749
 40
300.7562701410423
 40
300.7562701410423
 40
346.0086586602973
 40
346.0086586602973
 40
346.0086586602973
 40
346.0086586602973
 10
-333.6225651253008
 20
-648.9450456886666
 30
0.0
 10
-340.0326505739041
 20
-648.3170335227173
 30
0.0
 10
-346.2356431159033
 20
-647.7120763338497
 30
0.0
 10
-361.6237643772822
 20
-646.2161813861578
 30
0.0
 10
-370.6037819492165
 20
-645.347879823561
 30
0.0
 10
-385.4538684615641
 20
-643.913987252705
 30
0.0
 10
-391.3999042830349
 20
-643.3404093250304
 30
0.0
 10
-412.7960117072623
 20
-641.2743164569715
 30
0.0
 10
-428.2221073648261
 20
-639.7814052300097
 30
0.0
 10
-453.4867920748638
 20
-637.5102692492419
 30
0.0
 10
-463.3348042929368
 20
-636.6684052933826
 30
0.0
 10
-480.421594895379
 20
-635.3323936085544
 30
0.0
 10
-487.6596586666599
 20
-634.8064432351979
 30
0.0
 10
-502.1478450193913
 20
-633.8487458569094
 30
0.0
 10
-509.3988976184483
 20
-633.4140455261748
 30
0.0
 10
-531.171226909715
 20
-632.2163396747376
 30
0.0
 10
-545.71167843849
 20
-631.5597586204164
 30
0.0
 10
-575.3128436733066
 20
-630.3715436462221
 30
0.0
 10
-590.3749502851196
 20
-629.844726324407
 30
0.0
 10
-605.4542437459661
 20
-629.3173523505692
 30
0.0
  0
LINE
  5
D9FF
330
D9EA
100
AcDbEntity
  8
0
  6
PHANTOM
 62
     4
 48
5.0
100
AcDbLine
 10
-333.6225651253008
 20
-648.9450456886666
 30
0.0
 11
-333.6225651253008
 21
-660.4440744554588
 31
0.0
  0
MTEXT
  5
DA00
330
D9EA
100
AcDbEntity
  8
0
100
AcDbMText
 10
-776.4656666783691
 20
-269.7792152146888
 30
0.0
 40
8.0
 41
489.12
 71
     1
 72
     5
  1
Sezioni indicative fusoliera
 73
     1
 44
1.0
1001
ACAD
1000
MTEXTBEGIN
1070
    73
1070
     1
1070
    44
1040
1.0
1070
    74
1070
     0
1000
MTEXTEND
  0
SPLINE
  5
DA01
330
D9EA
100
AcDbEntity
  8
0
100
AcDbSpline
210
0.0
220
0.0
230
1.0
 70
     8
 71
     3
 72
     9
 73
     5
 74
     0
 42
0.0000000001
 43
0.0000000001
 40
0.0
 40
0.0
 40
0.0
 40
0.0
 40
32.66652887127352
 40
43.03714494211868
 40
43.03714494211868
 40
43.03714494211868
 40
43.03714494211868
 10
92.36474492115506
 20
62.00000624399853
 30
0.0
 10
95.339294124645
 20
73.28950137356173
 30
0.0
 10
99.2581710188665
 20
88.16306324262269
 30
0.0
 10
111.2509898740147
 20
95.8224346989466
 30
0.0
 10
114.3394930015838
 20
97.49064794896959
 30
0.0
  0
SPLINE
  5
DA02
330
D9EA
100
AcDbEntity
  8
0
100
AcDbSpline
210
0.0
220
0.0
230
1.0
 70
     8
 71
     3
 72
     9
 73
     5
 74
     0
 42
0.0000000001
 43
0.0000000001
 40
0.0
 40
0.0
 40
0.0
 40
0.0
 40
32.66652887127352
 40
43.03714494211868
 40
43.03714494211868
 40
43.03714494211868
 40
43.03714494211868
 10
136.3142410819771
 20
62.00000624399853
 30
0.0
 10
133.3396918784872
 20
73.28950137356173
 30
0.0
 10
129.4208149842657
 20
88.16306324262269
 30
0.0
 10
117.4279961291174
 20
95.8224346989466
 30
0.0
 10
114.3394930015483
 20
97.49064794896959
 30
0.0
  0
LINE
  5
DA03
330
D9EA
100
AcDbEntity
  8
0
100
AcDbLine
 10
92.36474492115506
 20
62.00000624399853
 30
0.0
 11
136.3142410819771
 21
62.00000624399853
 31
0.0
  0
ENDBLK
  5
DA05
330
D9EA
100
AcDbEntity
  8
0
100
AcDbBlockEnd
  0
BLOCK
  5
DA3A
330
DA36
100
AcDbEntity
  8
0
100
AcDbBlockBegin
  2
A$C5D7416B9
 70
     0
 10
0.0
 20
0.0
 30
0.0
  3
A$C5D7416B9
  1

  0
LINE
  5
DA37
330
DA36
100
AcDbEntity
  8
0
100
AcDbLine
 10
0.0
 20
-0.0000002582303296
 30
0.0
 11
0.0
 21
171.3109403233575
 31
0.0
  0
MTEXT
  5
DA38
330
DA36
100
AcDbEntity
  8
0
100
AcDbMText
 10
7.763205562751862
 20
163.5874008945916
 30
0.0
 40
14.0
 41
184.84
 71
     1
 72
     5
  1
Disegno in riferimento all'articolo pubblicato su Modellismo (www.edimodel.com) n° 55 
 73
     1
 44
1.0
1001
ACAD
1000
MTEXTBEGIN
1070
    73
1070
     1
1070
    44
1040
1.0
1070
    74
1070
     0
1000
MTEXTEND
  0
LINE
  5
DA39
330
DA36
100
AcDbEntity
  8
0
100
AcDbLine
 10
0.0
 20
171.3109403233575
 30
0.0
 11
219.1900788693171
 21
171.3109403233575
 31
0.0
  0
ENDBLK
  5
DA3B
330
DA36
100
AcDbEntity
  8
0
100
AcDbBlockEnd
  0
BLOCK
  5
DA44
330
DA40
100
AcDbEntity
  8
0
100
AcDbBlockBegin
  2
A$C2A792741
 70
     0
 10
0.0
 20
0.0
 30
0.0
  3
A$C2A792741
  1

  0
MTEXT
  5
DA41
330
DA40
100
AcDbEntity
  8
0
100
AcDbMText
 10
37.9254273473025
 20
48.56662238950526
 30
0.0
 40
8.0
 41
0.0
 71
     1
 72
     5
  1
Balsa 4 mm
 73
     1
 44
1.0
1001
ACAD
1000
MTEXTBEGIN
1070
    73
1070
     1
1070
    44
1040
1.0
1070
    74
1070
     0
1000
MTEXTEND
  0
LINE
  5
DA42
330
DA40
100
AcDbEntity
  8
0
100
AcDbLine
 10
66.12638539467752
 20
34.96796744955033
 30
0.0
 11
0.9724436327014698
 21
-0.0000008740821613
 31
0.0
  0
LINE
  5
DA43
330
DA40
100
AcDbEntity
  8
0
100
AcDbLine
 10
55.42946930304879
 20
35.93929975501601
 30
0.0
 11
-0.0000015795003492
 21
22.34064481506107
 31
0.0
  0
ENDBLK
  5
DA45
330
DA40
100
AcDbEntity
  8
0
100
AcDbBlockEnd
  0
BLOCK
  5
DB17
330
DB06
100
AcDbEntity
  8
0
100
AcDbBlockBegin
  2
A$C13137506
 70
     0
 10
0.0
 20
0.0
 30
0.0
  3
A$C13137506
  1

  0
LINE
  5
DB07
330
DB06
100
AcDbEntity
  8
0
100
AcDbLine
 10
68.77050777130978
 20
7.758956804090757
 30
0.0
 11
107.6628799850006
 21
7.758956804090757
 31
0.0
  0
LINE
  5
DB08
330
DB06
100
AcDbEntity
  8
0
100
AcDbLine
 10
68.77050777131035
 20
3.758956804090756
 30
0.0
 11
107.6628799850007
 21
3.758956804090756
 31
0.0
  0
ARC
  5
DB09
330
DB06
100
AcDbEntity
  8
0
100
AcDbCircle
 10
107.6628799850006
 20
5.758956804090757
 30
0.0
 40
2.0
100
AcDbArc
 50
0.0000000000032569
 51
90.0
  0
LINE
  5
DB0A
330
DB06
100
AcDbEntity
  8
0
100
AcDbLine
 10
109.6628799850006
 20
5.758956804090757
 30
0.0
 11
109.6628799850007
 21
5.758956804090757
 31
0.0
  0
ARC
  5
DB0B
330
DB06
100
AcDbEntity
  8
0
100
AcDbCircle
 10
107.6628799850007
 20
5.758956804090757
 30
0.0
 40
2.0
100
AcDbArc
 50
270.0
 51
0.0
  0
ARC
  5
DB0C
330
DB06
100
AcDbEntity
  8
0
100
AcDbCircle
 10
71.57371718906995
 20
5.758956804091212
 30
0.0
 40
3.443542222743608
100
AcDbArc
 50
144.4933604871449
 51
215.5066395128719
  0
CIRCLE
  5
DB0D
330
DB06
100
AcDbEntity
  8
0
100
AcDbCircle
 10
67.69644006632631
 20
5.758956804091212
 30
0.0
 40
0.4464399186742338
  0
LINE
  5
DB0E
330
DB06
100
AcDbEntity
  8
0
100
AcDbLine
 10
67.26270516632633
 20
3.758956804091212
 30
0.0
 11
74.88113630566511
 21
-0.0000001538091965
 31
0.0
  0
ARC
  5
DB0F
330
DB06
100
AcDbEntity
  8
0
100
AcDbCircle
 10
72.8576840522636
 20
5.493896404091627
 30
0.0
 40
5.854678335375331
100
AcDbArc
 50
290.2192128521118
 51
342.7624595595623
  0
ARC
  5
DB10
330
DB06
100
AcDbEntity
  8
0
100
AcDbCircle
 10
72.8576840522636
 20
6.024017204090795
 30
0.0
 40
5.854678335375331
100
AcDbArc
 50
17.2375404404367
 51
69.78078714788725
  0
LINE
  5
DB11
330
DB06
100
AcDbEntity
  8
0
100
AcDbLine
 10
67.26270516632633
 20
7.758956804091212
 30
0.0
 11
74.88113630566522
 21
11.51791376199162
 31
0.0
  0
LINE
  5
DB12
330
DB06
100
AcDbEntity
  8
0
100
AcDbLine
 10
2.000000147651916
 20
7.758956804091212
 30
0.0
 11
67.26270516632609
 21
7.758956804091212
 31
0.0
  0
LINE
  5
DB13
330
DB06
100
AcDbEntity
  8
0
100
AcDbLine
 10
2.000000147651916
 20
3.758956804091212
 30
0.0
 11
67.26270516632689
 21
3.758956804090756
 31
0.0
  0
ARC
  5
DB14
330
DB06
100
AcDbEntity
  8
0
100
AcDbCircle
 10
2.000000147651916
 20
5.758956804091212
 30
0.0
 40
2.0
100
AcDbArc
 50
90.0
 51
180.0
  0
ARC
  5
DB15
330
DB06
100
AcDbEntity
  8
0
100
AcDbCircle
 10
2.000000147651916
 20
5.758956804091212
 30
0.0
 40
2.0
100
AcDbArc
 50
180.0
 51
269.9999999999996
  0
LINE
  5
DB16
330
DB06
100
AcDbEntity
  8
0
100
AcDbLine
 10
0.0000001476519174
 20
5.758956804091212
 30
0.0
 11
0.0000001476519174
 21
5.758956804091212
 31
0.0
  0
ENDBLK
  5
DB18
330
DB06
100
AcDbEntity
  8
0
100
AcDbBlockEnd
  0
BLOCK
  5
DB40
330
DB28
100
AcDbEntity
  8
0
100
AcDbBlockBegin
  2
*D12
 70
     1
 10
0.0
 20
0.0
 30
0.0
  3
*D12
  1

  0
LINE
  5
DB41
330
DB28
100
AcDbEntity
  8
0
  6
ByBlock
 62
     0
100
AcDbLine
 10
-2205.618131596203
 20
1930.293255195294
 30
0.0
 11
-2228.912059552845
 21
1930.293255195294
 31
0.0
  0
LINE
  5
DB42
330
DB28
100
AcDbEntity
  8
0
  6
ByBlock
 62
     0
100
AcDbLine
 10
-2205.618131596203
 20
1810.855416708237
 30
0.0
 11
-2228.912059552845
 21
1810.855416708237
 31
0.0
  0
LINE
  5
DB43
330
DB28
100
AcDbEntity
  8
0
  6
ByBlock
 62
     0
100
AcDbLine
 10
-2227.662059552845
 20
1927.793255195294
 30
0.0
 11
-2227.662059552845
 21
1813.355416708238
 31
0.0
  0
SOLID
  5
DB44
330
DB28
100
AcDbEntity
  8
0
  6
ByBlock
 62
     0
100
AcDbTrace
 10
-2228.078726219511
 20
1927.793255195294
 30
0.0
 11
-2227.245392886178
 21
1927.793255195294
 31
0.0
 12
-2227.662059552845
 22
1930.293255195294
 32
0.0
 13
-2227.662059552845
 23
1930.293255195294
 33
0.0
  0
SOLID
  5
DB45
330
DB28
100
AcDbEntity
  8
0
  6
ByBlock
 62
     0
100
AcDbTrace
 10
-2228.078726219511
 20
1813.355416708238
 30
0.0
 11
-2227.245392886178
 21
1813.355416708238
 31
0.0
 12
-2227.662059552845
 22
1810.855416708237
 32
0.0
 13
-2227.662059552845
 23
1810.855416708237
 33
0.0
  0
MTEXT
  5
DB46
330
DB28
100
AcDbEntity
  8
0
  6
ByBlock
 62
     0
100
AcDbMText
 10
-2233.287059552845
 20
1870.574335951766
 30
0.0
 40
10.0
 41
0.0
 71
     5
 72
     1
  1
\A1;120
 11
0.0000000000000001
 21
1.0
 31
0.0
 73
     1
 44
1.0
1001
ACAD
1000
MTEXTBEGIN
1070
    73
1070
     1
1070
    44
1040
1.0
1070
    74
1070
     0
1000
MTEXTEND
  0
POINT
  5
DB47
330
DB28
100
AcDbEntity
  8
DEFPOINTS
  6
ByBlock
 62
     0
100
AcDbPoint
 10
-2204.993131596203
 20
1930.293255195294
 30
0.0
  0
POINT
  5
DB48
330
DB28
100
AcDbEntity
  8
DEFPOINTS
  6
ByBlock
 62
     0
100
AcDbPoint
 10
-2204.993131596203
 20
1810.855416708237
 30
0.0
  0
POINT
  5
DB49
330
DB28
100
AcDbEntity
  8
DEFPOINTS
  6
ByBlock
 62
     0
100
AcDbPoint
 10
-2227.662059552845
 20
1810.855416708237
 30
0.0
  0
ENDBLK
  5
DB4A
330
DB28
100
AcDbEntity
  8
0
100
AcDbBlockEnd
  0
BLOCK
  5
DB7B
330
DB4B
100
AcDbEntity
  8
0
100
AcDbBlockBegin
  2
*D13
 70
     1
 10
0.0
 20
0.0
 30
0.0
  3
*D13
  1

  0
LINE
  5
DB7C
330
DB4B
100
AcDbEntity
  8
0
  6
ByBlock
 62
     0
100
AcDbLine
 10
-2204.993131596203
 20
1875.967104898279
 30
0.0
 11
-2204.993131596203
 21
1965.895228738488
 31
0.0
  0
LINE
  5
DB7D
330
DB4B
100
AcDbEntity
  8
0
  6
ByBlock
 62
     0
100
AcDbLine
 10
-1769.993131596203
 20
1845.975526140649
 30
0.0
 11
-1769.993131596203
 21
1965.895228738488
 31
0.0
  0
LINE
  5
DB7E
330
DB4B
100
AcDbEntity
  8
0
  6
ByBlock
 62
     0
100
AcDbLine
 10
-2202.493131596202
 20
1964.645228738488
 30
0.0
 11
-1772.493131596203
 21
1964.645228738488
 31
0.0
  0
SOLID
  5
DB7F
330
DB4B
100
AcDbEntity
  8
0
  6
ByBlock
 62
     0
100
AcDbTrace
 10
-2202.493131596202
 20
1965.061895405155
 30
0.0
 11
-2202.493131596202
 21
1964.228562071821
 31
0.0
 12
-2204.993131596203
 22
1964.645228738488
 32
0.0
 13
-2204.993131596203
 23
1964.645228738488
 33
0.0
  0
SOLID
  5
DB80
330
DB4B
100
AcDbEntity
  8
0
  6
ByBlock
 62
     0
100
AcDbTrace
 10
-1772.493131596203
 20
1965.061895405155
 30
0.0
 11
-1772.493131596203
 21
1964.228562071821
 31
0.0
 12
-1769.993131596203
 22
1964.645228738488
 32
0.0
 13
-1769.993131596203
 23
1964.645228738488
 33
0.0
  0
MTEXT
  5
DB81
330
DB4B
100
AcDbEntity
  8
0
  6
ByBlock
 62
     0
100
AcDbMText
 10
-1987.493131596203
 20
1970.270228738488
 30
0.0
 40
10.0
 41
0.0
 71
     5
 72
     1
  1
\A1;435
 73
     1
 44
1.0
1001
ACAD
1000
MTEXTBEGIN
1070
    73
1070
     1
1070
    44
1040
1.0
1070
    74
1070
     0
1000
MTEXTEND
  0
POINT
  5
DB82
330
DB4B
100
AcDbEntity
  8
DEFPOINTS
  6
ByBlock
 62
     0
100
AcDbPoint
 10
-2204.993131596203
 20
1875.342104898279
 30
0.0
  0
POINT
  5
DB83
330
DB4B
100
AcDbEntity
  8
DEFPOINTS
  6
ByBlock
 62
     0
100
AcDbPoint
 10
-1769.993131596203
 20
1845.350526140649
 30
0.0
  0
POINT
  5
DB84
330
DB4B
100
AcDbEntity
  8
DEFPOINTS
  6
ByBlock
 62
     0
100
AcDbPoint
 10
-1769.993131596203
 20
1964.645228738488
 30
0.0
  0
ENDBLK
  5
DB85
330
DB4B
100
AcDbEntity
  8
0
100
AcDbBlockEnd
  0
BLOCK
  5
DBA6
330
DB8C
100
AcDbEntity
  8
0
100
AcDbBlockBegin
  2
A$C73EF678E
 70
     0
 10
0.0
 20
0.0
 30
0.0
  3
A$C73EF678E
  1

  0
SPLINE
  5
DB8D
330
DB8C
100
AcDbEntity
  8
0
100
AcDbSpline
210
0.0
220
0.0
230
1.0
 70
     8
 71
     3
 72
    10
 73
     6
 74
     0
 42
0.0000000001
 43
0.0000000001
 40
0.0
 40
0.0
 40
0.0
 40
0.0
 40
120.6092102900853
 40
204.7800226547186
 40
344.700571594018
 40
344.700571594018
 40
344.700571594018
 40
344.700571594018
 10
195.4015521447029
 20
406.8107822896186
 30
0.0
 10
194.2579799572672
 20
366.6104117860505
 30
0.0
 10
192.3163310741756
 20
298.3549878209246
 30
0.0
 10
181.53934525166
 20
183.9219459549379
 30
0.0
 10
173.2028108803022
 20
109.6955790041431
 30
0.0
 10
167.9922322979455
 20
63.34999871105651
 30
0.0
  0
SPLINE
  5
DB8E
330
DB8C
100
AcDbEntity
  8
0
100
AcDbSpline
210
0.0
220
0.0
230
1.0
 70
     8
 71
     3
 72
    10
 73
     6
 74
     0
 42
0.0000000001
 43
0.0000000001
 40
0.0
 40
0.0
 40
0.0
 40
0.0
 40
120.6092102900853
 40
204.7800226547186
 40
344.700571594018
 40
344.700571594018
 40
344.700571594018
 40
344.700571594018
 10
125.258633539853
 20
406.8107822896186
 30
0.0
 10
126.4022057272887
 20
366.6104117860505
 30
0.0
 10
128.3438546103802
 20
298.3549878209246
 30
0.0
 10
139.1208404328958
 20
183.9219459549379
 30
0.0
 10
147.4573748042537
 20
109.6955790041431
 30
0.0
 10
152.6679533866104
 20
63.34999871105651
 30
0.0
  0
LINE
  5
DB8F
330
DB8C
100
AcDbEntity
  8
0
100
AcDbLine
 10
0.6188940485490094
 20
62.34807109205622
 30
0.0
 11
321.0941644896907
 21
62.34807109205622
 31
0.0
  0
LINE
  5
DB90
330
DB8C
100
AcDbEntity
  8
0
100
AcDbLine
 10
0.5086267773376676
 20
63.34999871105629
 30
0.0
 11
321.2044317608825
 21
63.34999871105629
 31
0.0
  0
LINE
  5
DB91
330
DB8C
100
AcDbEntity
  8
0
100
AcDbLine
 10
186.7004384300285
 20
20.82994845156054
 30
0.0
 11
172.124670251272
 21
54.33265014005632
 31
0.0
  0
LINE
  5
DB92
330
DB8C
100
AcDbEntity
  8
0
100
AcDbLine
 10
298.4646879520267
 20
108.7518806210405
 30
0.0
 11
160.85652926911
 21
130.5951852661526
 31
0.0
  0
LINE
  5
DB93
330
DB8C
100
AcDbEntity
  8
0
100
AcDbLine
 10
23.24837058621278
 20
108.7518806210432
 30
0.0
 11
160.85652926911
 21
130.5951852661524
 31
0.0
  0
LINE
  5
DB94
330
DB8C
100
AcDbEntity
  8
0
100
AcDbLine
 10
135.0126201081925
 20
20.82994845156054
 30
0.0
 11
24.59969480368409
 21
35.83961263504261
 31
0.0
  0
SPLINE
  5
DB95
330
DB8C
100
AcDbEntity
  8
0
100
AcDbSpline
210
0.0
220
0.0
230
1.0
 70
     8
 71
     3
 72
     9
 73
     5
 74
     0
 42
0.0000000001
 43
0.0000000001
 40
34.38885937881423
 40
34.38885937881423
 40
34.38885937881423
 40
34.38885937881423
 40
48.53959605381989
 40
50.41243792999835
 40
50.41243792999835
 40
50.41243792999835
 40
50.41243792999835
 10
0.5086267773385771
 20
63.34999871105629
 30
0.0
 10
-0.0571986982254202
 20
68.83170583361152
 30
0.0
 10
-0.0478722220395866
 20
75.32374078647194
 30
0.0
 10
0.0503890696072631
 20
81.50597994039593
 30
0.0
 10
0.0668753724419276
 20
82.22356437165535
 30
0.0
  0
ARC
  5
DB96
330
DB8C
100
AcDbEntity
  8
0
100
AcDbCircle
 10
28.30400629854307
 20
63.08898100110172
 30
0.0
 40
27.5
100
AcDbArc
 50
190.907981465577
 51
262.2585979921788
  0
SPLINE
  5
DB97
330
DB8C
100
AcDbEntity
  8
0
100
AcDbSpline
210
0.0
220
0.0
230
1.0
 70
     8
 71
     3
 72
     8
 73
     4
 74
     0
 42
0.0000000001
 43
0.0000000001
 40
29.59540380633217
 40
29.59540380633217
 40
29.59540380633217
 40
29.59540380633217
 40
33.52419716747403
 40
33.52419716747403
 40
33.52419716747403
 40
33.52419716747403
 10
1.300866353604759
 20
57.88509465395372
 30
0.0
 10
1.019713638355368
 20
59.34400547738868
 30
0.0
 10
0.7959899621428122
 20
60.83518228193316
 30
0.0
 10
0.6188940485490094
 20
62.34807109205643
 30
0.0
  0
ARC
  5
DB98
330
DB8C
100
AcDbEntity
  8
0
100
AcDbCircle
 10
27.55962047390881
 20
81.59192619534861
 30
0.0
 40
27.5
100
AcDbArc
 50
99.0196228805687
 51
178.6838769266357
  0
LINE
  5
DB99
330
DB8C
100
AcDbEntity
  8
0
100
AcDbLine
 10
162.85652926911
 20
1.999998711056377
 30
0.0
 11
162.85652926911
 21
158.1699987110564
 31
0.0
  0
LINE
  5
DB9A
330
DB8C
100
AcDbEntity
  8
0
100
AcDbLine
 10
158.85652926911
 20
1.999998711056377
 30
0.0
 11
158.85652926911
 21
158.1699987110564
 31
0.0
  0
ARC
  5
DB9B
330
DB8C
100
AcDbEntity
  8
0
100
AcDbCircle
 10
160.85652926911
 20
1.999998711056377
 30
0.0
 40
2.0
100
AcDbArc
 50
270.0
 51
0.0
  0
LINE
  5
DB9C
330
DB8C
100
AcDbEntity
  8
0
100
AcDbLine
 10
160.85652926911
 20
-0.0000012889436221
 30
0.0
 11
160.85652926911
 21
-0.0000012889436221
 31
0.0
  0
ARC
  5
DB9D
330
DB8C
100
AcDbEntity
  8
0
100
AcDbCircle
 10
160.85652926911
 20
1.999998711056377
 30
0.0
 40
2.0
100
AcDbArc
 50
180.0
 51
270.0
  0
LINE
  5
DB9E
330
DB8C
100
AcDbEntity
  8
0
100
AcDbLine
 10
135.0126201081925
 20
20.82994845156054
 30
0.0
 11
149.5883882869495
 21
54.33265014005632
 31
0.0
  0
LINE
  5
DB9F
330
DB8C
100
AcDbEntity
  8
0
100
AcDbLine
 10
152.6679533866106
 20
63.34999871105629
 30
0.0
 11
169.0451051516097
 21
63.34999871105629
 31
0.0
  0
LINE
  5
DBA0
330
DB8C
100
AcDbEntity
  8
0
100
AcDbLine
 10
149.5883882869495
 20
54.33265014005632
 30
0.0
 11
172.124670251272
 21
54.33265014005632
 31
0.0
  0
ARC
  5
DBA1
330
DB8C
100
AcDbEntity
  8
0
100
AcDbCircle
 10
293.4090522396918
 20
63.08898100110059
 30
0.0
 40
27.5
100
AcDbArc
 50
277.7414020078214
 51
349.0920185343672
  0
ARC
  5
DBA2
330
DB8C
100
AcDbEntity
  8
0
100
AcDbCircle
 10
294.15343806433
 20
81.59192619534497
 30
0.0
 40
27.5
100
AcDbArc
 50
1.316123073354833
 51
80.98037711942955
  0
LINE
  5
DBA3
330
DB8C
100
AcDbEntity
  8
0
100
AcDbLine
 10
186.7004384300285
 20
20.82994845156054
 30
0.0
 11
297.1133637345504
 21
35.8396126350442
 31
0.0
  0
SPLINE
  5
DBA4
330
DB8C
100
AcDbEntity
  8
0
100
AcDbSpline
210
0.0
220
0.0
230
1.0
 70
     8
 71
     3
 72
     9
 73
     5
 74
     0
 42
0.0000000001
 43
0.0000000001
 40
34.388859378796
 40
34.388859378796
 40
34.388859378796
 40
34.388859378796
 40
48.53959605381989
 40
50.41243792997432
 40
50.41243792997432
 40
50.41243792997432
 40
50.41243792997432
 10
321.2044317608986
 20
63.34999871105447
 30
0.0
 10
321.7702572364647
 20
68.83170583361629
 30
0.0
 10
321.7609307602788
 20
75.32374078647443
 30
0.0
 10
321.6626694686322
 20
81.50597994039754
 30
0.0
 10
321.6461831657976
 20
82.22356437164783
 30
0.0
  0
SPLINE
  5
DBA5
330
DB8C
100
AcDbEntity
  8
0
100
AcDbSpline
210
0.0
220
0.0
230
1.0
 70
     8
 71
     3
 72
     8
 73
     4
 74
     0
 42
0.0000000001
 43
0.0000000001
 40
29.5954038062899
 40
29.5954038062899
 40
29.5954038062899
 40
29.5954038062899
 40
33.52419716745703
 40
33.52419716745703
 40
33.52419716745703
 40
33.52419716745703
 10
320.4121921846251
 20
57.88509465392621
 30
0.0
 10
320.693344899878
 20
59.34400547736983
 30
0.0
 10
320.9170685760928
 20
60.83518228192338
 30
0.0
 10
321.0941644896879
 20
62.34807109205622
 30
0.0
  0
ENDBLK
  5
DBA7
330
DB8C
100
AcDbEntity
  8
0
100
AcDbBlockEnd
  0
BLOCK
  5
DBDD
330
DBC8
100
AcDbEntity
  8
0
100
AcDbBlockBegin
  2
A$C16E911A7
 70
     0
 10
0.0
 20
0.0
 30
0.0
  3
A$C16E911A7
  1

  0
LINE
  5
DBC9
330
DBC8
100
AcDbEntity
  8
0
100
AcDbLine
 10
288.4646869207395
 20
87.92193067635322
 30
0.0
 11
155.8565282378422
 21
109.7652353214623
 31
0.0
  0
ARC
  5
DBCA
330
DBC8
100
AcDbEntity
  8
0
100
AcDbCircle
 10
284.1534370330435
 20
60.76197625065856
 30
0.0
 40
27.5
100
AcDbArc
 50
1.316123073364265
 51
80.98037711943133
  0
ARC
  5
DBCB
330
DBC8
100
AcDbEntity
  8
0
100
AcDbCircle
 10
283.4090512084092
 20
42.25903105641168
 30
0.0
 40
27.5
100
AcDbArc
 50
277.7414020078213
 51
349.092018534423
  0
LINE
  5
DBCC
330
DBC8
100
AcDbEntity
  8
0
100
AcDbLine
 10
311.2044307296146
 20
42.52004876636624
 30
0.0
 11
150.8565282378415
 21
42.52004876636624
 31
0.0
  0
LINE
  5
DBCD
330
DBC8
100
AcDbEntity
  8
0
100
AcDbLine
 10
311.0941634584033
 20
41.51812114736617
 30
0.0
 11
150.8565282378415
 21
41.51812114736594
 31
0.0
  0
LINE
  5
DBCE
330
DBC8
100
AcDbEntity
  8
0
100
AcDbLine
 10
176.7004373987597
 20
-0.0000014931295027
 30
0.0
 11
287.1133627032682
 21
15.00966269035257
 31
0.0
  0
SPLINE
  5
DBCF
330
DBC8
100
AcDbEntity
  8
0
100
AcDbSpline
210
0.0
220
0.0
230
1.0
 70
     8
 71
     3
 72
     8
 73
     4
 74
     0
 42
0.0000000001
 43
0.0000000001
 40
29.59540380633217
 40
29.59540380633217
 40
29.59540380633217
 40
29.59540380633217
 40
33.52419716747403
 40
33.52419716747403
 40
33.52419716747403
 40
33.52419716747403
 10
310.4121911533475
 20
37.05514470926369
 30
0.0
 10
310.6933438685969
 20
38.51405553269865
 30
0.0
 10
310.9170675448095
 20
40.00523233724311
 30
0.0
 10
311.0941634584033
 20
41.5181211473664
 30
0.0
  0
SPLINE
  5
DBD0
330
DBC8
100
AcDbEntity
  8
0
100
AcDbSpline
210
0.0
220
0.0
230
1.0
 70
     8
 71
     3
 72
     9
 73
     5
 74
     0
 42
0.0000000001
 43
0.0000000001
 40
34.38885937881423
 40
34.38885937881423
 40
34.38885937881423
 40
34.38885937881423
 40
48.53959605381989
 40
50.41243792999835
 40
50.41243792999835
 40
50.41243792999835
 40
50.41243792999835
 10
311.2044307296137
 20
42.52004876636624
 30
0.0
 10
311.7702562051777
 20
48.00175588892148
 30
0.0
 10
311.7609297289919
 20
54.4937908417819
 30
0.0
 10
311.662668437345
 20
60.6760299957059
 30
0.0
 10
311.6461821345104
 20
61.39361442696531
 30
0.0
  0
LINE
  5
DBD1
330
DBC8
100
AcDbEntity
  8
0
100
AcDbLine
 10
23.24836955494493
 20
87.92193067635322
 30
0.0
 11
155.8565282378422
 21
109.7652353214623
 31
0.0
  0
LINE
  5
DBD2
330
DBC8
100
AcDbEntity
  8
0
100
AcDbLine
 10
0.6188930172811526
 20
41.51812114736617
 30
0.0
 11
160.8565282378429
 21
41.51812114736594
 31
0.0
  0
LINE
  5
DBD3
330
DBC8
100
AcDbEntity
  8
0
100
AcDbLine
 10
0.5086257460698107
 20
42.52004876636624
 30
0.0
 11
160.8565282378429
 21
42.52004876636624
 31
0.0
  0
LINE
  5
DBD4
330
DBC8
100
AcDbEntity
  8
0
100
AcDbLine
 10
135.0126190769247
 20
-0.0000014931295027
 30
0.0
 11
24.59969377241623
 21
15.00966269035257
 31
0.0
  0
SPLINE
  5
DBD5
330
DBC8
100
AcDbEntity
  8
0
100
AcDbSpline
210
0.0
220
0.0
230
1.0
 70
     8
 71
     3
 72
     8
 73
     4
 74
     0
 42
0.0000000001
 43
0.0000000001
 40
29.59540380633217
 40
29.59540380633217
 40
29.59540380633217
 40
29.59540380633217
 40
33.52419716747403
 40
33.52419716747403
 40
33.52419716747403
 40
33.52419716747403
 10
1.300865322336903
 20
37.05514470926369
 30
0.0
 10
1.019712607087511
 20
38.51405553269865
 30
0.0
 10
0.7959889308749553
 20
40.00523233724311
 30
0.0
 10
0.6188930172811526
 20
41.5181211473664
 30
0.0
  0
ARC
  5
DBD6
330
DBC8
100
AcDbEntity
  8
0
100
AcDbCircle
 10
28.30400526727522
 20
42.25903105641168
 30
0.0
 40
27.5
100
AcDbArc
 50
190.907981465577
 51
262.2585979921788
  0
ARC
  5
DBD7
330
DBC8
100
AcDbEntity
  8
0
100
AcDbCircle
 10
27.55961944264095
 20
60.76197625065856
 30
0.0
 40
27.5
100
AcDbArc
 50
99.0196228805687
 51
178.6838769266357
  0
SPLINE
  5
DBD8
330
DBC8
100
AcDbEntity
  8
0
100
AcDbSpline
210
0.0
220
0.0
230
1.0
 70
     8
 71
     3
 72
     9
 73
     5
 74
     0
 42
0.0000000001
 43
0.0000000001
 40
34.38885937881423
 40
34.38885937881423
 40
34.38885937881423
 40
34.38885937881423
 40
48.53959605381989
 40
50.41243792999835
 40
50.41243792999835
 40
50.41243792999835
 40
50.41243792999835
 10
0.5086257460707202
 20
42.52004876636624
 30
0.0
 10
-0.0571997294932771
 20
48.00175588892148
 30
0.0
 10
-0.0478732533074435
 20
54.4937908417819
 30
0.0
 10
0.0503880383394062
 20
60.6760299957059
 30
0.0
 10
0.0668743411740707
 20
61.39361442696531
 30
0.0
  0
LINE
  5
DBD9
330
DBC8
100
AcDbEntity
  8
0
100
AcDbLine
 10
135.0126190769247
 20
-0.0000014931295027
 30
0.0
 11
149.5883872556817
 21
33.50270019536629
 31
0.0
  0
LINE
  5
DBDA
330
DBC8
100
AcDbEntity
  8
0
100
AcDbLine
 10
176.7004373987597
 20
-0.0000014931295027
 30
0.0
 11
162.1246692200027
 21
33.50270019536629
 31
0.0
  0
LINE
  5
DBDB
330
DBC8
100
AcDbEntity
  8
0
100
AcDbLine
 10
162.1246692200027
 20
33.50270019536629
 30
0.0
 11
155.8565282378422
 21
33.50270019536629
 31
0.0
  0
LINE
  5
DBDC
330
DBC8
100
AcDbEntity
  8
0
100
AcDbLine
 10
149.5883872556817
 20
33.50270019536629
 30
0.0
 11
155.8565282378422
 21
33.50270019536629
 31
0.0
  0
ENDBLK
  5
DBDE
330
DBC8
100
AcDbEntity
  8
0
100
AcDbBlockEnd
  0
BLOCK
  5
DBE9
330
DBE0
100
AcDbEntity
  8
0
100
AcDbBlockBegin
  2
A$C1FF52CBD
 70
     0
 10
0.0
 20
0.0
 30
0.0
  3
A$C1FF52CBD
  1

  0
LINE
  5
DBE1
330
DBE0
100
AcDbEntity
  8
0
100
AcDbLine
 10
3.999998072388733
 20
2.000000880656215
 30
0.0
 11
3.999998072388733
 21
158.1700008806563
 31
0.0
  0
LINE
  5
DBE2
330
DBE0
100
AcDbEntity
  8
0
100
AcDbLine
 10
-0.0000019276112653
 20
2.000000880656215
 30
0.0
 11
-0.0000019276112653
 21
158.1700008806563
 31
0.0
  0
ARC
  5
DBE3
330
DBE0
100
AcDbEntity
  8
0
100
AcDbCircle
 10
1.999998072388734
 20
158.1700008806563
 30
0.0
 40
2.0
100
AcDbArc
 50
0.0
 51
90.0
  0
ARC
  5
DBE4
330
DBE0
100
AcDbEntity
  8
0
100
AcDbCircle
 10
1.999998072388734
 20
158.1700008806563
 30
0.0
 40
2.0
100
AcDbArc
 50
90.0
 51
180.0
  0
LINE
  5
DBE5
330
DBE0
100
AcDbEntity
  8
0
100
AcDbLine
 10
1.999998072388734
 20
160.1700008806563
 30
0.0
 11
1.999998072388734
 21
160.1700008806563
 31
0.0
  0
ARC
  5
DBE6
330
DBE0
100
AcDbEntity
  8
0
100
AcDbCircle
 10
1.999998072388734
 20
2.000000880656215
 30
0.0
 40
2.0
100
AcDbArc
 50
270.0
 51
0.0
  0
ARC
  5
DBE7
330
DBE0
100
AcDbEntity
  8
0
100
AcDbCircle
 10
1.999998072388734
 20
2.000000880656215
 30
0.0
 40
2.0
100
AcDbArc
 50
180.0
 51
270.0
  0
LINE
  5
DBE8
330
DBE0
100
AcDbEntity
  8
0
100
AcDbLine
 10
1.999998072388734
 20
0.0000008806562164
 30
0.0
 11
1.999998072388734
 21
0.0000008806562164
 31
0.0
  0
ENDBLK
  5
DBEA
330
DBE0
100
AcDbEntity
  8
0
100
AcDbBlockEnd
  0
ENDSEC
  0
SECTION
  2
ENTITIES
  0
SPLINE
  5
DC3C
330
18
100
AcDbEntity
  8
0
100
AcDbSpline
210
0.0
220
0.0
230
1.0
 70
     8
 71
     3
 72
    13
 73
     9
 74
     7
 42
0.0000000001
 43
0.0000000001
 44
0.0000000001
 40
0.0
 40
0.0
 40
0.0
 40
0.0
 40
13.19940035894907
 40
19.92821462652147
 40
67.10684951579321
 40
102.9171542196713
 40
113.8877710244
 40
132.3135352655606
 40
132.3135352655606
 40
132.3135352655606
 40
132.3135352655606
 10
-2516.261012217813
 20
1498.732718373859
 30
0.0
 10
-2520.593764834886
 20
1499.036994909197
 30
0.0
 10
-2527.135275943618
 20
1499.496386088882
 30
0.0
 10
-2550.51526157099
 20
1500.271573667131
 30
0.0
 10
-2550.600971169066
 20
1545.198407347877
 30
0.0
 10
-2547.114502373743
 20
1573.127847609479
 30
0.0
 10
-2533.39842719777
 20
1592.017479446632
 30
0.0
 10
-2522.864019385898
 20
1592.088608055417
 30
0.0
 10
-2516.261012217813
 20
1592.133191739859
 30
0.0
 11
-2516.261012217813
 21
1498.732718373859
 31
0.0
 11
-2529.435395156369
 21
1499.545001590531
 31
0.0
 11
-2536.130749870025
 21
1500.215200595169
 31
0.0
 11
-2549.590997693061
 21
1545.432955056859
 31
0.0
 11
-2541.443828605049
 21
1580.30416895652
 31
0.0
 11
-2534.360620347249
 21
1588.681674184978
 31
0.0
 11
-2516.261012217813
 21
1592.133191739859
 31
0.0
  0
SPLINE
  5
DC3D
330
18
100
AcDbEntity
  8
0
100
AcDbSpline
210
0.0
220
0.0
230
1.0
 70
     8
 71
     3
 72
    13
 73
     9
 74
     7
 42
0.0000000001
 43
0.0000000001
 44
0.0000000001
 40
0.0
 40
0.0
 40
0.0
 40
0.0
 40
13.1994003589493
 40
19.92821462652034
 40
67.10684951579247
 40
102.9171542196708
 40
113.8877710243991
 40
132.3135352655597
 40
132.3135352655597
 40
132.3135352655597
 40
132.3135352655597
 10
-2516.261012217813
 20
1498.732718373859
 30
0.0
 10
-2511.928259600738
 20
1499.036994909197
 30
0.0
 10
-2505.386748492007
 20
1499.496386088882
 30
0.0
 10
-2482.006762864636
 20
1500.271573667132
 30
0.0
 10
-2481.921053266557
 20
1545.198407347877
 30
0.0
 10
-2485.407522061882
 20
1573.127847609478
 30
0.0
 10
-2499.123597237854
 20
1592.017479446632
 30
0.0
 10
-2509.658005049726
 20
1592.088608055417
 30
0.0
 10
-2516.261012217813
 20
1592.133191739859
 30
0.0
 11
-2516.261012217813
 21
1498.732718373859
 31
0.0
 11
-2503.086629279255
 21
1499.545001590531
 31
0.0
 11
-2496.391274565601
 21
1500.215200595169
 31
0.0
 11
-2482.931026742563
 21
1545.432955056859
 31
0.0
 11
-2491.078195830577
 21
1580.30416895652
 31
0.0
 11
-2498.161404088375
 21
1588.681674184978
 31
0.0
 11
-2516.261012217813
 21
1592.133191739859
 31
0.0
  0
LINE
  5
DC3E
330
18
100
AcDbEntity
  8
0
100
AcDbLine
 10
-2516.261012217813
 20
1498.732718373859
 30
0.0
 11
-2516.261012217813
 21
1508.757334509585
 31
0.0
  0
SPLINE
  5
DC43
330
18
100
AcDbEntity
  8
0
  6
PHANTOM
 62
     4
100
AcDbSpline
210
0.0
220
0.0
230
1.0
 70
     8
 71
     3
 72
    80
 73
    76
 74
     0
 42
0.0000000001
 43
0.0000000001
 40
0.7105807437984063
 40
0.7105807437984063
 40
0.7105807437984063
 40
0.7105807437984063
 40
10.88810669032646
 40
10.88810669032646
 40
13.02886078058686
 40
13.02886078058686
 40
13.83142705845006
 40
13.83142705845006
 40
14.63399333631327
 40
14.63399333631327
 40
16.23912589203967
 40
16.23912589203967
 40
18.61805644591607
 40
18.61805644591607
 40
19.90523838028902
 40
19.90523838028902
 40
22.47273288278433
 40
22.47273288278433
 40
25.04022738527964
 40
25.04022738527964
 40
27.60772188777495
 40
27.60772188777495
 40
30.17521639027025
 40
30.17521639027025
 40
32.74271089276556
 40
32.74271089276556
 40
36.99658249775371
 40
36.99658249775371
 40
41.25045410274187
 40
41.25045410274187
 40
45.50432570773002
 40
45.50432570773002
 40
53.56034324496004
 40
53.56034324496004
 40
61.61636078219006
 40
61.61636078219006
 40
65.85284207673476
 40
65.85284207673476
 40
68.70001556506031
 40
68.70001556506031
 40
71.54718905338588
 40
71.54718905338588
 40
77.24153603003696
 40
77.24153603003696
 40
85.55296246471247
 40
85.55296246471247
 40
93.86438889938794
 40
93.86438889938794
 40
102.1758153340634
 40
102.1758153340634
 40
103.7951018644388
 40
103.7951018644388
 40
105.4143883948142
 40
105.4143883948142
 40
108.6529614555651
 40
108.6529614555651
 40
111.8915345163159
 40
111.8915345163159
 40
113.347270026993
 40
113.347270026993
 40
114.387677098447
 40
114.387677098447
 40
115.4280841699009
 40
115.4280841699009
 40
117.5088983128088
 40
117.5088983128088
 40
120.8781008886664
 40
120.8781008886664
 40
124.2473034645239
 40
124.2473034645239
 40
127.6165060403815
 40
127.6165060403815
 40
130.9857086162391
 40
130.9857086162391
 40
132.3135352655595
 40
132.3135352655595
 40
132.3135352655595
 40
132.3135352655595
 10
-2516.261012217814
 20
1508.757334509585
 30
0.0
 10
-2519.609514788088
 20
1508.992280520577
 30
0.0
 10
-2523.015669386825
 20
1509.227887706846
 30
0.0
 10
-2527.297150137549
 20
1509.45468319015
 30
0.0
 10
-2528.046972067769
 20
1509.491945957764
 30
0.0
 10
-2529.086665623801
 20
1509.539566699068
 30
0.0
 10
-2529.368388321099
 20
1509.551956760391
 30
0.0
 10
-2529.908203614296
 20
1509.576041693361
 30
0.0
 10
-2530.169060189811
 20
1509.587893092366
 30
0.0
 10
-2530.922490420418
 20
1509.62472855439
 30
0.0
 10
-2531.386117640158
 20
1509.65119955899
 30
0.0
 10
-2532.421775955391
 20
1509.728467446192
 30
0.0
 10
-2532.938537875738
 20
1509.786356841771
 30
0.0
 10
-2533.523878682566
 20
1509.880185686272
 30
0.0
 10
-2533.689052754044
 20
1509.913583931037
 30
0.0
 10
-2534.046857867638
 20
1509.998192000566
 30
0.0
 10
-2534.229371069524
 20
1510.061278533169
 30
0.0
 10
-2534.553502734227
 20
1510.200421379641
 30
0.0
 10
-2534.693609886562
 20
1510.276170918459
 30
0.0
 10
-2534.978653438129
 20
1510.463117603365
 30
0.0
 10
-2535.123879781008
 20
1510.575011098495
 30
0.0
 10
-2535.443073821586
 20
1510.870384170871
 30
0.0
 10
-2535.616735015482
 20
1511.054351454405
 30
0.0
 10
-2535.991011645993
 20
1511.522414629288
 30
0.0
 10
-2536.19119451501
 20
1511.8065664177
 30
0.0
 10
-2536.739538025341
 20
1512.711148228377
 30
0.0
 10
-2537.097278079063
 20
1513.43118103511
 30
0.0
 10
-2537.777544951639
 20
1515.166829521476
 30
0.0
 10
-2538.099754119055
 20
1516.180790528689
 30
0.0
 10
-2538.670984538711
 20
1518.446565089248
 30
0.0
 10
-2538.920386172194
 20
1519.697788375908
 30
0.0
 10
-2539.520387606254
 20
1523.574375952647
 30
0.0
 10
-2539.760099755961
 20
1526.425853149258
 30
0.0
 10
-2539.980725912351
 20
1532.395734738423
 30
0.0
 10
-2539.964080298251
 20
1535.514797911035
 30
0.0
 10
-2539.825791050316
 20
1540.24842037535
 30
0.0
 10
-2539.75792638837
 20
1541.875572698059
 30
0.0
 10
-2539.625292414648
 20
1544.556932956611
 30
0.0
 10
-2539.567313378054
 20
1545.625756393694
 30
0.0
 10
-2539.444313216502
 20
1547.700605175516
 30
0.0
 10
-2539.378564501229
 20
1548.711506255882
 30
0.0
 10
-2539.163353044398
 20
1551.66741919618
 30
0.0
 10
-2538.995776162956
 20
1553.535430836077
 30
0.0
 10
-2538.494295230897
 20
1557.900253499189
 30
0.0
 10
-2538.119358111153
 20
1560.289812979618
 30
0.0
 10
-2537.151989840236
 20
1564.761974976152
 30
0.0
 10
-2536.561252046548
 20
1566.844584703914
 30
0.0
 10
-2535.085731806232
 20
1570.860239015979
 30
0.0
 10
-2534.201534495605
 20
1572.795936036764
 30
0.0
 10
-2532.887469042382
 20
1575.129521431462
 30
0.0
 10
-2532.663375715277
 20
1575.513525747074
 30
0.0
 10
-2532.215643046265
 20
1576.251218024882
 30
0.0
 10
-2531.990294667175
 20
1576.607594907937
 30
0.0
 10
-2531.314768004361
 20
1577.627073246981
 30
0.0
 10
-2530.864181104713
 20
1578.240024328071
 30
0.0
 10
-2530.008684486324
 20
1579.271964630833
 30
0.0
 10
-2529.604121080383
 20
1579.689479061333
 30
0.0
 10
-2529.103862393306
 20
1580.132869865494
 30
0.0
 10
-2528.960901935758
 20
1580.24819160534
 30
0.0
 10
-2528.742100665825
 20
1580.410321393811
 30
0.0
 10
-2528.662477710125
 20
1580.465034463985
 30
0.0
 10
-2528.487263630774
 20
1580.576971364831
 30
0.0
 10
-2528.39422603897
 20
1580.632180490126
 30
0.0
 10
-2528.093627370481
 20
1580.796854639942
 30
0.0
 10
-2527.86416362236
 20
1580.905633107392
 30
0.0
 10
-2527.161601589365
 20
1581.184953293045
 30
0.0
 10
-2526.623928794872
 20
1581.351289472021
 30
0.0
 10
-2525.325447265472
 20
1581.640162751243
 30
0.0
 10
-2524.566211670637
 20
1581.761885536684
 30
0.0
 10
-2522.85669958283
 20
1581.94723804437
 30
0.0
 10
-2521.907252781501
 20
1582.011064639725
 30
0.0
 10
-2519.856520294457
 20
1582.093252824201
 30
0.0
 10
-2518.755494012989
 20
1582.111864376684
 30
0.0
 10
-2517.136450129421
 20
1582.127041295142
 30
0.0
 10
-2516.669329860314
 20
1582.13020682124
 30
0.0
 10
-2516.193493484211
 20
1582.133419681426
 30
0.0
  0
SPLINE
  5
DC44
330
18
100
AcDbEntity
  8
0
  6
PHANTOM
 62
     4
100
AcDbSpline
210
0.0
220
0.0
230
1.0
 70
     8
 71
     3
 72
    80
 73
    76
 74
     0
 42
0.0000000001
 43
0.0000000001
 40
0.7105807437952545
 40
0.7105807437952545
 40
0.7105807437952545
 40
0.7105807437952545
 40
10.88810669032646
 40
10.88810669032646
 40
13.02886078058686
 40
13.02886078058686
 40
13.83142705845006
 40
13.83142705845006
 40
14.63399333631327
 40
14.63399333631327
 40
16.23912589203967
 40
16.23912589203967
 40
18.61805644591607
 40
18.61805644591607
 40
19.90523838028902
 40
19.90523838028902
 40
22.47273288278433
 40
22.47273288278433
 40
25.04022738527964
 40
25.04022738527964
 40
27.60772188777495
 40
27.60772188777495
 40
30.17521639027025
 40
30.17521639027025
 40
32.74271089276556
 40
32.74271089276556
 40
36.99658249775371
 40
36.99658249775371
 40
41.25045410274187
 40
41.25045410274187
 40
45.50432570773002
 40
45.50432570773002
 40
53.56034324496004
 40
53.56034324496004
 40
61.61636078219006
 40
61.61636078219006
 40
65.85284207673476
 40
65.85284207673476
 40
68.70001556506031
 40
68.70001556506031
 40
71.54718905338588
 40
71.54718905338588
 40
77.24153603003696
 40
77.24153603003696
 40
85.55296246471247
 40
85.55296246471247
 40
93.86438889938794
 40
93.86438889938794
 40
102.1758153340634
 40
102.1758153340634
 40
103.7951018644388
 40
103.7951018644388
 40
105.4143883948142
 40
105.4143883948142
 40
108.6529614555651
 40
108.6529614555651
 40
111.8915345163159
 40
111.8915345163159
 40
113.347270026993
 40
113.347270026993
 40
114.387677098447
 40
114.387677098447
 40
115.4280841699009
 40
115.4280841699009
 40
117.5088983128088
 40
117.5088983128088
 40
120.8781008886664
 40
120.8781008886664
 40
124.2473034645239
 40
124.2473034645239
 40
127.6165060403815
 40
127.6165060403815
 40
130.9857086162391
 40
130.9857086162391
 40
132.3135352655595
 40
132.3135352655595
 40
132.3135352655595
 40
132.3135352655595
 10
-2516.261012217814
 20
1508.757334509585
 30
0.0
 10
-2512.912509647541
 20
1508.992280520577
 30
0.0
 10
-2509.506355048801
 20
1509.227887706846
 30
0.0
 10
-2505.224874298076
 20
1509.45468319015
 30
0.0
 10
-2504.475052367855
 20
1509.491945957764
 30
0.0
 10
-2503.435358811823
 20
1509.539566699068
 30
0.0
 10
-2503.153636114527
 20
1509.551956760391
 30
0.0
 10
-2502.613820821329
 20
1509.576041693361
 30
0.0
 10
-2502.352964245813
 20
1509.587893092366
 30
0.0
 10
-2501.599534015209
 20
1509.62472855439
 30
0.0
 10
-2501.135906795467
 20
1509.65119955899
 30
0.0
 10
-2500.100248480234
 20
1509.728467446192
 30
0.0
 10
-2499.583486559887
 20
1509.786356841771
 30
0.0
 10
-2498.998145753061
 20
1509.880185686272
 30
0.0
 10
-2498.832971681583
 20
1509.913583931037
 30
0.0
 10
-2498.475166567986
 20
1509.998192000566
 30
0.0
 10
-2498.292653366101
 20
1510.061278533169
 30
0.0
 10
-2497.968521701398
 20
1510.200421379641
 30
0.0
 10
-2497.828414549064
 20
1510.276170918459
 30
0.0
 10
-2497.543370997495
 20
1510.463117603365
 30
0.0
 10
-2497.398144654617
 20
1510.575011098495
 30
0.0
 10
-2497.078950614038
 20
1510.870384170871
 30
0.0
 10
-2496.905289420143
 20
1511.054351454405
 30
0.0
 10
-2496.531012789633
 20
1511.522414629288
 30
0.0
 10
-2496.330829920615
 20
1511.8065664177
 30
0.0
 10
-2495.782486410284
 20
1512.711148228377
 30
0.0
 10
-2495.424746356562
 20
1513.43118103511
 30
0.0
 10
-2494.744479483986
 20
1515.166829521476
 30
0.0
 10
-2494.422270316569
 20
1516.180790528689
 30
0.0
 10
-2493.851039896913
 20
1518.446565089248
 30
0.0
 10
-2493.60163826343
 20
1519.697788375908
 30
0.0
 10
-2493.001636829371
 20
1523.574375952647
 30
0.0
 10
-2492.761924679665
 20
1526.425853149258
 30
0.0
 10
-2492.541298523275
 20
1532.395734738423
 30
0.0
 10
-2492.557944137374
 20
1535.514797911035
 30
0.0
 10
-2492.696233385309
 20
1540.24842037535
 30
0.0
 10
-2492.764098047254
 20
1541.875572698059
 30
0.0
 10
-2492.896732020976
 20
1544.556932956611
 30
0.0
 10
-2492.95471105757
 20
1545.625756393694
 30
0.0
 10
-2493.077711219122
 20
1547.700605175516
 30
0.0
 10
-2493.143459934396
 20
1548.711506255882
 30
0.0
 10
-2493.358671391226
 20
1551.66741919618
 30
0.0
 10
-2493.52624827267
 20
1553.535430836077
 30
0.0
 10
-2494.027729204728
 20
1557.900253499189
 30
0.0
 10
-2494.402666324472
 20
1560.289812979618
 30
0.0
 10
-2495.370034595391
 20
1564.761974976152
 30
0.0
 10
-2495.960772389078
 20
1566.844584703914
 30
0.0
 10
-2497.436292629394
 20
1570.860239015979
 30
0.0
 10
-2498.320489940019
 20
1572.795936036764
 30
0.0
 10
-2499.634555393243
 20
1575.129521431462
 30
0.0
 10
-2499.858648720348
 20
1575.513525747074
 30
0.0
 10
-2500.30638138936
 20
1576.251218024882
 30
0.0
 10
-2500.531729768451
 20
1576.607594907937
 30
0.0
 10
-2501.207256431265
 20
1577.627073246981
 30
0.0
 10
-2501.657843330913
 20
1578.240024328071
 30
0.0
 10
-2502.5133399493
 20
1579.271964630833
 30
0.0
 10
-2502.917903355242
 20
1579.689479061333
 30
0.0
 10
-2503.418162042317
 20
1580.132869865494
 30
0.0
 10
-2503.561122499866
 20
1580.24819160534
 30
0.0
 10
-2503.7799237698
 20
1580.410321393811
 30
0.0
 10
-2503.859546725499
 20
1580.465034463985
 30
0.0
 10
-2504.034760804851
 20
1580.576971364831
 30
0.0
 10
-2504.127798396656
 20
1580.632180490126
 30
0.0
 10
-2504.428397065144
 20
1580.796854639942
 30
0.0
 10
-2504.657860813264
 20
1580.905633107392
 30
0.0
 10
-2505.36042284626
 20
1581.184953293045
 30
0.0
 10
-2505.898095640753
 20
1581.351289472021
 30
0.0
 10
-2507.196577170154
 20
1581.640162751243
 30
0.0
 10
-2507.955812764988
 20
1581.761885536684
 30
0.0
 10
-2509.665324852795
 20
1581.94723804437
 30
0.0
 10
-2510.614771654124
 20
1582.011064639725
 30
0.0
 10
-2512.665504141168
 20
1582.093252824201
 30
0.0
 10
-2513.766530422635
 20
1582.111864376684
 30
0.0
 10
-2515.385574306205
 20
1582.127041295142
 30
0.0
 10
-2515.85269457531
 20
1582.13020682124
 30
0.0
 10
-2516.328530951413
 20
1582.133419681426
 30
0.0
  0
ENDSEC
  0
SECTION
  2
OBJECTS
  0
DICTIONARY
  5
C
330
0
100
AcDbDictionary
281
     1
  3
ACAD_COLOR
350
DC18
  3
ACAD_GROUP
350
D
  3
ACAD_IMAGE_DICT
350
21
  3
ACAD_IMAGE_VARS
350
20
  3
ACAD_LAYOUT
350
DC19
  3
ACAD_MATERIAL
350
DC17
  3
ACAD_MLINESTYLE
350
1B
  3
ACAD_PLOTSETTINGS
350
DC1A
  3
ACAD_PLOTSTYLENAME
350
DC15
  3
ACDBHEADERROUNDTRIPXREC
350
DC46
  3
ACDBVARIABLEDICTIONARY
350
1CD2
  0
DICTIONARY
  5
B54
330
B4F
100
AcDbDictionary
280
     1
281
     1
  0
DICTIONARY
  5
BFC7
330
BFC6
100
AcDbDictionary
280
     1
281
     1
  3
ACAD_BLKREFS
360
BFC8
  0
DICTIONARY
  5
DC18
102
{ACAD_REACTORS
330
C
102
}
330
C
100
AcDbDictionary
281
     1
  0
DICTIONARY
  5
D
102
{ACAD_REACTORS
330
C
102
}
330
C
100
AcDbDictionary
281
     1
  0
DICTIONARY
  5
21
102
{ACAD_REACTORS
330
C
102
}
330
C
100
AcDbDictionary
281
     1
  3
BF109E-4
350
CFCF
  3
BF109E_SEZIONI-3
350
CCB1
  3
BF109E_SEZIONI-3_1
350
D099
  3
ME_109
350
22
  3
SCARICO
350
C069
  3
SCHEMA_COLORAZIONE_BF-109_1
350
D99A
  3
THUNDERTIGER20GP15
350
C06A
  0
RASTERVARIABLES
  5
20
102
{ACAD_REACTORS
330
C
102
}
330
C
100
AcDbRasterVariables
 90
        0
 70
     1
 71
     1
 72
     0
  0
DICTIONARY
  5
DC19
102
{ACAD_REACTORS
330
C
102
}
330
C
100
AcDbDictionary
281
     1
  3
Layout1
350
DC1C
  3
Model
350
DC1B
  0
DICTIONARY
  5
DC17
102
{ACAD_REACTORS
330
C
102
}
330
C
100
AcDbDictionary
281
     1
  0
DICTIONARY
  5
1B
102
{ACAD_REACTORS
330
C
102
}
330
C
100
AcDbDictionary
281
     1
  3
STANDARD
350
1C
  0
DICTIONARY
  5
DC1A
102
{ACAD_REACTORS
330
C
102
}
330
C
100
AcDbDictionary
281
     1
  0
ACDBDICTIONARYWDFLT
  5
DC15
102
{ACAD_REACTORS
330
C
102
}
330
C
100
AcDbDictionary
281
     1
  3
Normal
350
DC16
100
AcDbDictionaryWithDefault
340
DC16
  0
DICTIONARY
  5
DC46
102
{ACAD_REACTORS
330
C
102
}
330
C
100
AcDbDictionary
281
     1
  3
COLORDICT
350
DC48
  3
MATERIALDICT
350
DC47
  0
DICTIONARY
  5
1CD2
102
{ACAD_REACTORS
330
C
102
}
330
C
100
AcDbDictionary
281
     1
  3
DIMASSOC
350
DC21
  3
PROJECTNAME
350
DC22
  3
SORTENTS
350
1CD3
  0
IDBUFFER
  5
BFC8
102
{ACAD_REACTORS
330
BFC7
102
}
330
BFC7
100
AcDbIdBuffer
  0
IMAGEDEF
  5
CFCF
102
{ACAD_REACTORS
330
21
102
}
330
21
100
AcDbRasterImageDef
 90
        0
  1
C:\WINDOWS\Desktop\AERO MODELLISMO\Bf109e-4.jpg
 10
1522.0
 20
2034.0
 11
0.0006570302233903
 21
0.0006570302233903
280
     1
281
     0
  0
IMAGEDEF
  5
CCB1
102
{ACAD_REACTORS
330
21
102
}
330
21
100
AcDbRasterImageDef
 90
        0
  1
C:\WINDOWS\Desktop\AERO MODELLISMO\Bf109e sezioni-3.tif
 10
1522.0
 20
2034.0
 11
0.127
 21
0.127
280
     1
281
     5
  0
IMAGEDEF
  5
D099
102
{ACAD_REACTORS
330
21
102
}
330
21
100
AcDbRasterImageDef
 90
        0
  1
C:\WINDOWS\Desktop\AERO MODELLISMO\Bf109e sezioni-3.JPG
 10
1522.0
 20
2034.0
 11
0.0006570302233903
 21
0.0006570302233903
280
     1
281
     0
  0
IMAGEDEF
  5
22
102
{ACAD_REACTORS
330
21
102
}
330
21
100
AcDbRasterImageDef
 90
        0
  1
C:\Documenti\me 109.JPG
 10
1696.0
 20
2336.0
 11
0.0005896226415094
 21
0.0005896226415094
280
     1
281
     0
  0
IMAGEDEF
  5
C069
102
{ACAD_REACTORS
330
21
102
}
330
21
100
AcDbRasterImageDef
 90
        0
  1
C:\WINDOWS\Desktop\AERO MODELLISMO\scarico.jpg
 10
1217.0
 20
910.0
 11
0.0008216926869351
 21
0.0008216926869351
280
     1
281
     0
  0
IMAGEDEF
  5
D99A
102
{ACAD_REACTORS
330
21
102
}
330
21
100
AcDbRasterImageDef
 90
        0
  1
C:\WINDOWS\Desktop\AERO MODELLISMO\bf-109\schema colorazione Bf-109 1.jpg
 10
768.0
 20
1084.0
 11
0.0013020833333333
 21
0.0013020833333333
280
     1
281
     0
  0
IMAGEDEF
  5
C06A
102
{ACAD_REACTORS
330
21
102
}
330
21
100
AcDbRasterImageDef
 90
        0
  1
C:\WINDOWS\Desktop\AERO MODELLISMO\ThunderTiger%20Gp15.gif
 10
265.0
 20
446.0
 11
0.0037735849056604
 21
0.0037735849056604
280
     1
281
     0
  0
LAYOUT
  5
DC1C
102
{ACAD_XDICTIONARY
360
DC4B
102
}
102
{ACAD_REACTORS
330
DC19
102
}
330
DC19
100
AcDbPlotSettings
  1

  2
HP Color LaserJet CM3530 MFP PCL 6_1
  4

  6

 40
0.0
 41
0.0
 42
0.0
 43
0.0
 44
0.0
 45
0.0
 46
0.0
 47
0.0
 48
0.0
 49
0.0
140
0.0
141
0.0
142
1.0
143
1.0
 70
   688
 72
     0
 73
     0
 74
     5
  7

 75
    16
147
1.0
148
0.0
149
0.0
100
AcDbLayout
  1
Layout1
 70
     1
 71
     1
 10
0.0
 20
0.0
 11
420.0
 21
297.0
 12
0.0
 22
0.0
 32
0.0
 14
1.000000000000000E+20
 24
1.000000000000000E+20
 34
1.000000000000000E+20
 15
-1.000000000000000E+20
 25
-1.000000000000000E+20
 35
-1.000000000000000E+20
146
0.0
 13
0.0
 23
0.0
 33
0.0
 16
1.0
 26
0.0
 36
0.0
 17
0.0
 27
1.0
 37
0.0
 76
     0
330
15
  0
LAYOUT
  5
DC1B
102
{ACAD_XDICTIONARY
360
DC49
102
}
102
{ACAD_REACTORS
330
DC19
102
}
330
DC19
100
AcDbPlotSettings
  1

  2
HP Color LaserJet CM3530 MFP PCL 6_1
  4

  6

 40
0.0
 41
0.0
 42
0.0
 43
0.0
 44
0.0
 45
0.0
 46
0.0
 47
0.0
 48
0.0
 49
0.0
140
0.0
141
0.0
142
1.0
143
1.0
 70
  1712
 72
     0
 73
     0
 74
     0
  7

 75
     0
147
1.0
148
0.0
149
0.0
100
AcDbLayout
  1
Model
 70
     1
 71
     0
 10
0.0
 20
0.0
 11
12.0
 21
9.0
 12
0.0
 22
0.0
 32
0.0
 14
0.0
 24
0.0
 34
0.0
 15
0.0
 25
0.0
 35
0.0
146
0.0
 13
0.0
 23
0.0
 33
0.0
 16
1.0
 26
0.0
 36
0.0
 17
0.0
 27
1.0
 37
0.0
 76
     0
330
18
  0
MLINESTYLE
  5
1C
102
{ACAD_REACTORS
330
1B
102
}
330
1B
100
AcDbMlineStyle
  2
STANDARD
 70
     0
  3

 62
   256
 51
90.0
 52
90.0
 71
     2
 49
0.5
 62
   256
  6
BYLAYER
 49
-0.5
 62
   256
  6
BYLAYER
  0
ACDBPLACEHOLDER
  5
DC16
102
{ACAD_REACTORS
330
DC15
102
}
330
DC15
  0
XRECORD
  5
DC48
102
{ACAD_REACTORS
330
DC46
102
}
330
DC46
100
AcDbXrecord
280
     1
340
DC18
  0
XRECORD
  5
DC47
102
{ACAD_REACTORS
330
DC46
102
}
330
DC46
100
AcDbXrecord
280
     1
340
DC17
  0
DICTIONARYVAR
  5
DC21
102
{ACAD_REACTORS
330
1CD2
102
}
330
1CD2
100
DictionaryVariables
280
     0
  1
1
  0
DICTIONARYVAR
  5
DC22
102
{ACAD_REACTORS
330
1CD2
102
}
330
1CD2
100
DictionaryVariables
280
     0
  1

  0
DICTIONARYVAR
  5
1CD3
102
{ACAD_REACTORS
330
1CD2
102
}
330
1CD2
100
DictionaryVariables
280
     0
  1
96
  0
DICTIONARY
  5
DC4B
330
DC1C
100
AcDbDictionary
280
     1
281
     1
  3
ACAD_XREC_ROUNDTRIP
360
DC4C
  0
DICTIONARY
  5
DC49
330
DC1B
100
AcDbDictionary
280
     1
281
     1
  3
ACAD_XREC_ROUNDTRIP
360
DC4A
  0
XRECORD
  5
DC4C
102
{ACAD_REACTORS
330
DC4B
102
}
330
DC4B
100
AcDbXrecord
280
     1
102
SHADEPLOT
 70
     0
102
SHADEPLOTRESLEVEL
 70
     2
102
SHADEPLOTCUSTOMDPI
 70
   300
  0
XRECORD
  5
DC4A
102
{ACAD_REACTORS
330
DC49
102
}
330
DC49
100
AcDbXrecord
280
     1
102
SHADEPLOT
 70
     0
102
SHADEPLOTRESLEVEL
 70
     2
102
SHADEPLOTCUSTOMDPI
 70
   300
  0
ENDSEC
  0
EOF
