  0
SECTION
  2
HEADER
  9
$ACADVER
  1
AC1018
  9
$ACADMAINTVER
 70
     0
  9
$DWGCODEPAGE
  3
ANSI_1252
  9
$INSBASE
 10
0.0
 20
0.0
 30
0.0
  9
$EXTMIN
 10
0.0
 20
-85.0
 30
-23.36557769775391
  9
$EXTMAX
 10
1200.0
 20
85.0
 30
114.4338912963867
  9
$LIMMIN
 10
0.0
 20
0.0
  9
$LIMMAX
 10
12.0
 20
9.0
  9
$ORTHOMODE
 70
     0
  9
$REGENMODE
 70
     1
  9
$FILLMODE
 70
     1
  9
$QTEXTMODE
 70
     0
  9
$MIRRTEXT
 70
     1
  9
$LTSCALE
 40
1.0
  9
$ATTMODE
 70
     1
  9
$TEXTSIZE
 40
0.2
  9
$TRACEWID
 40
0.05
  9
$TEXTSTYLE
  7
Standard
  9
$CLAYER
  8
PREDEFINITO
  9
$CELTYPE
  6
ByLayer
  9
$CECOLOR
 62
   256
  9
$CELTSCALE
 40
1.0
  9
$DISPSILH
 70
     0
  9
$DIMSCALE
 40
1.0
  9
$DIMASZ
 40
0.18
  9
$DIMEXO
 40
0.0625
  9
$DIMDLI
 40
0.38
  9
$DIMRND
 40
0.0
  9
$DIMDLE
 40
0.0
  9
$DIMEXE
 40
0.18
  9
$DIMTP
 40
0.0
  9
$DIMTM
 40
0.0
  9
$DIMTXT
 40
0.18
  9
$DIMCEN
 40
0.09
  9
$DIMTSZ
 40
0.0
  9
$DIMTOL
 70
     0
  9
$DIMLIM
 70
     0
  9
$DIMTIH
 70
     1
  9
$DIMTOH
 70
     1
  9
$DIMSE1
 70
     0
  9
$DIMSE2
 70
     0
  9
$DIMTAD
 70
     0
  9
$DIMZIN
 70
     0
  9
$DIMBLK
  1

  9
$DIMASO
 70
     1
  9
$DIMSHO
 70
     1
  9
$DIMPOST
  1

  9
$DIMAPOST
  1

  9
$DIMALT
 70
     0
  9
$DIMALTD
 70
     2
  9
$DIMALTF
 40
25.4
  9
$DIMLFAC
 40
1.0
  9
$DIMTOFL
 70
     0
  9
$DIMTVP
 40
0.0
  9
$DIMTIX
 70
     0
  9
$DIMSOXD
 70
     0
  9
$DIMSAH
 70
     0
  9
$DIMBLK1
  1

  9
$DIMBLK2
  1

  9
$DIMSTYLE
  2
Standard
  9
$DIMCLRD
 70
     0
  9
$DIMCLRE
 70
     0
  9
$DIMCLRT
 70
     0
  9
$DIMTFAC
 40
1.0
  9
$DIMGAP
 40
0.09
  9
$DIMJUST
 70
     0
  9
$DIMSD1
 70
     0
  9
$DIMSD2
 70
     0
  9
$DIMTOLJ
 70
     1
  9
$DIMTZIN
 70
     0
  9
$DIMALTZ
 70
     0
  9
$DIMALTTZ
 70
     0
  9
$DIMUPT
 70
     0
  9
$DIMDEC
 70
     4
  9
$DIMTDEC
 70
     4
  9
$DIMALTU
 70
     2
  9
$DIMALTTD
 70
     2
  9
$DIMTXSTY
  7
Standard
  9
$DIMAUNIT
 70
     0
  9
$DIMADEC
 70
     0
  9
$DIMALTRND
 40
0.0
  9
$DIMAZIN
 70
     0
  9
$DIMDSEP
 70
    46
  9
$DIMATFIT
 70
     3
  9
$DIMFRAC
 70
     0
  9
$DIMLDRBLK
  1

  9
$DIMLUNIT
 70
     2
  9
$DIMLWD
 70
    -2
  9
$DIMLWE
 70
    -2
  9
$DIMTMOVE
 70
     0
  9
$LUNITS
 70
     2
  9
$LUPREC
 70
     3
  9
$SKETCHINC
 40
0.1
  9
$FILLETRAD
 40
0.5
  9
$AUNITS
 70
     0
  9
$AUPREC
 70
     0
  9
$MENU
  1
.
  9
$ELEVATION
 40
0.0
  9
$PELEVATION
 40
0.0
  9
$THICKNESS
 40
0.0
  9
$LIMCHECK
 70
     0
  9
$CHAMFERA
 40
0.5
  9
$CHAMFERB
 40
0.5
  9
$CHAMFERC
 40
1.0
  9
$CHAMFERD
 40
0.0
  9
$SKPOLY
 70
     0
  9
$TDCREATE
 40
2454408.535385556
  9
$TDUCREATE
 40
2454408.493718889
  9
$TDUPDATE
 40
2454408.535385567
  9
$TDUUPDATE
 40
2454408.4937189
  9
$TDINDWG
 40
0.0000000116
  9
$TDUSRTIMER
 40
0.0000000116
  9
$USRTIMER
 70
     1
  9
$ANGBASE
 50
0.0
  9
$ANGDIR
 70
     0
  9
$PDMODE
 70
     0
  9
$PDSIZE
 40
0.0
  9
$PLINEWID
 40
0.0
  9
$SPLFRAME
 70
     0
  9
$SPLINETYPE
 70
     6
  9
$SPLINESEGS
 70
     8
  9
$HANDSEED
  5
377
  9
$SURFTAB1
 70
     6
  9
$SURFTAB2
 70
     6
  9
$SURFTYPE
 70
     6
  9
$SURFU
 70
     6
  9
$SURFV
 70
     6
  9
$UCSBASE
  2

  9
$UCSNAME
  2

  9
$UCSORG
 10
0.0
 20
0.0
 30
0.0
  9
$UCSXDIR
 10
1.0
 20
0.0
 30
0.0
  9
$UCSYDIR
 10
0.0
 20
1.0
 30
0.0
  9
$UCSORTHOREF
  2

  9
$UCSORTHOVIEW
 70
     0
  9
$UCSORGTOP
 10
0.0
 20
0.0
 30
0.0
  9
$UCSORGBOTTOM
 10
0.0
 20
0.0
 30
0.0
  9
$UCSORGLEFT
 10
0.0
 20
0.0
 30
0.0
  9
$UCSORGRIGHT
 10
0.0
 20
0.0
 30
0.0
  9
$UCSORGFRONT
 10
0.0
 20
0.0
 30
0.0
  9
$UCSORGBACK
 10
0.0
 20
0.0
 30
0.0
  9
$PUCSBASE
  2

  9
$PUCSNAME
  2

  9
$PUCSORG
 10
0.0
 20
0.0
 30
0.0
  9
$PUCSXDIR
 10
1.0
 20
0.0
 30
0.0
  9
$PUCSYDIR
 10
0.0
 20
1.0
 30
0.0
  9
$PUCSORTHOREF
  2

  9
$PUCSORTHOVIEW
 70
     0
  9
$PUCSORGTOP
 10
0.0
 20
0.0
 30
0.0
  9
$PUCSORGBOTTOM
 10
0.0
 20
0.0
 30
0.0
  9
$PUCSORGLEFT
 10
0.0
 20
0.0
 30
0.0
  9
$PUCSORGRIGHT
 10
0.0
 20
0.0
 30
0.0
  9
$PUCSORGFRONT
 10
0.0
 20
0.0
 30
0.0
  9
$PUCSORGBACK
 10
0.0
 20
0.0
 30
0.0
  9
$USERI1
 70
     0
  9
$USERI2
 70
     0
  9
$USERI3
 70
     0
  9
$USERI4
 70
     0
  9
$USERI5
 70
     0
  9
$USERR1
 40
0.0
  9
$USERR2
 40
0.0
  9
$USERR3
 40
0.0
  9
$USERR4
 40
0.0
  9
$USERR5
 40
0.0
  9
$WORLDVIEW
 70
     1
  9
$SHADEDGE
 70
     3
  9
$SHADEDIF
 70
    70
  9
$TILEMODE
 70
     1
  9
$MAXACTVP
 70
    64
  9
$PINSBASE
 10
0.0
 20
0.0
 30
0.0
  9
$PLIMCHECK
 70
     0
  9
$PEXTMIN
 10
1.000000000000000E+20
 20
1.000000000000000E+20
 30
1.000000000000000E+20
  9
$PEXTMAX
 10
-1.000000000000000E+20
 20
-1.000000000000000E+20
 30
-1.000000000000000E+20
  9
$PLIMMIN
 10
0.0
 20
0.0
  9
$PLIMMAX
 10
12.0
 20
9.0
  9
$UNITMODE
 70
     0
  9
$VISRETAIN
 70
     1
  9
$PLINEGEN
 70
     0
  9
$PSLTSCALE
 70
     1
  9
$TREEDEPTH
 70
  3020
  9
$CMLSTYLE
  2
Standard
  9
$CMLJUST
 70
     0
  9
$CMLSCALE
 40
1.0
  9
$PROXYGRAPHICS
 70
     1
  9
$MEASUREMENT
 70
     0
  9
$CELWEIGHT
370
    -1
  9
$ENDCAPS
280
     0
  9
$JOINSTYLE
280
     0
  9
$LWDISPLAY
290
     0
  9
$INSUNITS
 70
     4
  9
$HYPERLINKBASE
  1

  9
$STYLESHEET
  1

  9
$XEDIT
290
     1
  9
$CEPSNTYPE
380
     0
  9
$PSTYLEMODE
290
     1
  9
$FINGERPRINTGUID
  2
{6E54BC5B-F688-4857-92F6-04DE513F0190}
  9
$VERSIONGUID
  2
{FAEB1C32-E019-11D5-929B-00C0DF256EC4}
  9
$EXTNAMES
290
     1
  9
$PSVPSCALE
 40
0.0
  9
$OLESTARTUP
290
     0
  9
$SORTENTS
280
   127
  9
$INDEXCTL
280
     0
  9
$HIDETEXT
280
     1
  9
$XCLIPFRAME
290
     0
  9
$HALOGAP
280
     0
  9
$OBSCOLOR
 70
   257
  9
$OBSLTYPE
280
     0
  9
$INTERSECTIONDISPLAY
280
     0
  9
$INTERSECTIONCOLOR
 70
   257
  9
$DIMASSOC
280
     2
  9
$PROJECTNAME
  1

  0
ENDSEC
  0
SECTION
  2
CLASSES
  0
CLASS
  1
ACDBDICTIONARYWDFLT
  2
AcDbDictionaryWithDefault
  3
ObjectDBX Classes
 90
        0
 91
        3
280
     0
281
     0
  0
CLASS
  1
VISUALSTYLE
  2
AcDbVisualStyle
  3
ObjectDBX Classes
 90
     4095
 91
        3
280
     0
281
     0
  0
ENDSEC
  0
SECTION
  2
TABLES
  0
TABLE
  2
VPORT
  5
8
330
0
100
AcDbSymbolTable
 70
     1
  0
VPORT
  5
29
330
8
100
AcDbSymbolTableRecord
100
AcDbViewportTableRecord
  2
*Active
 70
     0
 10
0.0
 20
0.0
 11
1.0
 21
1.0
 12
0.0
 22
0.0
 13
0.0
 23
0.0
 14
0.5
 24
0.5
 15
0.5
 25
0.5
 16
0.0
 26
0.0
 36
1.0
 17
600.0
 27
0.0
 37
0.0
 40
173.4
 41
7.058823529411764
 42
50.0
 43
0.0
 44
0.0
 50
0.0
 51
0.0
 71
     0
 72
   100
 73
     1
 74
     3
 75
     0
 76
     0
 77
     0
 78
     0
281
     0
 65
     1
110
0.0
120
0.0
130
0.0
111
1.0
121
0.0
131
0.0
112
0.0
122
1.0
132
0.0
 79
     0
146
0.0
  0
ENDTAB
  0
TABLE
  2
LTYPE
  5
5
330
0
100
AcDbSymbolTable
 70
     1
  0
LTYPE
  5
14
330
5
100
AcDbSymbolTableRecord
100
AcDbLinetypeTableRecord
  2
ByBlock
 70
     0
  3

 72
    65
 73
     0
 40
0.0
  0
LTYPE
  5
15
330
5
100
AcDbSymbolTableRecord
100
AcDbLinetypeTableRecord
  2
ByLayer
 70
     0
  3

 72
    65
 73
     0
 40
0.0
  0
LTYPE
  5
16
330
5
100
AcDbSymbolTableRecord
100
AcDbLinetypeTableRecord
  2
Continuous
 70
     0
  3
Solid line
 72
    65
 73
     0
 40
0.0
  0
ENDTAB
  0
TABLE
  2
LAYER
  5
2
330
0
100
AcDbSymbolTable
 70
     2
  0
LAYER
  5
10
330
2
100
AcDbSymbolTableRecord
100
AcDbLayerTableRecord
  2
0
 70
     0
 62
     7
  6
Continuous
370
    -3
390
F
  0
LAYER
  5
3B
330
2
100
AcDbSymbolTableRecord
100
AcDbLayerTableRecord
  2
PREDEFINITO
 70
     0
 62
     7
  6
Continuous
370
    -3
390
F
  0
ENDTAB
  0
TABLE
  2
STYLE
  5
3
330
0
100
AcDbSymbolTable
 70
     1
  0
STYLE
  5
11
330
3
100
AcDbSymbolTableRecord
100
AcDbTextStyleTableRecord
  2
Standard
 70
     0
 40
0.0
 41
1.0
 50
0.0
 71
     0
 42
0.2
  3
txt
  4

  0
ENDTAB
  0
TABLE
  2
VIEW
  5
6
330
0
100
AcDbSymbolTable
 70
     0
  0
ENDTAB
  0
TABLE
  2
UCS
  5
7
330
0
100
AcDbSymbolTable
 70
     0
  0
ENDTAB
  0
TABLE
  2
APPID
  5
9
330
0
100
AcDbSymbolTable
 70
     1
  0
APPID
  5
12
330
9
100
AcDbSymbolTableRecord
100
AcDbRegAppTableRecord
  2
ACAD
 70
     0
  0
ENDTAB
  0
TABLE
  2
DIMSTYLE
  5
A
330
0
100
AcDbSymbolTable
 70
     1
100
AcDbDimStyleTable
  0
DIMSTYLE
105
27
330
A
100
AcDbSymbolTableRecord
100
AcDbDimStyleTableRecord
  2
Standard
 70
     0
340
11
  0
ENDTAB
  0
TABLE
  2
BLOCK_RECORD
  5
1
330
0
100
AcDbSymbolTable
 70
     1
  0
BLOCK_RECORD
  5
1F
330
1
100
AcDbSymbolTableRecord
100
AcDbBlockTableRecord
  2
*Model_Space
340
22
  0
BLOCK_RECORD
  5
1B
330
1
100
AcDbSymbolTableRecord
100
AcDbBlockTableRecord
  2
*Paper_Space
340
1E
  0
BLOCK_RECORD
  5
23
330
1
100
AcDbSymbolTableRecord
100
AcDbBlockTableRecord
  2
*Paper_Space0
340
26
  0
ENDTAB
  0
ENDSEC
  0
SECTION
  2
BLOCKS
  0
BLOCK
  5
20
330
1F
100
AcDbEntity
  8
0
100
AcDbBlockBegin
  2
*Model_Space
 70
     0
 71
     0
 10
0.0
 20
0.0
 30
0.0
  3
*Model_Space
  1

  0
ENDBLK
  5
21
330
1F
100
AcDbEntity
  8
0
100
AcDbBlockEnd
  0
BLOCK
  5
1C
330
1B
100
AcDbEntity
 67
     1
  8
0
100
AcDbBlockBegin
  2
*Paper_Space
 70
     0
 71
     0
 10
0.0
 20
0.0
 30
0.0
  3
*Paper_Space
  1

  0
ENDBLK
  5
1D
330
1B
100
AcDbEntity
 67
     1
  8
0
100
AcDbBlockEnd
  0
BLOCK
  5
24
330
23
100
AcDbEntity
  8
0
100
AcDbBlockBegin
  2
*Paper_Space0
 70
     0
 71
     0
 10
0.0
 20
0.0
 30
0.0
  3
*Paper_Space0
  1

  0
ENDBLK
  5
25
330
23
100
AcDbEntity
  8
0
100
AcDbBlockEnd
  0
ENDSEC
  0
SECTION
  2
ENTITIES
  0
LINE
  5
3C
330
1F
100
AcDbEntity
  8
PREDEFINITO
100
AcDbLine
 10
215.0
 20
5.0
 30
62.5
 11
245.0
 21
5.0
 31
62.5
  0
LINE
  5
3D
330
1F
100
AcDbEntity
  8
PREDEFINITO
100
AcDbLine
 10
245.0
 20
5.0
 30
62.5
 11
245.0
 21
20.0
 31
62.5
  0
LINE
  5
3E
330
1F
100
AcDbEntity
  8
PREDEFINITO
100
AcDbLine
 10
245.0
 20
20.0
 30
62.5
 11
215.0
 21
20.0
 31
62.5
  0
LINE
  5
3F
330
1F
100
AcDbEntity
  8
PREDEFINITO
100
AcDbLine
 10
215.0
 20
20.0
 30
62.5
 11
215.0
 21
5.0
 31
62.5
  0
LINE
  5
40
330
1F
100
AcDbEntity
  8
PREDEFINITO
100
AcDbLine
 10
215.0
 20
5.0
 30
87.5
 11
245.0
 21
5.0
 31
87.5
  0
LINE
  5
41
330
1F
100
AcDbEntity
  8
PREDEFINITO
100
AcDbLine
 10
245.0
 20
5.0
 30
87.5
 11
245.0
 21
20.0
 31
87.5
  0
LINE
  5
42
330
1F
100
AcDbEntity
  8
PREDEFINITO
100
AcDbLine
 10
245.0
 20
20.0
 30
87.5
 11
215.0
 21
20.0
 31
87.5
  0
LINE
  5
43
330
1F
100
AcDbEntity
  8
PREDEFINITO
100
AcDbLine
 10
215.0
 20
20.0
 30
87.5
 11
215.0
 21
5.0
 31
87.5
  0
LINE
  5
44
330
1F
100
AcDbEntity
  8
PREDEFINITO
100
AcDbLine
 10
215.0
 20
5.0
 30
62.5
 11
215.0
 21
5.0
 31
87.5
  0
LINE
  5
45
330
1F
100
AcDbEntity
  8
PREDEFINITO
100
AcDbLine
 10
245.0
 20
5.0
 30
62.5
 11
245.0
 21
5.0
 31
87.5
  0
LINE
  5
46
330
1F
100
AcDbEntity
  8
PREDEFINITO
100
AcDbLine
 10
245.0
 20
20.0
 30
62.5
 11
245.0
 21
20.0
 31
87.5
  0
LINE
  5
47
330
1F
100
AcDbEntity
  8
PREDEFINITO
100
AcDbLine
 10
215.0
 20
20.0
 30
62.5
 11
215.0
 21
20.0
 31
87.5
  0
SPLINE
  5
48
330
1F
100
AcDbEntity
  8
PREDEFINITO
100
AcDbSpline
210
0.0
220
0.0
230
1.0
 70
    24
 71
     2
 72
     6
 73
     3
 74
     0
 42
0.0000000001
 43
0.0000000001
 40
0.0
 40
0.0
 40
0.0
 40
30.0
 40
30.0
 40
30.0
 10
215.0
 20
5.0
 30
75.0
 10
230.0
 20
5.0
 30
75.0
 10
245.0
 20
5.0
 30
75.0
  0
SPLINE
  5
49
330
1F
100
AcDbEntity
  8
PREDEFINITO
100
AcDbSpline
210
0.0
220
0.0
230
1.0
 70
    24
 71
     2
 72
     6
 73
     3
 74
     0
 42
0.0000000001
 43
0.0000000001
 40
0.0
 40
0.0
 40
0.0
 40
25.0
 40
25.0
 40
25.0
 10
230.0
 20
5.0
 30
62.5
 10
230.0
 20
5.0
 30
75.0
 10
230.0
 20
5.0
 30
87.5
  0
SPLINE
  5
4A
330
1F
100
AcDbEntity
  8
PREDEFINITO
100
AcDbSpline
210
0.0
220
0.0
230
1.0
 70
    24
 71
     2
 72
     6
 73
     3
 74
     0
 42
0.0000000001
 43
0.0000000001
 40
0.0
 40
0.0
 40
0.0
 40
15.0
 40
15.0
 40
15.0
 10
245.0
 20
5.0
 30
75.0
 10
245.0
 20
12.5
 30
75.0
 10
245.0
 20
20.0
 30
75.0
  0
SPLINE
  5
4B
330
1F
100
AcDbEntity
  8
PREDEFINITO
100
AcDbSpline
210
0.0
220
0.0
230
1.0
 70
    24
 71
     2
 72
     6
 73
     3
 74
     0
 42
0.0000000001
 43
0.0000000001
 40
0.0
 40
0.0
 40
0.0
 40
25.0
 40
25.0
 40
25.0
 10
245.0
 20
12.5
 30
62.5
 10
245.0
 20
12.5
 30
75.0
 10
245.0
 20
12.5
 30
87.5
  0
SPLINE
  5
4C
330
1F
100
AcDbEntity
  8
PREDEFINITO
100
AcDbSpline
210
0.0
220
0.0
230
1.0
 70
    24
 71
     2
 72
     6
 73
     3
 74
     0
 42
0.0000000001
 43
0.0000000001
 40
0.0
 40
0.0
 40
0.0
 40
30.0
 40
30.0
 40
30.0
 10
245.0
 20
20.0
 30
75.0
 10
230.0
 20
20.0
 30
75.0
 10
215.0
 20
20.0
 30
75.0
  0
SPLINE
  5
4D
330
1F
100
AcDbEntity
  8
PREDEFINITO
100
AcDbSpline
210
0.0
220
0.0
230
1.0
 70
    24
 71
     2
 72
     6
 73
     3
 74
     0
 42
0.0000000001
 43
0.0000000001
 40
0.0
 40
0.0
 40
0.0
 40
25.0
 40
25.0
 40
25.0
 10
230.0
 20
20.0
 30
62.5
 10
230.0
 20
20.0
 30
75.0
 10
230.0
 20
20.0
 30
87.5
  0
SPLINE
  5
4E
330
1F
100
AcDbEntity
  8
PREDEFINITO
100
AcDbSpline
210
0.0
220
0.0
230
1.0
 70
    24
 71
     2
 72
     6
 73
     3
 74
     0
 42
0.0000000001
 43
0.0000000001
 40
0.0
 40
0.0
 40
0.0
 40
15.0
 40
15.0
 40
15.0
 10
215.0
 20
20.0
 30
75.0
 10
215.0
 20
12.5
 30
75.0
 10
215.0
 20
5.0
 30
75.0
  0
SPLINE
  5
4F
330
1F
100
AcDbEntity
  8
PREDEFINITO
100
AcDbSpline
210
0.0
220
0.0
230
1.0
 70
    24
 71
     2
 72
     6
 73
     3
 74
     0
 42
0.0000000001
 43
0.0000000001
 40
0.0
 40
0.0
 40
0.0
 40
25.0
 40
25.0
 40
25.0
 10
215.0
 20
12.5
 30
62.5
 10
215.0
 20
12.5
 30
75.0
 10
215.0
 20
12.5
 30
87.5
  0
SPLINE
  5
50
330
1F
100
AcDbEntity
  8
PREDEFINITO
100
AcDbSpline
210
0.0
220
0.0
230
1.0
 70
    24
 71
     2
 72
     6
 73
     3
 74
     0
 42
0.0000000001
 43
0.0000000001
 40
0.0
 40
0.0
 40
0.0
 40
15.0
 40
15.0
 40
15.0
 10
230.0
 20
5.0
 30
62.5
 10
230.0
 20
12.5
 30
62.5
 10
230.0
 20
20.0
 30
62.5
  0
SPLINE
  5
51
330
1F
100
AcDbEntity
  8
PREDEFINITO
100
AcDbSpline
210
0.0
220
0.0
230
1.0
 70
    24
 71
     2
 72
     6
 73
     3
 74
     0
 42
0.0000000001
 43
0.0000000001
 40
0.0
 40
0.0
 40
0.0
 40
30.0
 40
30.0
 40
30.0
 10
215.0
 20
12.5
 30
62.5
 10
230.0
 20
12.5
 30
62.5
 10
245.0
 20
12.5
 30
62.5
  0
SPLINE
  5
52
330
1F
100
AcDbEntity
  8
PREDEFINITO
100
AcDbSpline
210
0.0
220
0.0
230
1.0
 70
    24
 71
     2
 72
     6
 73
     3
 74
     0
 42
0.0000000001
 43
0.0000000001
 40
0.0
 40
0.0
 40
0.0
 40
30.0
 40
30.0
 40
30.0
 10
215.0
 20
12.5
 30
87.5
 10
230.0
 20
12.5
 30
87.5
 10
245.0
 20
12.5
 30
87.5
  0
SPLINE
  5
53
330
1F
100
AcDbEntity
  8
PREDEFINITO
100
AcDbSpline
210
0.0
220
0.0
230
1.0
 70
    24
 71
     2
 72
     6
 73
     3
 74
     0
 42
0.0000000001
 43
0.0000000001
 40
0.0
 40
0.0
 40
0.0
 40
15.0
 40
15.0
 40
15.0
 10
230.0
 20
5.0
 30
87.5
 10
230.0
 20
12.5
 30
87.5
 10
230.0
 20
20.0
 30
87.5
  0
POLYLINE
  5
54
330
1F
100
AcDbEntity
  8
PREDEFINITO
100
AcDbPolyFaceMesh
 66
     1
 10
0.0
 20
0.0
 30
0.0
 70
    64
 71
   280
 72
   520
  0
VERTEX
  5
56
330
54
100
AcDbEntity
  8
PREDEFINITO
100
AcDbVertex
100
AcDbPolyFaceMeshVertex
 10
0.0
 20
0.8022483587265015
 30
103.3633117675781
 70
   192
  0
VERTEX
  5
57
330
54
100
AcDbEntity
  8
PREDEFINITO
100
AcDbVertex
100
AcDbPolyFaceMeshVertex
 10
0.0
 20
0.8018458485603333
 30
113.1748504638672
 70
   192
  0
VERTEX
  5
58
330
54
100
AcDbEntity
  8
PREDEFINITO
100
AcDbVertex
100
AcDbPolyFaceMeshVertex
 10
0.0
 20
0.8005498647689819
 30
113.2381362915039
 70
   192
  0
VERTEX
  5
59
330
54
100
AcDbEntity
  8
PREDEFINITO
100
AcDbVertex
100
AcDbPolyFaceMeshVertex
 10
0.0
 20
0.7979965209960938
 30
113.2697372436523
 70
   192
  0
VERTEX
  5
5A
330
54
100
AcDbEntity
  8
PREDEFINITO
100
AcDbVertex
100
AcDbPolyFaceMeshVertex
 10
0.0
 20
0.7928821444511414
 30
113.285774230957
 70
   192
  0
VERTEX
  5
5B
330
54
100
AcDbEntity
  8
PREDEFINITO
100
AcDbVertex
100
AcDbPolyFaceMeshVertex
 10
0.0
 20
0.5523043870925903
 30
113.2907485961914
 70
   192
  0
VERTEX
  5
5C
330
54
100
AcDbEntity
  8
PREDEFINITO
100
AcDbVertex
100
AcDbPolyFaceMeshVertex
 10
0.0
 20
-0.7928821444511414
 30
113.285774230957
 70
   192
  0
VERTEX
  5
5D
330
54
100
AcDbEntity
  8
PREDEFINITO
100
AcDbVertex
100
AcDbPolyFaceMeshVertex
 10
0.0
 20
-0.7979965209960938
 30
113.2697372436523
 70
   192
  0
VERTEX
  5
5E
330
54
100
AcDbEntity
  8
PREDEFINITO
100
AcDbVertex
100
AcDbPolyFaceMeshVertex
 10
0.0
 20
-0.8005498647689819
 30
113.2381362915039
 70
   192
  0
VERTEX
  5
5F
330
54
100
AcDbEntity
  8
PREDEFINITO
100
AcDbVertex
100
AcDbPolyFaceMeshVertex
 10
0.0
 20
-0.8018458485603333
 30
113.1748504638672
 70
   192
  0
VERTEX
  5
60
330
54
100
AcDbEntity
  8
PREDEFINITO
100
AcDbVertex
100
AcDbPolyFaceMeshVertex
 10
0.0
 20
-0.8022483587265015
 30
103.3633117675781
 70
   192
  0
VERTEX
  5
61
330
54
100
AcDbEntity
  8
PREDEFINITO
100
AcDbVertex
100
AcDbPolyFaceMeshVertex
 10
0.0
 20
-0.7675918936729431
 30
89.23527526855469
 70
   192
  0
VERTEX
  5
62
330
54
100
AcDbEntity
  8
PREDEFINITO
100
AcDbVertex
100
AcDbPolyFaceMeshVertex
 10
0.0
 20
-0.6657505631446838
 30
78.48564147949219
 70
   192
  0
VERTEX
  5
63
330
54
100
AcDbEntity
  8
PREDEFINITO
100
AcDbVertex
100
AcDbPolyFaceMeshVertex
 10
0.0
 20
-0.5025985836982727
 30
70.40992736816406
 70
   192
  0
VERTEX
  5
64
330
54
100
AcDbEntity
  8
PREDEFINITO
100
AcDbVertex
100
AcDbPolyFaceMeshVertex
 10
0.0
 20
-0.2854258418083191
 30
65.36898040771484
 70
   192
  0
VERTEX
  5
65
330
54
100
AcDbEntity
  8
PREDEFINITO
100
AcDbVertex
100
AcDbPolyFaceMeshVertex
 10
0.0
 20
-0.0000000000000114
 30
63.6535530090332
 70
   192
  0
VERTEX
  5
66
330
54
100
AcDbEntity
  8
PREDEFINITO
100
AcDbVertex
100
AcDbPolyFaceMeshVertex
 10
0.0
 20
0.2854258418083191
 30
65.36898040771484
 70
   192
  0
VERTEX
  5
67
330
54
100
AcDbEntity
  8
PREDEFINITO
100
AcDbVertex
100
AcDbPolyFaceMeshVertex
 10
0.0
 20
0.5025985836982727
 30
70.40992736816406
 70
   192
  0
VERTEX
  5
68
330
54
100
AcDbEntity
  8
PREDEFINITO
100
AcDbVertex
100
AcDbPolyFaceMeshVertex
 10
0.0
 20
0.6657505631446838
 30
78.48564147949219
 70
   192
  0
VERTEX
  5
69
330
54
100
AcDbEntity
  8
PREDEFINITO
100
AcDbVertex
100
AcDbPolyFaceMeshVertex
 10
0.0
 20
0.7675918936729431
 30
89.23527526855469
 70
   192
  0
VERTEX
  5
6A
330
54
100
AcDbEntity
  8
PREDEFINITO
100
AcDbVertex
100
AcDbPolyFaceMeshVertex
 10
50.0
 20
14.2718448638916
 30
95.99984741210938
 70
   192
  0
VERTEX
  5
6B
330
54
100
AcDbEntity
  8
PREDEFINITO
100
AcDbVertex
100
AcDbPolyFaceMeshVertex
 10
50.0
 20
14.26468467712402
 30
114.2186737060547
 70
   192
  0
VERTEX
  5
6C
330
54
100
AcDbEntity
  8
PREDEFINITO
100
AcDbVertex
100
AcDbPolyFaceMeshVertex
 10
50.0
 20
14.2416296005249
 30
114.3361892700195
 70
   192
  0
VERTEX
  5
6D
330
54
100
AcDbEntity
  8
PREDEFINITO
100
AcDbVertex
100
AcDbPolyFaceMeshVertex
 10
50.0
 20
14.19620609283447
 30
114.3948593139648
 70
   192
  0
VERTEX
  5
6E
330
54
100
AcDbEntity
  8
PREDEFINITO
100
AcDbVertex
100
AcDbPolyFaceMeshVertex
 10
50.0
 20
14.10522270202637
 30
114.4246368408203
 70
   192
  0
VERTEX
  5
6F
330
54
100
AcDbEntity
  8
PREDEFINITO
100
AcDbVertex
100
AcDbPolyFaceMeshVertex
 10
50.0
 20
9.825389862060547
 30
114.4338912963867
 70
   192
  0
VERTEX
  5
70
330
54
100
AcDbEntity
  8
PREDEFINITO
100
AcDbVertex
100
AcDbPolyFaceMeshVertex
 10
50.0
 20
-14.10522270202637
 30
114.4246368408203
 70
   192
  0
VERTEX
  5
71
330
54
100
AcDbEntity
  8
PREDEFINITO
100
AcDbVertex
100
AcDbPolyFaceMeshVertex
 10
50.0
 20
-14.19620609283447
 30
114.3948593139648
 70
   192
  0
VERTEX
  5
72
330
54
100
AcDbEntity
  8
PREDEFINITO
100
AcDbVertex
100
AcDbPolyFaceMeshVertex
 10
50.0
 20
-14.2416296005249
 30
114.3361892700195
 70
   192
  0
VERTEX
  5
73
330
54
100
AcDbEntity
  8
PREDEFINITO
100
AcDbVertex
100
AcDbPolyFaceMeshVertex
 10
50.0
 20
-14.26468467712402
 30
114.2186737060547
 70
   192
  0
VERTEX
  5
74
330
54
100
AcDbEntity
  8
PREDEFINITO
100
AcDbVertex
100
AcDbPolyFaceMeshVertex
 10
50.0
 20
-14.2718448638916
 30
95.99984741210938
 70
   192
  0
VERTEX
  5
75
330
54
100
AcDbEntity
  8
PREDEFINITO
100
AcDbVertex
100
AcDbPolyFaceMeshVertex
 10
50.0
 20
-13.65531349182129
 30
69.76580810546875
 70
   192
  0
VERTEX
  5
76
330
54
100
AcDbEntity
  8
PREDEFINITO
100
AcDbVertex
100
AcDbPolyFaceMeshVertex
 10
50.0
 20
-11.8435754776001
 30
49.80504989624023
 70
   192
  0
VERTEX
  5
77
330
54
100
AcDbEntity
  8
PREDEFINITO
100
AcDbVertex
100
AcDbPolyFaceMeshVertex
 10
50.0
 20
-8.941132545471191
 30
34.8094367980957
 70
   192
  0
VERTEX
  5
78
330
54
100
AcDbEntity
  8
PREDEFINITO
100
AcDbVertex
100
AcDbPolyFaceMeshVertex
 10
50.0
 20
-5.077671527862549
 30
25.44900703430176
 70
   192
  0
VERTEX
  5
79
330
54
100
AcDbEntity
  8
PREDEFINITO
100
AcDbVertex
100
AcDbPolyFaceMeshVertex
 10
50.0
 20
-0.0000000000002027
 30
22.26366806030273
 70
   192
  0
VERTEX
  5
7A
330
54
100
AcDbEntity
  8
PREDEFINITO
100
AcDbVertex
100
AcDbPolyFaceMeshVertex
 10
50.0
 20
5.077671527862549
 30
25.44900703430176
 70
   192
  0
VERTEX
  5
7B
330
54
100
AcDbEntity
  8
PREDEFINITO
100
AcDbVertex
100
AcDbPolyFaceMeshVertex
 10
50.0
 20
8.941132545471191
 30
34.8094367980957
 70
   192
  0
VERTEX
  5
7C
330
54
100
AcDbEntity
  8
PREDEFINITO
100
AcDbVertex
100
AcDbPolyFaceMeshVertex
 10
50.0
 20
11.8435754776001
 30
49.80504989624023
 70
   192
  0
VERTEX
  5
7D
330
54
100
AcDbEntity
  8
PREDEFINITO
100
AcDbVertex
100
AcDbPolyFaceMeshVertex
 10
50.0
 20
13.65531349182129
 30
69.76580810546875
 70
   192
  0
VERTEX
  5
7E
330
54
100
AcDbEntity
  8
PREDEFINITO
100
AcDbVertex
100
AcDbPolyFaceMeshVertex
 10
100.0
 20
28.5385799407959
 30
90.30659484863281
 70
   192
  0
VERTEX
  5
7F
330
54
100
AcDbEntity
  8
PREDEFINITO
100
AcDbVertex
100
AcDbPolyFaceMeshVertex
 10
100.0
 20
28.52426147460938
 30
112.8002014160156
 70
   192
  0
VERTEX
  5
80
330
54
100
AcDbEntity
  8
PREDEFINITO
100
AcDbVertex
100
AcDbPolyFaceMeshVertex
 10
100.0
 20
28.4781608581543
 30
112.9452972412109
 70
   192
  0
VERTEX
  5
81
330
54
100
AcDbEntity
  8
PREDEFINITO
100
AcDbVertex
100
AcDbPolyFaceMeshVertex
 10
100.0
 20
28.3873291015625
 30
113.0177307128906
 70
   192
  0
VERTEX
  5
82
330
54
100
AcDbEntity
  8
PREDEFINITO
100
AcDbVertex
100
AcDbPolyFaceMeshVertex
 10
100.0
 20
28.20539474487305
 30
113.0544967651367
 70
   192
  0
VERTEX
  5
83
330
54
100
AcDbEntity
  8
PREDEFINITO
100
AcDbVertex
100
AcDbPolyFaceMeshVertex
 10
100.0
 20
19.64726066589355
 30
113.06591796875
 70
   192
  0
VERTEX
  5
84
330
54
100
AcDbEntity
  8
PREDEFINITO
100
AcDbVertex
100
AcDbPolyFaceMeshVertex
 10
100.0
 20
-28.20539474487305
 30
113.0544967651367
 70
   192
  0
VERTEX
  5
85
330
54
100
AcDbEntity
  8
PREDEFINITO
100
AcDbVertex
100
AcDbPolyFaceMeshVertex
 10
100.0
 20
-28.3873291015625
 30
113.0177307128906
 70
   192
  0
VERTEX
  5
86
330
54
100
AcDbEntity
  8
PREDEFINITO
100
AcDbVertex
100
AcDbPolyFaceMeshVertex
 10
100.0
 20
-28.4781608581543
 30
112.9452972412109
 70
   192
  0
VERTEX
  5
87
330
54
100
AcDbEntity
  8
PREDEFINITO
100
AcDbVertex
100
AcDbPolyFaceMeshVertex
 10
100.0
 20
-28.52426147460938
 30
112.8002014160156
 70
   192
  0
VERTEX
  5
88
330
54
100
AcDbEntity
  8
PREDEFINITO
100
AcDbVertex
100
AcDbPolyFaceMeshVertex
 10
100.0
 20
-28.5385799407959
 30
90.30659484863281
 70
   192
  0
VERTEX
  5
89
330
54
100
AcDbEntity
  8
PREDEFINITO
100
AcDbVertex
100
AcDbPolyFaceMeshVertex
 10
100.0
 20
-27.30573844909668
 30
57.91712188720703
 70
   192
  0
VERTEX
  5
8A
330
54
100
AcDbEntity
  8
PREDEFINITO
100
AcDbVertex
100
AcDbPolyFaceMeshVertex
 10
100.0
 20
-23.68291091918945
 30
33.27285385131836
 70
   192
  0
VERTEX
  5
8B
330
54
100
AcDbEntity
  8
PREDEFINITO
100
AcDbVertex
100
AcDbPolyFaceMeshVertex
 10
100.0
 20
-17.87906455993652
 30
14.7587423324585
 70
   192
  0
VERTEX
  5
8C
330
54
100
AcDbEntity
  8
PREDEFINITO
100
AcDbVertex
100
AcDbPolyFaceMeshVertex
 10
100.0
 20
-10.15352439880371
 30
3.202020883560181
 70
   192
  0
VERTEX
  5
8D
330
54
100
AcDbEntity
  8
PREDEFINITO
100
AcDbVertex
100
AcDbPolyFaceMeshVertex
 10
100.0
 20
-0.0000000000004053
 30
-0.7307102680206299
 70
   192
  0
VERTEX
  5
8E
330
54
100
AcDbEntity
  8
PREDEFINITO
100
AcDbVertex
100
AcDbPolyFaceMeshVertex
 10
100.0
 20
10.15352439880371
 30
3.202020883560181
 70
   192
  0
VERTEX
  5
8F
330
54
100
AcDbEntity
  8
PREDEFINITO
100
AcDbVertex
100
AcDbPolyFaceMeshVertex
 10
100.0
 20
17.87906455993652
 30
14.7587423324585
 70
   192
  0
VERTEX
  5
90
330
54
100
AcDbEntity
  8
PREDEFINITO
100
AcDbVertex
100
AcDbPolyFaceMeshVertex
 10
100.0
 20
23.68291091918945
 30
33.27285385131836
 70
   192
  0
VERTEX
  5
91
330
54
100
AcDbEntity
  8
PREDEFINITO
100
AcDbVertex
100
AcDbPolyFaceMeshVertex
 10
100.0
 20
27.30573844909668
 30
57.91712188720703
 70
   192
  0
VERTEX
  5
92
330
54
100
AcDbEntity
  8
PREDEFINITO
100
AcDbVertex
100
AcDbPolyFaceMeshVertex
 10
200.0
 20
52.60951232910156
 30
87.97005462646484
 70
   192
  0
VERTEX
  5
93
330
54
100
AcDbEntity
  8
PREDEFINITO
100
AcDbVertex
100
AcDbPolyFaceMeshVertex
 10
200.0
 20
52.5831184387207
 30
113.2872085571289
 70
   192
  0
VERTEX
  5
94
330
54
100
AcDbEntity
  8
PREDEFINITO
100
AcDbVertex
100
AcDbPolyFaceMeshVertex
 10
200.0
 20
52.49813461303711
 30
113.4505157470703
 70
   192
  0
VERTEX
  5
95
330
54
100
AcDbEntity
  8
PREDEFINITO
100
AcDbVertex
100
AcDbPolyFaceMeshVertex
 10
200.0
 20
52.33069229125977
 30
113.5320434570312
 70
   192
  0
VERTEX
  5
96
330
54
100
AcDbEntity
  8
PREDEFINITO
100
AcDbVertex
100
AcDbPolyFaceMeshVertex
 10
200.0
 20
51.99530410766602
 30
113.5734252929688
 70
   192
  0
VERTEX
  5
97
330
54
100
AcDbEntity
  8
PREDEFINITO
100
AcDbVertex
100
AcDbPolyFaceMeshVertex
 10
200.0
 20
36.21879196166992
 30
113.5862731933594
 70
   192
  0
VERTEX
  5
98
330
54
100
AcDbEntity
  8
PREDEFINITO
100
AcDbVertex
100
AcDbPolyFaceMeshVertex
 10
200.0
 20
-51.99530410766602
 30
113.5734252929688
 70
   192
  0
VERTEX
  5
99
330
54
100
AcDbEntity
  8
PREDEFINITO
100
AcDbVertex
100
AcDbPolyFaceMeshVertex
 10
200.0
 20
-52.33069229125977
 30
113.5320434570312
 70
   192
  0
VERTEX
  5
9A
330
54
100
AcDbEntity
  8
PREDEFINITO
100
AcDbVertex
100
AcDbPolyFaceMeshVertex
 10
200.0
 20
-52.49813461303711
 30
113.4505157470703
 70
   192
  0
VERTEX
  5
9B
330
54
100
AcDbEntity
  8
PREDEFINITO
100
AcDbVertex
100
AcDbPolyFaceMeshVertex
 10
200.0
 20
-52.5831184387207
 30
113.2872085571289
 70
   192
  0
VERTEX
  5
9C
330
54
100
AcDbEntity
  8
PREDEFINITO
100
AcDbVertex
100
AcDbPolyFaceMeshVertex
 10
200.0
 20
-52.60951232910156
 30
87.97005462646484
 70
   192
  0
VERTEX
  5
9D
330
54
100
AcDbEntity
  8
PREDEFINITO
100
AcDbVertex
100
AcDbPolyFaceMeshVertex
 10
200.0
 20
-50.33683013916016
 30
51.51485443115234
 70
   192
  0
VERTEX
  5
9E
330
54
100
AcDbEntity
  8
PREDEFINITO
100
AcDbVertex
100
AcDbPolyFaceMeshVertex
 10
200.0
 20
-43.65831756591797
 30
23.77708625793457
 70
   192
  0
VERTEX
  5
9F
330
54
100
AcDbEntity
  8
PREDEFINITO
100
AcDbVertex
100
AcDbPolyFaceMeshVertex
 10
200.0
 20
-32.95920562744141
 30
2.938965797424316
 70
   192
  0
VERTEX
  5
A0
330
54
100
AcDbEntity
  8
PREDEFINITO
100
AcDbVertex
100
AcDbPolyFaceMeshVertex
 10
200.0
 20
-18.7175407409668
 30
-10.06842803955078
 70
   192
  0
VERTEX
  5
A1
330
54
100
AcDbEntity
  8
PREDEFINITO
100
AcDbVertex
100
AcDbPolyFaceMeshVertex
 10
200.0
 20
-0.0000000000007472
 30
-14.4948205947876
 70
   192
  0
VERTEX
  5
A2
330
54
100
AcDbEntity
  8
PREDEFINITO
100
AcDbVertex
100
AcDbPolyFaceMeshVertex
 10
200.0
 20
18.7175407409668
 30
-10.06842803955078
 70
   192
  0
VERTEX
  5
A3
330
54
100
AcDbEntity
  8
PREDEFINITO
100
AcDbVertex
100
AcDbPolyFaceMeshVertex
 10
200.0
 20
32.95920562744141
 30
2.938965797424316
 70
   192
  0
VERTEX
  5
A4
330
54
100
AcDbEntity
  8
PREDEFINITO
100
AcDbVertex
100
AcDbPolyFaceMeshVertex
 10
200.0
 20
43.65831756591797
 30
23.77708625793457
 70
   192
  0
VERTEX
  5
A5
330
54
100
AcDbEntity
  8
PREDEFINITO
100
AcDbVertex
100
AcDbPolyFaceMeshVertex
 10
200.0
 20
50.33683013916016
 30
51.51485443115234
 70
   192
  0
VERTEX
  5
A6
330
54
100
AcDbEntity
  8
PREDEFINITO
100
AcDbVertex
100
AcDbPolyFaceMeshVertex
 10
300.0
 20
70.19657897949219
 30
86.93278503417969
 70
   192
  0
VERTEX
  5
A7
330
54
100
AcDbEntity
  8
PREDEFINITO
100
AcDbVertex
100
AcDbPolyFaceMeshVertex
 10
300.0
 20
70.16136169433594
 30
113.8407821655273
 70
   192
  0
VERTEX
  5
A8
330
54
100
AcDbEntity
  8
PREDEFINITO
100
AcDbVertex
100
AcDbPolyFaceMeshVertex
 10
300.0
 20
70.04795837402344
 30
114.0143508911133
 70
   192
  0
VERTEX
  5
A9
330
54
100
AcDbEntity
  8
PREDEFINITO
100
AcDbVertex
100
AcDbPolyFaceMeshVertex
 10
300.0
 20
69.82454681396484
 30
114.1010055541992
 70
   192
  0
VERTEX
  5
AA
330
54
100
AcDbEntity
  8
PREDEFINITO
100
AcDbVertex
100
AcDbPolyFaceMeshVertex
 10
300.0
 20
69.37703704833984
 30
114.1449813842773
 70
   192
  0
VERTEX
  5
AB
330
54
100
AcDbEntity
  8
PREDEFINITO
100
AcDbVertex
100
AcDbPolyFaceMeshVertex
 10
300.0
 20
48.3265266418457
 30
114.1586456298828
 70
   192
  0
VERTEX
  5
AC
330
54
100
AcDbEntity
  8
PREDEFINITO
100
AcDbVertex
100
AcDbPolyFaceMeshVertex
 10
300.0
 20
-69.37703704833984
 30
114.1449813842773
 70
   192
  0
VERTEX
  5
AD
330
54
100
AcDbEntity
  8
PREDEFINITO
100
AcDbVertex
100
AcDbPolyFaceMeshVertex
 10
300.0
 20
-69.82454681396484
 30
114.1010055541992
 70
   192
  0
VERTEX
  5
AE
330
54
100
AcDbEntity
  8
PREDEFINITO
100
AcDbVertex
100
AcDbPolyFaceMeshVertex
 10
300.0
 20
-70.04795837402344
 30
114.0143508911133
 70
   192
  0
VERTEX
  5
AF
330
54
100
AcDbEntity
  8
PREDEFINITO
100
AcDbVertex
100
AcDbPolyFaceMeshVertex
 10
300.0
 20
-70.16136169433594
 30
113.8407821655273
 70
   192
  0
VERTEX
  5
B0
330
54
100
AcDbEntity
  8
PREDEFINITO
100
AcDbVertex
100
AcDbPolyFaceMeshVertex
 10
300.0
 20
-70.19657897949219
 30
86.93278503417969
 70
   192
  0
VERTEX
  5
B1
330
54
100
AcDbEntity
  8
PREDEFINITO
100
AcDbVertex
100
AcDbPolyFaceMeshVertex
 10
300.0
 20
-67.16414642333984
 30
48.18686294555664
 70
   192
  0
VERTEX
  5
B2
330
54
100
AcDbEntity
  8
PREDEFINITO
100
AcDbVertex
100
AcDbPolyFaceMeshVertex
 10
300.0
 20
-58.25304794311523
 30
18.70614814758301
 70
   192
  0
VERTEX
  5
B3
330
54
100
AcDbEntity
  8
PREDEFINITO
100
AcDbVertex
100
AcDbPolyFaceMeshVertex
 10
300.0
 20
-43.97727966308594
 30
-3.441368818283081
 70
   192
  0
VERTEX
  5
B4
330
54
100
AcDbEntity
  8
PREDEFINITO
100
AcDbVertex
100
AcDbPolyFaceMeshVertex
 10
300.0
 20
-24.97470664978027
 30
-17.26610374450684
 70
   192
  0
VERTEX
  5
B5
330
54
100
AcDbEntity
  8
PREDEFINITO
100
AcDbVertex
100
AcDbPolyFaceMeshVertex
 10
300.0
 20
-0.000000000000997
 30
-21.97063446044922
 70
   192
  0
VERTEX
  5
B6
330
54
100
AcDbEntity
  8
PREDEFINITO
100
AcDbVertex
100
AcDbPolyFaceMeshVertex
 10
300.0
 20
24.97470664978027
 30
-17.26610374450684
 70
   192
  0
VERTEX
  5
B7
330
54
100
AcDbEntity
  8
PREDEFINITO
100
AcDbVertex
100
AcDbPolyFaceMeshVertex
 10
300.0
 20
43.97727966308594
 30
-3.441368818283081
 70
   192
  0
VERTEX
  5
B8
330
54
100
AcDbEntity
  8
PREDEFINITO
100
AcDbVertex
100
AcDbPolyFaceMeshVertex
 10
300.0
 20
58.25304794311523
 30
18.70614814758301
 70
   192
  0
VERTEX
  5
B9
330
54
100
AcDbEntity
  8
PREDEFINITO
100
AcDbVertex
100
AcDbPolyFaceMeshVertex
 10
300.0
 20
67.16414642333984
 30
48.18686294555664
 70
   192
  0
VERTEX
  5
BA
330
54
100
AcDbEntity
  8
PREDEFINITO
100
AcDbVertex
100
AcDbPolyFaceMeshVertex
 10
400.0
 20
81.93408203125
 30
85.87177276611328
 70
   192
  0
VERTEX
  5
BB
330
54
100
AcDbEntity
  8
PREDEFINITO
100
AcDbVertex
100
AcDbPolyFaceMeshVertex
 10
400.0
 20
81.89297485351562
 30
112.8622741699219
 70
   192
  0
VERTEX
  5
BC
330
54
100
AcDbEntity
  8
PREDEFINITO
100
AcDbVertex
100
AcDbPolyFaceMeshVertex
 10
400.0
 20
81.7606201171875
 30
113.036376953125
 70
   192
  0
VERTEX
  5
BD
330
54
100
AcDbEntity
  8
PREDEFINITO
100
AcDbVertex
100
AcDbPolyFaceMeshVertex
 10
400.0
 20
81.49984741210938
 30
113.123291015625
 70
   192
  0
VERTEX
  5
BE
330
54
100
AcDbEntity
  8
PREDEFINITO
100
AcDbVertex
100
AcDbPolyFaceMeshVertex
 10
400.0
 20
80.97750854492188
 30
113.1674118041992
 70
   192
  0
VERTEX
  5
BF
330
54
100
AcDbEntity
  8
PREDEFINITO
100
AcDbVertex
100
AcDbPolyFaceMeshVertex
 10
400.0
 20
56.40716171264648
 30
113.1811065673828
 70
   192
  0
VERTEX
  5
C0
330
54
100
AcDbEntity
  8
PREDEFINITO
100
AcDbVertex
100
AcDbPolyFaceMeshVertex
 10
400.0
 20
-80.97750854492188
 30
113.1674118041992
 70
   192
  0
VERTEX
  5
C1
330
54
100
AcDbEntity
  8
PREDEFINITO
100
AcDbVertex
100
AcDbPolyFaceMeshVertex
 10
400.0
 20
-81.49984741210938
 30
113.123291015625
 70
   192
  0
VERTEX
  5
C2
330
54
100
AcDbEntity
  8
PREDEFINITO
100
AcDbVertex
100
AcDbPolyFaceMeshVertex
 10
400.0
 20
-81.7606201171875
 30
113.036376953125
 70
   192
  0
VERTEX
  5
C3
330
54
100
AcDbEntity
  8
PREDEFINITO
100
AcDbVertex
100
AcDbPolyFaceMeshVertex
 10
400.0
 20
-81.89297485351562
 30
112.8622741699219
 70
   192
  0
VERTEX
  5
C4
330
54
100
AcDbEntity
  8
PREDEFINITO
100
AcDbVertex
100
AcDbPolyFaceMeshVertex
 10
400.0
 20
-81.93408203125
 30
85.87177276611328
 70
   192
  0
VERTEX
  5
C5
330
54
100
AcDbEntity
  8
PREDEFINITO
100
AcDbVertex
100
AcDbPolyFaceMeshVertex
 10
400.0
 20
-78.39459991455078
 30
47.00704193115234
 70
   192
  0
VERTEX
  5
C6
330
54
100
AcDbEntity
  8
PREDEFINITO
100
AcDbVertex
100
AcDbPolyFaceMeshVertex
 10
400.0
 20
-67.99349212646484
 30
17.43593215942383
 70
   192
  0
VERTEX
  5
C7
330
54
100
AcDbEntity
  8
PREDEFINITO
100
AcDbVertex
100
AcDbPolyFaceMeshVertex
 10
400.0
 20
-51.33068084716797
 30
-4.779496192932129
 70
   192
  0
VERTEX
  5
C8
330
54
100
AcDbEntity
  8
PREDEFINITO
100
AcDbVertex
100
AcDbPolyFaceMeshVertex
 10
400.0
 20
-29.15070533752441
 30
-18.64662170410156
 70
   192
  0
VERTEX
  5
C9
330
54
100
AcDbEntity
  8
PREDEFINITO
100
AcDbVertex
100
AcDbPolyFaceMeshVertex
 10
400.0
 20
-0.0000000000011638
 30
-23.36557769775391
 70
   192
  0
VERTEX
  5
CA
330
54
100
AcDbEntity
  8
PREDEFINITO
100
AcDbVertex
100
AcDbPolyFaceMeshVertex
 10
400.0
 20
29.15070533752441
 30
-18.64662170410156
 70
   192
  0
VERTEX
  5
CB
330
54
100
AcDbEntity
  8
PREDEFINITO
100
AcDbVertex
100
AcDbPolyFaceMeshVertex
 10
400.0
 20
51.33068084716797
 30
-4.779496192932129
 70
   192
  0
VERTEX
  5
CC
330
54
100
AcDbEntity
  8
PREDEFINITO
100
AcDbVertex
100
AcDbPolyFaceMeshVertex
 10
400.0
 20
67.99349212646484
 30
17.43593215942383
 70
   192
  0
VERTEX
  5
CD
330
54
100
AcDbEntity
  8
PREDEFINITO
100
AcDbVertex
100
AcDbPolyFaceMeshVertex
 10
400.0
 20
78.39459991455078
 30
47.00704193115234
 70
   192
  0
VERTEX
  5
CE
330
54
100
AcDbEntity
  8
PREDEFINITO
100
AcDbVertex
100
AcDbPolyFaceMeshVertex
 10
500.0
 20
85.0
 30
86.63006591796875
 70
   192
  0
VERTEX
  5
CF
330
54
100
AcDbEntity
  8
PREDEFINITO
100
AcDbVertex
100
AcDbPolyFaceMeshVertex
 10
500.0
 20
84.95735931396484
 30
113.4057922363281
 70
   192
  0
VERTEX
  5
D0
330
54
100
AcDbEntity
  8
PREDEFINITO
100
AcDbVertex
100
AcDbPolyFaceMeshVertex
 10
500.0
 20
84.8200454711914
 30
113.5785064697266
 70
   192
  0
VERTEX
  5
D1
330
54
100
AcDbEntity
  8
PREDEFINITO
100
AcDbVertex
100
AcDbPolyFaceMeshVertex
 10
500.0
 20
84.54951477050781
 30
113.6647338867188
 70
   192
  0
VERTEX
  5
D2
330
54
100
AcDbEntity
  8
PREDEFINITO
100
AcDbVertex
100
AcDbPolyFaceMeshVertex
 10
500.0
 20
84.00763702392578
 30
113.7085037231445
 70
   192
  0
VERTEX
  5
D3
330
54
100
AcDbEntity
  8
PREDEFINITO
100
AcDbVertex
100
AcDbPolyFaceMeshVertex
 10
500.0
 20
58.51787948608398
 30
113.7220916748047
 70
   192
  0
VERTEX
  5
D4
330
54
100
AcDbEntity
  8
PREDEFINITO
100
AcDbVertex
100
AcDbPolyFaceMeshVertex
 10
500.0
 20
-84.00763702392578
 30
113.7085037231445
 70
   192
  0
VERTEX
  5
D5
330
54
100
AcDbEntity
  8
PREDEFINITO
100
AcDbVertex
100
AcDbPolyFaceMeshVertex
 10
500.0
 20
-84.54951477050781
 30
113.6647338867188
 70
   192
  0
VERTEX
  5
D6
330
54
100
AcDbEntity
  8
PREDEFINITO
100
AcDbVertex
100
AcDbPolyFaceMeshVertex
 10
500.0
 20
-84.8200454711914
 30
113.5785064697266
 70
   192
  0
VERTEX
  5
D7
330
54
100
AcDbEntity
  8
PREDEFINITO
100
AcDbVertex
100
AcDbPolyFaceMeshVertex
 10
500.0
 20
-84.95735931396484
 30
113.4057922363281
 70
   192
  0
VERTEX
  5
D8
330
54
100
AcDbEntity
  8
PREDEFINITO
100
AcDbVertex
100
AcDbPolyFaceMeshVertex
 10
500.0
 20
-85.0
 30
86.63006591796875
 70
   192
  0
VERTEX
  5
D9
330
54
100
AcDbEntity
  8
PREDEFINITO
100
AcDbVertex
100
AcDbPolyFaceMeshVertex
 10
500.0
 20
-81.32807159423828
 30
48.07459259033203
 70
   192
  0
VERTEX
  5
DA
330
54
100
AcDbEntity
  8
PREDEFINITO
100
AcDbVertex
100
AcDbPolyFaceMeshVertex
 10
500.0
 20
-70.53775787353516
 30
18.7387866973877
 70
   192
  0
VERTEX
  5
DB
330
54
100
AcDbEntity
  8
PREDEFINITO
100
AcDbVertex
100
AcDbPolyFaceMeshVertex
 10
500.0
 20
-53.25144195556641
 30
-3.29986834526062
 70
   192
  0
VERTEX
  5
DC
330
54
100
AcDbEntity
  8
PREDEFINITO
100
AcDbVertex
100
AcDbPolyFaceMeshVertex
 10
500.0
 20
-30.24150466918945
 30
-17.05664825439453
 70
   192
  0
VERTEX
  5
DD
330
54
100
AcDbEntity
  8
PREDEFINITO
100
AcDbVertex
100
AcDbPolyFaceMeshVertex
 10
500.0
 20
-0.0000000000012073
 30
-21.73805618286133
 70
   192
  0
VERTEX
  5
DE
330
54
100
AcDbEntity
  8
PREDEFINITO
100
AcDbVertex
100
AcDbPolyFaceMeshVertex
 10
500.0
 20
30.24150466918945
 30
-17.05664825439453
 70
   192
  0
VERTEX
  5
DF
330
54
100
AcDbEntity
  8
PREDEFINITO
100
AcDbVertex
100
AcDbPolyFaceMeshVertex
 10
500.0
 20
53.25144195556641
 30
-3.29986834526062
 70
   192
  0
VERTEX
  5
E0
330
54
100
AcDbEntity
  8
PREDEFINITO
100
AcDbVertex
100
AcDbPolyFaceMeshVertex
 10
500.0
 20
70.53775787353516
 30
18.7387866973877
 70
   192
  0
VERTEX
  5
E1
330
54
100
AcDbEntity
  8
PREDEFINITO
100
AcDbVertex
100
AcDbPolyFaceMeshVertex
 10
500.0
 20
81.32807159423828
 30
48.07459259033203
 70
   192
  0
VERTEX
  5
E2
330
54
100
AcDbEntity
  8
PREDEFINITO
100
AcDbVertex
100
AcDbPolyFaceMeshVertex
 10
600.0
 20
85.0
 30
88.5111083984375
 70
   192
  0
VERTEX
  5
E3
330
54
100
AcDbEntity
  8
PREDEFINITO
100
AcDbVertex
100
AcDbPolyFaceMeshVertex
 10
600.0
 20
84.95735931396484
 30
114.1055450439453
 70
   192
  0
VERTEX
  5
E4
330
54
100
AcDbEntity
  8
PREDEFINITO
100
AcDbVertex
100
AcDbPolyFaceMeshVertex
 10
600.0
 20
84.8200454711914
 30
114.270637512207
 70
   192
  0
VERTEX
  5
E5
330
54
100
AcDbEntity
  8
PREDEFINITO
100
AcDbVertex
100
AcDbPolyFaceMeshVertex
 10
600.0
 20
84.54951477050781
 30
114.3530578613281
 70
   192
  0
VERTEX
  5
E6
330
54
100
AcDbEntity
  8
PREDEFINITO
100
AcDbVertex
100
AcDbPolyFaceMeshVertex
 10
600.0
 20
84.00763702392578
 30
114.394889831543
 70
   192
  0
VERTEX
  5
E7
330
54
100
AcDbEntity
  8
PREDEFINITO
100
AcDbVertex
100
AcDbPolyFaceMeshVertex
 10
600.0
 20
58.51787948608398
 30
114.4078826904297
 70
   192
  0
VERTEX
  5
E8
330
54
100
AcDbEntity
  8
PREDEFINITO
100
AcDbVertex
100
AcDbPolyFaceMeshVertex
 10
600.0
 20
-84.00763702392578
 30
114.394889831543
 70
   192
  0
VERTEX
  5
E9
330
54
100
AcDbEntity
  8
PREDEFINITO
100
AcDbVertex
100
AcDbPolyFaceMeshVertex
 10
600.0
 20
-84.54951477050781
 30
114.3530578613281
 70
   192
  0
VERTEX
  5
EA
330
54
100
AcDbEntity
  8
PREDEFINITO
100
AcDbVertex
100
AcDbPolyFaceMeshVertex
 10
600.0
 20
-84.8200454711914
 30
114.270637512207
 70
   192
  0
VERTEX
  5
EB
330
54
100
AcDbEntity
  8
PREDEFINITO
100
AcDbVertex
100
AcDbPolyFaceMeshVertex
 10
600.0
 20
-84.95735931396484
 30
114.1055450439453
 70
   192
  0
VERTEX
  5
EC
330
54
100
AcDbEntity
  8
PREDEFINITO
100
AcDbVertex
100
AcDbPolyFaceMeshVertex
 10
600.0
 20
-85.0
 30
88.5111083984375
 70
   192
  0
VERTEX
  5
ED
330
54
100
AcDbEntity
  8
PREDEFINITO
100
AcDbVertex
100
AcDbPolyFaceMeshVertex
 10
600.0
 20
-81.32807159423828
 30
51.65663528442383
 70
   192
  0
VERTEX
  5
EE
330
54
100
AcDbEntity
  8
PREDEFINITO
100
AcDbVertex
100
AcDbPolyFaceMeshVertex
 10
600.0
 20
-70.53775787353516
 30
23.61507415771484
 70
   192
  0
VERTEX
  5
EF
330
54
100
AcDbEntity
  8
PREDEFINITO
100
AcDbVertex
100
AcDbPolyFaceMeshVertex
 10
600.0
 20
-53.25144195556641
 30
2.548726320266724
 70
   192
  0
VERTEX
  5
F0
330
54
100
AcDbEntity
  8
PREDEFINITO
100
AcDbVertex
100
AcDbPolyFaceMeshVertex
 10
600.0
 20
-30.24150466918945
 30
-10.60112857818604
 70
   192
  0
VERTEX
  5
F1
330
54
100
AcDbEntity
  8
PREDEFINITO
100
AcDbVertex
100
AcDbPolyFaceMeshVertex
 10
600.0
 20
-0.0000000000012073
 30
-15.07600116729736
 70
   192
  0
VERTEX
  5
F2
330
54
100
AcDbEntity
  8
PREDEFINITO
100
AcDbVertex
100
AcDbPolyFaceMeshVertex
 10
600.0
 20
30.24150466918945
 30
-10.60112857818604
 70
   192
  0
VERTEX
  5
F3
330
54
100
AcDbEntity
  8
PREDEFINITO
100
AcDbVertex
100
AcDbPolyFaceMeshVertex
 10
600.0
 20
53.25144195556641
 30
2.548726320266724
 70
   192
  0
VERTEX
  5
F4
330
54
100
AcDbEntity
  8
PREDEFINITO
100
AcDbVertex
100
AcDbPolyFaceMeshVertex
 10
600.0
 20
70.53775787353516
 30
23.61507415771484
 70
   192
  0
VERTEX
  5
F5
330
54
100
AcDbEntity
  8
PREDEFINITO
100
AcDbVertex
100
AcDbPolyFaceMeshVertex
 10
600.0
 20
81.32807159423828
 30
51.65663528442383
 70
   192
  0
VERTEX
  5
F6
330
54
100
AcDbEntity
  8
PREDEFINITO
100
AcDbVertex
100
AcDbPolyFaceMeshVertex
 10
700.0
 20
81.22368621826172
 30
90.0566177368164
 70
   192
  0
VERTEX
  5
F7
330
54
100
AcDbEntity
  8
PREDEFINITO
100
AcDbVertex
100
AcDbPolyFaceMeshVertex
 10
700.0
 20
81.18293762207031
 30
113.2659072875977
 70
   192
  0
VERTEX
  5
F8
330
54
100
AcDbEntity
  8
PREDEFINITO
100
AcDbVertex
100
AcDbPolyFaceMeshVertex
 10
700.0
 20
81.05172729492188
 30
113.4156112670898
 70
   192
  0
VERTEX
  5
F9
330
54
100
AcDbEntity
  8
PREDEFINITO
100
AcDbVertex
100
AcDbPolyFaceMeshVertex
 10
700.0
 20
80.793212890625
 30
113.4903564453125
 70
   192
  0
VERTEX
  5
FA
330
54
100
AcDbEntity
  8
PREDEFINITO
100
AcDbVertex
100
AcDbPolyFaceMeshVertex
 10
700.0
 20
80.27540588378906
 30
113.5282897949219
 70
   192
  0
VERTEX
  5
FB
330
54
100
AcDbEntity
  8
PREDEFINITO
100
AcDbVertex
100
AcDbPolyFaceMeshVertex
 10
700.0
 20
55.91809463500977
 30
113.5400695800781
 70
   192
  0
VERTEX
  5
FC
330
54
100
AcDbEntity
  8
PREDEFINITO
100
AcDbVertex
100
AcDbPolyFaceMeshVertex
 10
700.0
 20
-80.27540588378906
 30
113.5282897949219
 70
   192
  0
VERTEX
  5
FD
330
54
100
AcDbEntity
  8
PREDEFINITO
100
AcDbVertex
100
AcDbPolyFaceMeshVertex
 10
700.0
 20
-80.793212890625
 30
113.4903564453125
 70
   192
  0
VERTEX
  5
FE
330
54
100
AcDbEntity
  8
PREDEFINITO
100
AcDbVertex
100
AcDbPolyFaceMeshVertex
 10
700.0
 20
-81.05172729492188
 30
113.4156112670898
 70
   192
  0
VERTEX
  5
FF
330
54
100
AcDbEntity
  8
PREDEFINITO
100
AcDbVertex
100
AcDbPolyFaceMeshVertex
 10
700.0
 20
-81.18293762207031
 30
113.2659072875977
 70
   192
  0
VERTEX
  5
100
330
54
100
AcDbEntity
  8
PREDEFINITO
100
AcDbVertex
100
AcDbPolyFaceMeshVertex
 10
700.0
 20
-81.22368621826172
 30
90.0566177368164
 70
   192
  0
VERTEX
  5
101
330
54
100
AcDbEntity
  8
PREDEFINITO
100
AcDbVertex
100
AcDbPolyFaceMeshVertex
 10
700.0
 20
-77.71489715576172
 30
56.63661956787109
 70
   192
  0
VERTEX
  5
102
330
54
100
AcDbEntity
  8
PREDEFINITO
100
AcDbVertex
100
AcDbPolyFaceMeshVertex
 10
700.0
 20
-67.40396118164062
 30
31.20825386047363
 70
   192
  0
VERTEX
  5
103
330
54
100
AcDbEntity
  8
PREDEFINITO
100
AcDbVertex
100
AcDbPolyFaceMeshVertex
 10
700.0
 20
-50.88562774658203
 30
12.10508251190186
 70
   192
  0
VERTEX
  5
104
330
54
100
AcDbEntity
  8
PREDEFINITO
100
AcDbVertex
100
AcDbPolyFaceMeshVertex
 10
700.0
 20
-28.89795875549316
 30
0.1806636303663254
 70
   192
  0
VERTEX
  5
105
330
54
100
AcDbEntity
  8
PREDEFINITO
100
AcDbVertex
100
AcDbPolyFaceMeshVertex
 10
700.0
 20
-0.0000000000011537
 30
-3.877194404602051
 70
   192
  0
VERTEX
  5
106
330
54
100
AcDbEntity
  8
PREDEFINITO
100
AcDbVertex
100
AcDbPolyFaceMeshVertex
 10
700.0
 20
28.89795875549316
 30
0.1806636303663254
 70
   192
  0
VERTEX
  5
107
330
54
100
AcDbEntity
  8
PREDEFINITO
100
AcDbVertex
100
AcDbPolyFaceMeshVertex
 10
700.0
 20
50.88562774658203
 30
12.10508251190186
 70
   192
  0
VERTEX
  5
108
330
54
100
AcDbEntity
  8
PREDEFINITO
100
AcDbVertex
100
AcDbPolyFaceMeshVertex
 10
700.0
 20
67.40396118164062
 30
31.20825386047363
 70
   192
  0
VERTEX
  5
109
330
54
100
AcDbEntity
  8
PREDEFINITO
100
AcDbVertex
100
AcDbPolyFaceMeshVertex
 10
700.0
 20
77.71489715576172
 30
56.63661956787109
 70
   192
  0
VERTEX
  5
10A
330
54
100
AcDbEntity
  8
PREDEFINITO
100
AcDbVertex
100
AcDbPolyFaceMeshVertex
 10
800.0
 20
71.30150604248047
 30
93.29423522949219
 70
   192
  0
VERTEX
  5
10B
330
54
100
AcDbEntity
  8
PREDEFINITO
100
AcDbVertex
100
AcDbPolyFaceMeshVertex
 10
800.0
 20
71.26573181152344
 30
113.8571166992188
 70
   192
  0
VERTEX
  5
10C
330
54
100
AcDbEntity
  8
PREDEFINITO
100
AcDbVertex
100
AcDbPolyFaceMeshVertex
 10
800.0
 20
71.15055084228516
 30
113.9897613525391
 70
   192
  0
VERTEX
  5
10D
330
54
100
AcDbEntity
  8
PREDEFINITO
100
AcDbVertex
100
AcDbPolyFaceMeshVertex
 10
800.0
 20
70.92362213134766
 30
114.0559768676758
 70
   192
  0
VERTEX
  5
10E
330
54
100
AcDbEntity
  8
PREDEFINITO
100
AcDbVertex
100
AcDbPolyFaceMeshVertex
 10
800.0
 20
70.46907043457031
 30
114.0895843505859
 70
   192
  0
VERTEX
  5
10F
330
54
100
AcDbEntity
  8
PREDEFINITO
100
AcDbVertex
100
AcDbPolyFaceMeshVertex
 10
800.0
 20
49.08721160888672
 30
114.1000289916992
 70
   192
  0
VERTEX
  5
110
330
54
100
AcDbEntity
  8
PREDEFINITO
100
AcDbVertex
100
AcDbPolyFaceMeshVertex
 10
800.0
 20
-70.46907043457031
 30
114.0895843505859
 70
   192
  0
VERTEX
  5
111
330
54
100
AcDbEntity
  8
PREDEFINITO
100
AcDbVertex
100
AcDbPolyFaceMeshVertex
 10
800.0
 20
-70.92362213134766
 30
114.0559768676758
 70
   192
  0
VERTEX
  5
112
330
54
100
AcDbEntity
  8
PREDEFINITO
100
AcDbVertex
100
AcDbPolyFaceMeshVertex
 10
800.0
 20
-71.15055084228516
 30
113.9897613525391
 70
   192
  0
VERTEX
  5
113
330
54
100
AcDbEntity
  8
PREDEFINITO
100
AcDbVertex
100
AcDbPolyFaceMeshVertex
 10
800.0
 20
-71.26573181152344
 30
113.8571166992188
 70
   192
  0
VERTEX
  5
114
330
54
100
AcDbEntity
  8
PREDEFINITO
100
AcDbVertex
100
AcDbPolyFaceMeshVertex
 10
800.0
 20
-71.30150604248047
 30
93.29423522949219
 70
   192
  0
VERTEX
  5
115
330
54
100
AcDbEntity
  8
PREDEFINITO
100
AcDbVertex
100
AcDbPolyFaceMeshVertex
 10
800.0
 20
-68.22134399414062
 30
63.68489837646484
 70
   192
  0
VERTEX
  5
116
330
54
100
AcDbEntity
  8
PREDEFINITO
100
AcDbVertex
100
AcDbPolyFaceMeshVertex
 10
800.0
 20
-59.16998291015625
 30
41.15596008300781
 70
   192
  0
VERTEX
  5
117
330
54
100
AcDbEntity
  8
PREDEFINITO
100
AcDbVertex
100
AcDbPolyFaceMeshVertex
 10
800.0
 20
-44.66950607299805
 30
24.23099708557129
 70
   192
  0
VERTEX
  5
118
330
54
100
AcDbEntity
  8
PREDEFINITO
100
AcDbVertex
100
AcDbPolyFaceMeshVertex
 10
800.0
 20
-25.36782264709473
 30
13.66624069213867
 70
   192
  0
VERTEX
  5
119
330
54
100
AcDbEntity
  8
PREDEFINITO
100
AcDbVertex
100
AcDbPolyFaceMeshVertex
 10
800.0
 20
-0.0000000000010127
 30
10.07107353210449
 70
   192
  0
VERTEX
  5
11A
330
54
100
AcDbEntity
  8
PREDEFINITO
100
AcDbVertex
100
AcDbPolyFaceMeshVertex
 10
800.0
 20
25.36782264709473
 30
13.66624069213867
 70
   192
  0
VERTEX
  5
11B
330
54
100
AcDbEntity
  8
PREDEFINITO
100
AcDbVertex
100
AcDbPolyFaceMeshVertex
 10
800.0
 20
44.66950607299805
 30
24.23099708557129
 70
   192
  0
VERTEX
  5
11C
330
54
100
AcDbEntity
  8
PREDEFINITO
100
AcDbVertex
100
AcDbPolyFaceMeshVertex
 10
800.0
 20
59.16998291015625
 30
41.15596008300781
 70
   192
  0
VERTEX
  5
11D
330
54
100
AcDbEntity
  8
PREDEFINITO
100
AcDbVertex
100
AcDbPolyFaceMeshVertex
 10
800.0
 20
68.22134399414062
 30
63.68489837646484
 70
   192
  0
VERTEX
  5
11E
330
54
100
AcDbEntity
  8
PREDEFINITO
100
AcDbVertex
100
AcDbPolyFaceMeshVertex
 10
900.0
 20
59.90004730224609
 30
95.29437255859375
 70
   192
  0
VERTEX
  5
11F
330
54
100
AcDbEntity
  8
PREDEFINITO
100
AcDbVertex
100
AcDbPolyFaceMeshVertex
 10
900.0
 20
59.8699951171875
 30
112.9109878540039
 70
   192
  0
VERTEX
  5
120
330
54
100
AcDbEntity
  8
PREDEFINITO
100
AcDbVertex
100
AcDbPolyFaceMeshVertex
 10
900.0
 20
59.77323150634766
 30
113.0246200561523
 70
   192
  0
VERTEX
  5
121
330
54
100
AcDbEntity
  8
PREDEFINITO
100
AcDbVertex
100
AcDbPolyFaceMeshVertex
 10
900.0
 20
59.58258438110352
 30
113.0813522338867
 70
   192
  0
VERTEX
  5
122
330
54
100
AcDbEntity
  8
PREDEFINITO
100
AcDbVertex
100
AcDbPolyFaceMeshVertex
 10
900.0
 20
59.20071792602539
 30
113.1101455688477
 70
   192
  0
VERTEX
  5
123
330
54
100
AcDbEntity
  8
PREDEFINITO
100
AcDbVertex
100
AcDbPolyFaceMeshVertex
 10
900.0
 20
41.2379264831543
 30
113.1190948486328
 70
   192
  0
VERTEX
  5
124
330
54
100
AcDbEntity
  8
PREDEFINITO
100
AcDbVertex
100
AcDbPolyFaceMeshVertex
 10
900.0
 20
-59.20071792602539
 30
113.1101455688477
 70
   192
  0
VERTEX
  5
125
330
54
100
AcDbEntity
  8
PREDEFINITO
100
AcDbVertex
100
AcDbPolyFaceMeshVertex
 10
900.0
 20
-59.58258438110352
 30
113.0813522338867
 70
   192
  0
VERTEX
  5
126
330
54
100
AcDbEntity
  8
PREDEFINITO
100
AcDbVertex
100
AcDbPolyFaceMeshVertex
 10
900.0
 20
-59.77323150634766
 30
113.0246200561523
 70
   192
  0
VERTEX
  5
127
330
54
100
AcDbEntity
  8
PREDEFINITO
100
AcDbVertex
100
AcDbPolyFaceMeshVertex
 10
900.0
 20
-59.8699951171875
 30
112.9109878540039
 70
   192
  0
VERTEX
  5
128
330
54
100
AcDbEntity
  8
PREDEFINITO
100
AcDbVertex
100
AcDbPolyFaceMeshVertex
 10
900.0
 20
-59.90004730224609
 30
95.29437255859375
 70
   192
  0
VERTEX
  5
129
330
54
100
AcDbEntity
  8
PREDEFINITO
100
AcDbVertex
100
AcDbPolyFaceMeshVertex
 10
900.0
 20
-57.31241607666016
 30
69.92748260498047
 70
   192
  0
VERTEX
  5
12A
330
54
100
AcDbEntity
  8
PREDEFINITO
100
AcDbVertex
100
AcDbPolyFaceMeshVertex
 10
900.0
 20
-49.70841217041016
 30
50.62650299072266
 70
   192
  0
VERTEX
  5
12B
330
54
100
AcDbEntity
  8
PREDEFINITO
100
AcDbVertex
100
AcDbPolyFaceMeshVertex
 10
900.0
 20
-37.52663421630859
 30
36.12656021118164
 70
   192
  0
VERTEX
  5
12C
330
54
100
AcDbEntity
  8
PREDEFINITO
100
AcDbVertex
100
AcDbPolyFaceMeshVertex
 10
900.0
 20
-21.3113842010498
 30
27.07553100585938
 70
   192
  0
VERTEX
  5
12D
330
54
100
AcDbEntity
  8
PREDEFINITO
100
AcDbVertex
100
AcDbPolyFaceMeshVertex
 10
900.0
 20
-0.0000000000008508
 30
23.9954833984375
 70
   192
  0
VERTEX
  5
12E
330
54
100
AcDbEntity
  8
PREDEFINITO
100
AcDbVertex
100
AcDbPolyFaceMeshVertex
 10
900.0
 20
21.3113842010498
 30
27.07553100585938
 70
   192
  0
VERTEX
  5
12F
330
54
100
AcDbEntity
  8
PREDEFINITO
100
AcDbVertex
100
AcDbPolyFaceMeshVertex
 10
900.0
 20
37.52663421630859
 30
36.12656021118164
 70
   192
  0
VERTEX
  5
130
330
54
100
AcDbEntity
  8
PREDEFINITO
100
AcDbVertex
100
AcDbPolyFaceMeshVertex
 10
900.0
 20
49.70841217041016
 30
50.62650299072266
 70
   192
  0
VERTEX
  5
131
330
54
100
AcDbEntity
  8
PREDEFINITO
100
AcDbVertex
100
AcDbPolyFaceMeshVertex
 10
900.0
 20
57.31241607666016
 30
69.92748260498047
 70
   192
  0
VERTEX
  5
132
330
54
100
AcDbEntity
  8
PREDEFINITO
100
AcDbVertex
100
AcDbPolyFaceMeshVertex
 10
1000.0
 20
49.74346542358398
 30
99.50029754638672
 70
   192
  0
VERTEX
  5
133
330
54
100
AcDbEntity
  8
PREDEFINITO
100
AcDbVertex
100
AcDbPolyFaceMeshVertex
 10
1000.0
 20
49.71850967407227
 30
113.547737121582
 70
   192
  0
VERTEX
  5
134
330
54
100
AcDbEntity
  8
PREDEFINITO
100
AcDbVertex
100
AcDbPolyFaceMeshVertex
 10
1000.0
 20
49.63815307617188
 30
113.6383438110352
 70
   192
  0
VERTEX
  5
135
330
54
100
AcDbEntity
  8
PREDEFINITO
100
AcDbVertex
100
AcDbPolyFaceMeshVertex
 10
1000.0
 20
49.47983551025391
 30
113.6835861206055
 70
   192
  0
VERTEX
  5
136
330
54
100
AcDbEntity
  8
PREDEFINITO
100
AcDbVertex
100
AcDbPolyFaceMeshVertex
 10
1000.0
 20
49.16271591186523
 30
113.70654296875
 70
   192
  0
VERTEX
  5
137
330
54
100
AcDbEntity
  8
PREDEFINITO
100
AcDbVertex
100
AcDbPolyFaceMeshVertex
 10
1000.0
 20
34.24567413330078
 30
113.7136764526367
 70
   192
  0
VERTEX
  5
138
330
54
100
AcDbEntity
  8
PREDEFINITO
100
AcDbVertex
100
AcDbPolyFaceMeshVertex
 10
1000.0
 20
-49.16271591186523
 30
113.70654296875
 70
   192
  0
VERTEX
  5
139
330
54
100
AcDbEntity
  8
PREDEFINITO
100
AcDbVertex
100
AcDbPolyFaceMeshVertex
 10
1000.0
 20
-49.47983551025391
 30
113.6835861206055
 70
   192
  0
VERTEX
  5
13A
330
54
100
AcDbEntity
  8
PREDEFINITO
100
AcDbVertex
100
AcDbPolyFaceMeshVertex
 10
1000.0
 20
-49.63815307617188
 30
113.6383438110352
 70
   192
  0
VERTEX
  5
13B
330
54
100
AcDbEntity
  8
PREDEFINITO
100
AcDbVertex
100
AcDbPolyFaceMeshVertex
 10
1000.0
 20
-49.71850967407227
 30
113.547737121582
 70
   192
  0
VERTEX
  5
13C
330
54
100
AcDbEntity
  8
PREDEFINITO
100
AcDbVertex
100
AcDbPolyFaceMeshVertex
 10
1000.0
 20
-49.74346542358398
 30
99.50029754638672
 70
   192
  0
VERTEX
  5
13D
330
54
100
AcDbEntity
  8
PREDEFINITO
100
AcDbVertex
100
AcDbPolyFaceMeshVertex
 10
1000.0
 20
-47.5945930480957
 30
79.2728271484375
 70
   192
  0
VERTEX
  5
13E
330
54
100
AcDbEntity
  8
PREDEFINITO
100
AcDbVertex
100
AcDbPolyFaceMeshVertex
 10
1000.0
 20
-41.27991485595703
 30
63.88229370117188
 70
   192
  0
VERTEX
  5
13F
330
54
100
AcDbEntity
  8
PREDEFINITO
100
AcDbVertex
100
AcDbPolyFaceMeshVertex
 10
1000.0
 20
-31.16366195678711
 30
52.32008361816406
 70
   192
  0
VERTEX
  5
140
330
54
100
AcDbEntity
  8
PREDEFINITO
100
AcDbVertex
100
AcDbPolyFaceMeshVertex
 10
1000.0
 20
-17.69785118103027
 30
45.10282516479492
 70
   192
  0
VERTEX
  5
141
330
54
100
AcDbEntity
  8
PREDEFINITO
100
AcDbVertex
100
AcDbPolyFaceMeshVertex
 10
1000.0
 20
-0.0000000000007065
 30
42.64680099487305
 70
   192
  0
VERTEX
  5
142
330
54
100
AcDbEntity
  8
PREDEFINITO
100
AcDbVertex
100
AcDbPolyFaceMeshVertex
 10
1000.0
 20
17.69785118103027
 30
45.10282516479492
 70
   192
  0
VERTEX
  5
143
330
54
100
AcDbEntity
  8
PREDEFINITO
100
AcDbVertex
100
AcDbPolyFaceMeshVertex
 10
1000.0
 20
31.16366195678711
 30
52.32008361816406
 70
   192
  0
VERTEX
  5
144
330
54
100
AcDbEntity
  8
PREDEFINITO
100
AcDbVertex
100
AcDbPolyFaceMeshVertex
 10
1000.0
 20
41.27991485595703
 30
63.88229370117188
 70
   192
  0
VERTEX
  5
145
330
54
100
AcDbEntity
  8
PREDEFINITO
100
AcDbVertex
100
AcDbPolyFaceMeshVertex
 10
1000.0
 20
47.5945930480957
 30
79.2728271484375
 70
   192
  0
VERTEX
  5
146
330
54
100
AcDbEntity
  8
PREDEFINITO
100
AcDbVertex
100
AcDbPolyFaceMeshVertex
 10
1100.0
 20
38.88103866577148
 30
104.7721710205078
 70
   192
  0
VERTEX
  5
147
330
54
100
AcDbEntity
  8
PREDEFINITO
100
AcDbVertex
100
AcDbPolyFaceMeshVertex
 10
1100.0
 20
38.86153411865234
 30
114.2999801635742
 70
   192
  0
VERTEX
  5
148
330
54
100
AcDbEntity
  8
PREDEFINITO
100
AcDbVertex
100
AcDbPolyFaceMeshVertex
 10
1100.0
 20
38.79872512817383
 30
114.361442565918
 70
   192
  0
VERTEX
  5
149
330
54
100
AcDbEntity
  8
PREDEFINITO
100
AcDbVertex
100
AcDbPolyFaceMeshVertex
 10
1100.0
 20
38.67497634887695
 30
114.3921203613281
 70
   192
  0
VERTEX
  5
14A
330
54
100
AcDbEntity
  8
PREDEFINITO
100
AcDbVertex
100
AcDbPolyFaceMeshVertex
 10
1100.0
 20
38.42710876464844
 30
114.4076995849609
 70
   192
  0
VERTEX
  5
14B
330
54
100
AcDbEntity
  8
PREDEFINITO
100
AcDbVertex
100
AcDbPolyFaceMeshVertex
 10
1100.0
 20
26.76748275756836
 30
114.4125366210938
 70
   192
  0
VERTEX
  5
14C
330
54
100
AcDbEntity
  8
PREDEFINITO
100
AcDbVertex
100
AcDbPolyFaceMeshVertex
 10
1100.0
 20
-38.42710876464844
 30
114.4076995849609
 70
   192
  0
VERTEX
  5
14D
330
54
100
AcDbEntity
  8
PREDEFINITO
100
AcDbVertex
100
AcDbPolyFaceMeshVertex
 10
1100.0
 20
-38.67497634887695
 30
114.3921203613281
 70
   192
  0
VERTEX
  5
14E
330
54
100
AcDbEntity
  8
PREDEFINITO
100
AcDbVertex
100
AcDbPolyFaceMeshVertex
 10
1100.0
 20
-38.79872512817383
 30
114.361442565918
 70
   192
  0
VERTEX
  5
14F
330
54
100
AcDbEntity
  8
PREDEFINITO
100
AcDbVertex
100
AcDbPolyFaceMeshVertex
 10
1100.0
 20
-38.86153411865234
 30
114.2999801635742
 70
   192
  0
VERTEX
  5
150
330
54
100
AcDbEntity
  8
PREDEFINITO
100
AcDbVertex
100
AcDbPolyFaceMeshVertex
 10
1100.0
 20
-38.88103866577148
 30
104.7721710205078
 70
   192
  0
VERTEX
  5
151
330
54
100
AcDbEntity
  8
PREDEFINITO
100
AcDbVertex
100
AcDbPolyFaceMeshVertex
 10
1100.0
 20
-37.20141220092773
 30
91.05268096923828
 70
   192
  0
VERTEX
  5
152
330
54
100
AcDbEntity
  8
PREDEFINITO
100
AcDbVertex
100
AcDbPolyFaceMeshVertex
 10
1100.0
 20
-32.26566314697266
 30
80.6138916015625
 70
   192
  0
VERTEX
  5
153
330
54
100
AcDbEntity
  8
PREDEFINITO
100
AcDbVertex
100
AcDbPolyFaceMeshVertex
 10
1100.0
 20
-24.35848808288574
 30
72.77171325683594
 70
   192
  0
VERTEX
  5
154
330
54
100
AcDbEntity
  8
PREDEFINITO
100
AcDbVertex
100
AcDbPolyFaceMeshVertex
 10
1100.0
 20
-13.83319091796875
 30
67.87653350830078
 70
   192
  0
VERTEX
  5
155
330
54
100
AcDbEntity
  8
PREDEFINITO
100
AcDbVertex
100
AcDbPolyFaceMeshVertex
 10
1100.0
 20
-0.0000000000005522
 30
66.21070861816406
 70
   192
  0
VERTEX
  5
156
330
54
100
AcDbEntity
  8
PREDEFINITO
100
AcDbVertex
100
AcDbPolyFaceMeshVertex
 10
1100.0
 20
13.83319091796875
 30
67.87653350830078
 70
   192
  0
VERTEX
  5
157
330
54
100
AcDbEntity
  8
PREDEFINITO
100
AcDbVertex
100
AcDbPolyFaceMeshVertex
 10
1100.0
 20
24.35848808288574
 30
72.77171325683594
 70
   192
  0
VERTEX
  5
158
330
54
100
AcDbEntity
  8
PREDEFINITO
100
AcDbVertex
100
AcDbPolyFaceMeshVertex
 10
1100.0
 20
32.26566314697266
 30
80.6138916015625
 70
   192
  0
VERTEX
  5
159
330
54
100
AcDbEntity
  8
PREDEFINITO
100
AcDbVertex
100
AcDbPolyFaceMeshVertex
 10
1100.0
 20
37.20141220092773
 30
91.05268096923828
 70
   192
  0
VERTEX
  5
15A
330
54
100
AcDbEntity
  8
PREDEFINITO
100
AcDbVertex
100
AcDbPolyFaceMeshVertex
 10
1200.0
 20
27.9943790435791
 30
110.3556442260742
 70
   192
  0
VERTEX
  5
15B
330
54
100
AcDbEntity
  8
PREDEFINITO
100
AcDbVertex
100
AcDbPolyFaceMeshVertex
 10
1200.0
 20
27.9803352355957
 30
113.5443420410156
 70
   192
  0
VERTEX
  5
15C
330
54
100
AcDbEntity
  8
PREDEFINITO
100
AcDbVertex
100
AcDbPolyFaceMeshVertex
 10
1200.0
 20
27.93511199951172
 30
113.5649108886719
 70
   192
  0
VERTEX
  5
15D
330
54
100
AcDbEntity
  8
PREDEFINITO
100
AcDbVertex
100
AcDbPolyFaceMeshVertex
 10
1200.0
 20
27.84601402282715
 30
113.5751800537109
 70
   192
  0
VERTEX
  5
15E
330
54
100
AcDbEntity
  8
PREDEFINITO
100
AcDbVertex
100
AcDbPolyFaceMeshVertex
 10
1200.0
 20
27.66754722595215
 30
113.5803909301758
 70
   192
  0
VERTEX
  5
15F
330
54
100
AcDbEntity
  8
PREDEFINITO
100
AcDbVertex
100
AcDbPolyFaceMeshVertex
 10
1200.0
 20
19.27260971069336
 30
113.5820159912109
 70
   192
  0
VERTEX
  5
160
330
54
100
AcDbEntity
  8
PREDEFINITO
100
AcDbVertex
100
AcDbPolyFaceMeshVertex
 10
1200.0
 20
-27.66754722595215
 30
113.5803909301758
 70
   192
  0
VERTEX
  5
161
330
54
100
AcDbEntity
  8
PREDEFINITO
100
AcDbVertex
100
AcDbPolyFaceMeshVertex
 10
1200.0
 20
-27.84601402282715
 30
113.5751800537109
 70
   192
  0
VERTEX
  5
162
330
54
100
AcDbEntity
  8
PREDEFINITO
100
AcDbVertex
100
AcDbPolyFaceMeshVertex
 10
1200.0
 20
-27.93511199951172
 30
113.5649108886719
 70
   192
  0
VERTEX
  5
163
330
54
100
AcDbEntity
  8
PREDEFINITO
100
AcDbVertex
100
AcDbPolyFaceMeshVertex
 10
1200.0
 20
-27.9803352355957
 30
113.5443420410156
 70
   192
  0
VERTEX
  5
164
330
54
100
AcDbEntity
  8
PREDEFINITO
100
AcDbVertex
100
AcDbPolyFaceMeshVertex
 10
1200.0
 20
-27.9943790435791
 30
110.3556442260742
 70
   192
  0
VERTEX
  5
165
330
54
100
AcDbEntity
  8
PREDEFINITO
100
AcDbVertex
100
AcDbPolyFaceMeshVertex
 10
1200.0
 20
-26.78504753112793
 30
105.7641067504883
 70
   192
  0
VERTEX
  5
166
330
54
100
AcDbEntity
  8
PREDEFINITO
100
AcDbVertex
100
AcDbPolyFaceMeshVertex
 10
1200.0
 20
-23.23130226135254
 30
102.2705307006836
 70
   192
  0
VERTEX
  5
167
330
54
100
AcDbEntity
  8
PREDEFINITO
100
AcDbVertex
100
AcDbPolyFaceMeshVertex
 10
1200.0
 20
-17.53812980651855
 30
99.64596557617188
 70
   192
  0
VERTEX
  5
168
330
54
100
AcDbEntity
  8
PREDEFINITO
100
AcDbVertex
100
AcDbPolyFaceMeshVertex
 10
1200.0
 20
-9.959907531738281
 30
98.00768280029297
 70
   192
  0
VERTEX
  5
169
330
54
100
AcDbEntity
  8
PREDEFINITO
100
AcDbVertex
100
AcDbPolyFaceMeshVertex
 10
1200.0
 20
-0.0000000000003976
 30
97.45018005371094
 70
   192
  0
VERTEX
  5
16A
330
54
100
AcDbEntity
  8
PREDEFINITO
100
AcDbVertex
100
AcDbPolyFaceMeshVertex
 10
1200.0
 20
9.959907531738281
 30
98.00768280029297
 70
   192
  0
VERTEX
  5
16B
330
54
100
AcDbEntity
  8
PREDEFINITO
100
AcDbVertex
100
AcDbPolyFaceMeshVertex
 10
1200.0
 20
17.53812980651855
 30
99.64596557617188
 70
   192
  0
VERTEX
  5
16C
330
54
100
AcDbEntity
  8
PREDEFINITO
100
AcDbVertex
100
AcDbPolyFaceMeshVertex
 10
1200.0
 20
23.23130226135254
 30
102.2705307006836
 70
   192
  0
VERTEX
  5
16D
330
54
100
AcDbEntity
  8
PREDEFINITO
100
AcDbVertex
100
AcDbPolyFaceMeshVertex
 10
1200.0
 20
26.78504753112793
 30
105.7641067504883
 70
   192
  0
VERTEX
  5
16E
330
54
100
AcDbEntity
  8
PREDEFINITO
100
AcDbFaceRecord
 10
0.0
 20
0.0
 30
0.0
 70
   128
 71
     1
 72
    22
 73
    21
 74
    21
  0
VERTEX
  5
16F
330
54
100
AcDbEntity
  8
PREDEFINITO
100
AcDbFaceRecord
 10
0.0
 20
0.0
 30
0.0
 70
   128
 71
     2
 72
    23
 73
    22
 74
    22
  0
VERTEX
  5
170
330
54
100
AcDbEntity
  8
PREDEFINITO
100
AcDbFaceRecord
 10
0.0
 20
0.0
 30
0.0
 70
   128
 71
     3
 72
    24
 73
    23
 74
    23
  0
VERTEX
  5
171
330
54
100
AcDbEntity
  8
PREDEFINITO
100
AcDbFaceRecord
 10
0.0
 20
0.0
 30
0.0
 70
   128
 71
     4
 72
    25
 73
    24
 74
    24
  0
VERTEX
  5
172
330
54
100
AcDbEntity
  8
PREDEFINITO
100
AcDbFaceRecord
 10
0.0
 20
0.0
 30
0.0
 70
   128
 71
     5
 72
    26
 73
    25
 74
    25
  0
VERTEX
  5
173
330
54
100
AcDbEntity
  8
PREDEFINITO
100
AcDbFaceRecord
 10
0.0
 20
0.0
 30
0.0
 70
   128
 71
     6
 72
    27
 73
    26
 74
    26
  0
VERTEX
  5
174
330
54
100
AcDbEntity
  8
PREDEFINITO
100
AcDbFaceRecord
 10
0.0
 20
0.0
 30
0.0
 70
   128
 71
     7
 72
    28
 73
    27
 74
    27
  0
VERTEX
  5
175
330
54
100
AcDbEntity
  8
PREDEFINITO
100
AcDbFaceRecord
 10
0.0
 20
0.0
 30
0.0
 70
   128
 71
     8
 72
    29
 73
    28
 74
    28
  0
VERTEX
  5
176
330
54
100
AcDbEntity
  8
PREDEFINITO
100
AcDbFaceRecord
 10
0.0
 20
0.0
 30
0.0
 70
   128
 71
     9
 72
    30
 73
    29
 74
    29
  0
VERTEX
  5
177
330
54
100
AcDbEntity
  8
PREDEFINITO
100
AcDbFaceRecord
 10
0.0
 20
0.0
 30
0.0
 70
   128
 71
    10
 72
    31
 73
    30
 74
    30
  0
VERTEX
  5
178
330
54
100
AcDbEntity
  8
PREDEFINITO
100
AcDbFaceRecord
 10
0.0
 20
0.0
 30
0.0
 70
   128
 71
    11
 72
    32
 73
    31
 74
    31
  0
VERTEX
  5
179
330
54
100
AcDbEntity
  8
PREDEFINITO
100
AcDbFaceRecord
 10
0.0
 20
0.0
 30
0.0
 70
   128
 71
    12
 72
    33
 73
    32
 74
    32
  0
VERTEX
  5
17A
330
54
100
AcDbEntity
  8
PREDEFINITO
100
AcDbFaceRecord
 10
0.0
 20
0.0
 30
0.0
 70
   128
 71
    13
 72
    34
 73
    33
 74
    33
  0
VERTEX
  5
17B
330
54
100
AcDbEntity
  8
PREDEFINITO
100
AcDbFaceRecord
 10
0.0
 20
0.0
 30
0.0
 70
   128
 71
    14
 72
    35
 73
    34
 74
    34
  0
VERTEX
  5
17C
330
54
100
AcDbEntity
  8
PREDEFINITO
100
AcDbFaceRecord
 10
0.0
 20
0.0
 30
0.0
 70
   128
 71
    15
 72
    36
 73
    35
 74
    35
  0
VERTEX
  5
17D
330
54
100
AcDbEntity
  8
PREDEFINITO
100
AcDbFaceRecord
 10
0.0
 20
0.0
 30
0.0
 70
   128
 71
    16
 72
    37
 73
    36
 74
    36
  0
VERTEX
  5
17E
330
54
100
AcDbEntity
  8
PREDEFINITO
100
AcDbFaceRecord
 10
0.0
 20
0.0
 30
0.0
 70
   128
 71
    17
 72
    38
 73
    37
 74
    37
  0
VERTEX
  5
17F
330
54
100
AcDbEntity
  8
PREDEFINITO
100
AcDbFaceRecord
 10
0.0
 20
0.0
 30
0.0
 70
   128
 71
    18
 72
    39
 73
    38
 74
    38
  0
VERTEX
  5
180
330
54
100
AcDbEntity
  8
PREDEFINITO
100
AcDbFaceRecord
 10
0.0
 20
0.0
 30
0.0
 70
   128
 71
    19
 72
    40
 73
    39
 74
    39
  0
VERTEX
  5
181
330
54
100
AcDbEntity
  8
PREDEFINITO
100
AcDbFaceRecord
 10
0.0
 20
0.0
 30
0.0
 70
   128
 71
    20
 72
    21
 73
    40
 74
    40
  0
VERTEX
  5
182
330
54
100
AcDbEntity
  8
PREDEFINITO
100
AcDbFaceRecord
 10
0.0
 20
0.0
 30
0.0
 70
   128
 71
    21
 72
    42
 73
    41
 74
    41
  0
VERTEX
  5
183
330
54
100
AcDbEntity
  8
PREDEFINITO
100
AcDbFaceRecord
 10
0.0
 20
0.0
 30
0.0
 70
   128
 71
    22
 72
    43
 73
    42
 74
    42
  0
VERTEX
  5
184
330
54
100
AcDbEntity
  8
PREDEFINITO
100
AcDbFaceRecord
 10
0.0
 20
0.0
 30
0.0
 70
   128
 71
    23
 72
    44
 73
    43
 74
    43
  0
VERTEX
  5
185
330
54
100
AcDbEntity
  8
PREDEFINITO
100
AcDbFaceRecord
 10
0.0
 20
0.0
 30
0.0
 70
   128
 71
    24
 72
    45
 73
    44
 74
    44
  0
VERTEX
  5
186
330
54
100
AcDbEntity
  8
PREDEFINITO
100
AcDbFaceRecord
 10
0.0
 20
0.0
 30
0.0
 70
   128
 71
    25
 72
    46
 73
    45
 74
    45
  0
VERTEX
  5
187
330
54
100
AcDbEntity
  8
PREDEFINITO
100
AcDbFaceRecord
 10
0.0
 20
0.0
 30
0.0
 70
   128
 71
    26
 72
    47
 73
    46
 74
    46
  0
VERTEX
  5
188
330
54
100
AcDbEntity
  8
PREDEFINITO
100
AcDbFaceRecord
 10
0.0
 20
0.0
 30
0.0
 70
   128
 71
    27
 72
    48
 73
    47
 74
    47
  0
VERTEX
  5
189
330
54
100
AcDbEntity
  8
PREDEFINITO
100
AcDbFaceRecord
 10
0.0
 20
0.0
 30
0.0
 70
   128
 71
    28
 72
    49
 73
    48
 74
    48
  0
VERTEX
  5
18A
330
54
100
AcDbEntity
  8
PREDEFINITO
100
AcDbFaceRecord
 10
0.0
 20
0.0
 30
0.0
 70
   128
 71
    29
 72
    50
 73
    49
 74
    49
  0
VERTEX
  5
18B
330
54
100
AcDbEntity
  8
PREDEFINITO
100
AcDbFaceRecord
 10
0.0
 20
0.0
 30
0.0
 70
   128
 71
    30
 72
    51
 73
    50
 74
    50
  0
VERTEX
  5
18C
330
54
100
AcDbEntity
  8
PREDEFINITO
100
AcDbFaceRecord
 10
0.0
 20
0.0
 30
0.0
 70
   128
 71
    31
 72
    52
 73
    51
 74
    51
  0
VERTEX
  5
18D
330
54
100
AcDbEntity
  8
PREDEFINITO
100
AcDbFaceRecord
 10
0.0
 20
0.0
 30
0.0
 70
   128
 71
    32
 72
    53
 73
    52
 74
    52
  0
VERTEX
  5
18E
330
54
100
AcDbEntity
  8
PREDEFINITO
100
AcDbFaceRecord
 10
0.0
 20
0.0
 30
0.0
 70
   128
 71
    33
 72
    54
 73
    53
 74
    53
  0
VERTEX
  5
18F
330
54
100
AcDbEntity
  8
PREDEFINITO
100
AcDbFaceRecord
 10
0.0
 20
0.0
 30
0.0
 70
   128
 71
    34
 72
    55
 73
    54
 74
    54
  0
VERTEX
  5
190
330
54
100
AcDbEntity
  8
PREDEFINITO
100
AcDbFaceRecord
 10
0.0
 20
0.0
 30
0.0
 70
   128
 71
    35
 72
    56
 73
    55
 74
    55
  0
VERTEX
  5
191
330
54
100
AcDbEntity
  8
PREDEFINITO
100
AcDbFaceRecord
 10
0.0
 20
0.0
 30
0.0
 70
   128
 71
    36
 72
    57
 73
    56
 74
    56
  0
VERTEX
  5
192
330
54
100
AcDbEntity
  8
PREDEFINITO
100
AcDbFaceRecord
 10
0.0
 20
0.0
 30
0.0
 70
   128
 71
    37
 72
    58
 73
    57
 74
    57
  0
VERTEX
  5
193
330
54
100
AcDbEntity
  8
PREDEFINITO
100
AcDbFaceRecord
 10
0.0
 20
0.0
 30
0.0
 70
   128
 71
    38
 72
    59
 73
    58
 74
    58
  0
VERTEX
  5
194
330
54
100
AcDbEntity
  8
PREDEFINITO
100
AcDbFaceRecord
 10
0.0
 20
0.0
 30
0.0
 70
   128
 71
    39
 72
    60
 73
    59
 74
    59
  0
VERTEX
  5
195
330
54
100
AcDbEntity
  8
PREDEFINITO
100
AcDbFaceRecord
 10
0.0
 20
0.0
 30
0.0
 70
   128
 71
    40
 72
    41
 73
    60
 74
    60
  0
VERTEX
  5
196
330
54
100
AcDbEntity
  8
PREDEFINITO
100
AcDbFaceRecord
 10
0.0
 20
0.0
 30
0.0
 70
   128
 71
    41
 72
    62
 73
    61
 74
    61
  0
VERTEX
  5
197
330
54
100
AcDbEntity
  8
PREDEFINITO
100
AcDbFaceRecord
 10
0.0
 20
0.0
 30
0.0
 70
   128
 71
    42
 72
    63
 73
    62
 74
    62
  0
VERTEX
  5
198
330
54
100
AcDbEntity
  8
PREDEFINITO
100
AcDbFaceRecord
 10
0.0
 20
0.0
 30
0.0
 70
   128
 71
    43
 72
    64
 73
    63
 74
    63
  0
VERTEX
  5
199
330
54
100
AcDbEntity
  8
PREDEFINITO
100
AcDbFaceRecord
 10
0.0
 20
0.0
 30
0.0
 70
   128
 71
    44
 72
    65
 73
    64
 74
    64
  0
VERTEX
  5
19A
330
54
100
AcDbEntity
  8
PREDEFINITO
100
AcDbFaceRecord
 10
0.0
 20
0.0
 30
0.0
 70
   128
 71
    45
 72
    66
 73
    65
 74
    65
  0
VERTEX
  5
19B
330
54
100
AcDbEntity
  8
PREDEFINITO
100
AcDbFaceRecord
 10
0.0
 20
0.0
 30
0.0
 70
   128
 71
    46
 72
    67
 73
    66
 74
    66
  0
VERTEX
  5
19C
330
54
100
AcDbEntity
  8
PREDEFINITO
100
AcDbFaceRecord
 10
0.0
 20
0.0
 30
0.0
 70
   128
 71
    47
 72
    68
 73
    67
 74
    67
  0
VERTEX
  5
19D
330
54
100
AcDbEntity
  8
PREDEFINITO
100
AcDbFaceRecord
 10
0.0
 20
0.0
 30
0.0
 70
   128
 71
    48
 72
    69
 73
    68
 74
    68
  0
VERTEX
  5
19E
330
54
100
AcDbEntity
  8
PREDEFINITO
100
AcDbFaceRecord
 10
0.0
 20
0.0
 30
0.0
 70
   128
 71
    49
 72
    70
 73
    69
 74
    69
  0
VERTEX
  5
19F
330
54
100
AcDbEntity
  8
PREDEFINITO
100
AcDbFaceRecord
 10
0.0
 20
0.0
 30
0.0
 70
   128
 71
    50
 72
    71
 73
    70
 74
    70
  0
VERTEX
  5
1A0
330
54
100
AcDbEntity
  8
PREDEFINITO
100
AcDbFaceRecord
 10
0.0
 20
0.0
 30
0.0
 70
   128
 71
    51
 72
    72
 73
    71
 74
    71
  0
VERTEX
  5
1A1
330
54
100
AcDbEntity
  8
PREDEFINITO
100
AcDbFaceRecord
 10
0.0
 20
0.0
 30
0.0
 70
   128
 71
    52
 72
    73
 73
    72
 74
    72
  0
VERTEX
  5
1A2
330
54
100
AcDbEntity
  8
PREDEFINITO
100
AcDbFaceRecord
 10
0.0
 20
0.0
 30
0.0
 70
   128
 71
    53
 72
    74
 73
    73
 74
    73
  0
VERTEX
  5
1A3
330
54
100
AcDbEntity
  8
PREDEFINITO
100
AcDbFaceRecord
 10
0.0
 20
0.0
 30
0.0
 70
   128
 71
    54
 72
    75
 73
    74
 74
    74
  0
VERTEX
  5
1A4
330
54
100
AcDbEntity
  8
PREDEFINITO
100
AcDbFaceRecord
 10
0.0
 20
0.0
 30
0.0
 70
   128
 71
    55
 72
    76
 73
    75
 74
    75
  0
VERTEX
  5
1A5
330
54
100
AcDbEntity
  8
PREDEFINITO
100
AcDbFaceRecord
 10
0.0
 20
0.0
 30
0.0
 70
   128
 71
    56
 72
    77
 73
    76
 74
    76
  0
VERTEX
  5
1A6
330
54
100
AcDbEntity
  8
PREDEFINITO
100
AcDbFaceRecord
 10
0.0
 20
0.0
 30
0.0
 70
   128
 71
    57
 72
    78
 73
    77
 74
    77
  0
VERTEX
  5
1A7
330
54
100
AcDbEntity
  8
PREDEFINITO
100
AcDbFaceRecord
 10
0.0
 20
0.0
 30
0.0
 70
   128
 71
    58
 72
    79
 73
    78
 74
    78
  0
VERTEX
  5
1A8
330
54
100
AcDbEntity
  8
PREDEFINITO
100
AcDbFaceRecord
 10
0.0
 20
0.0
 30
0.0
 70
   128
 71
    59
 72
    80
 73
    79
 74
    79
  0
VERTEX
  5
1A9
330
54
100
AcDbEntity
  8
PREDEFINITO
100
AcDbFaceRecord
 10
0.0
 20
0.0
 30
0.0
 70
   128
 71
    60
 72
    61
 73
    80
 74
    80
  0
VERTEX
  5
1AA
330
54
100
AcDbEntity
  8
PREDEFINITO
100
AcDbFaceRecord
 10
0.0
 20
0.0
 30
0.0
 70
   128
 71
    61
 72
    82
 73
    81
 74
    81
  0
VERTEX
  5
1AB
330
54
100
AcDbEntity
  8
PREDEFINITO
100
AcDbFaceRecord
 10
0.0
 20
0.0
 30
0.0
 70
   128
 71
    62
 72
    83
 73
    82
 74
    82
  0
VERTEX
  5
1AC
330
54
100
AcDbEntity
  8
PREDEFINITO
100
AcDbFaceRecord
 10
0.0
 20
0.0
 30
0.0
 70
   128
 71
    63
 72
    84
 73
    83
 74
    83
  0
VERTEX
  5
1AD
330
54
100
AcDbEntity
  8
PREDEFINITO
100
AcDbFaceRecord
 10
0.0
 20
0.0
 30
0.0
 70
   128
 71
    64
 72
    85
 73
    84
 74
    84
  0
VERTEX
  5
1AE
330
54
100
AcDbEntity
  8
PREDEFINITO
100
AcDbFaceRecord
 10
0.0
 20
0.0
 30
0.0
 70
   128
 71
    65
 72
    86
 73
    85
 74
    85
  0
VERTEX
  5
1AF
330
54
100
AcDbEntity
  8
PREDEFINITO
100
AcDbFaceRecord
 10
0.0
 20
0.0
 30
0.0
 70
   128
 71
    66
 72
    87
 73
    86
 74
    86
  0
VERTEX
  5
1B0
330
54
100
AcDbEntity
  8
PREDEFINITO
100
AcDbFaceRecord
 10
0.0
 20
0.0
 30
0.0
 70
   128
 71
    67
 72
    88
 73
    87
 74
    87
  0
VERTEX
  5
1B1
330
54
100
AcDbEntity
  8
PREDEFINITO
100
AcDbFaceRecord
 10
0.0
 20
0.0
 30
0.0
 70
   128
 71
    68
 72
    89
 73
    88
 74
    88
  0
VERTEX
  5
1B2
330
54
100
AcDbEntity
  8
PREDEFINITO
100
AcDbFaceRecord
 10
0.0
 20
0.0
 30
0.0
 70
   128
 71
    69
 72
    90
 73
    89
 74
    89
  0
VERTEX
  5
1B3
330
54
100
AcDbEntity
  8
PREDEFINITO
100
AcDbFaceRecord
 10
0.0
 20
0.0
 30
0.0
 70
   128
 71
    70
 72
    91
 73
    90
 74
    90
  0
VERTEX
  5
1B4
330
54
100
AcDbEntity
  8
PREDEFINITO
100
AcDbFaceRecord
 10
0.0
 20
0.0
 30
0.0
 70
   128
 71
    71
 72
    92
 73
    91
 74
    91
  0
VERTEX
  5
1B5
330
54
100
AcDbEntity
  8
PREDEFINITO
100
AcDbFaceRecord
 10
0.0
 20
0.0
 30
0.0
 70
   128
 71
    72
 72
    93
 73
    92
 74
    92
  0
VERTEX
  5
1B6
330
54
100
AcDbEntity
  8
PREDEFINITO
100
AcDbFaceRecord
 10
0.0
 20
0.0
 30
0.0
 70
   128
 71
    73
 72
    94
 73
    93
 74
    93
  0
VERTEX
  5
1B7
330
54
100
AcDbEntity
  8
PREDEFINITO
100
AcDbFaceRecord
 10
0.0
 20
0.0
 30
0.0
 70
   128
 71
    74
 72
    95
 73
    94
 74
    94
  0
VERTEX
  5
1B8
330
54
100
AcDbEntity
  8
PREDEFINITO
100
AcDbFaceRecord
 10
0.0
 20
0.0
 30
0.0
 70
   128
 71
    75
 72
    96
 73
    95
 74
    95
  0
VERTEX
  5
1B9
330
54
100
AcDbEntity
  8
PREDEFINITO
100
AcDbFaceRecord
 10
0.0
 20
0.0
 30
0.0
 70
   128
 71
    76
 72
    97
 73
    96
 74
    96
  0
VERTEX
  5
1BA
330
54
100
AcDbEntity
  8
PREDEFINITO
100
AcDbFaceRecord
 10
0.0
 20
0.0
 30
0.0
 70
   128
 71
    77
 72
    98
 73
    97
 74
    97
  0
VERTEX
  5
1BB
330
54
100
AcDbEntity
  8
PREDEFINITO
100
AcDbFaceRecord
 10
0.0
 20
0.0
 30
0.0
 70
   128
 71
    78
 72
    99
 73
    98
 74
    98
  0
VERTEX
  5
1BC
330
54
100
AcDbEntity
  8
PREDEFINITO
100
AcDbFaceRecord
 10
0.0
 20
0.0
 30
0.0
 70
   128
 71
    79
 72
   100
 73
    99
 74
    99
  0
VERTEX
  5
1BD
330
54
100
AcDbEntity
  8
PREDEFINITO
100
AcDbFaceRecord
 10
0.0
 20
0.0
 30
0.0
 70
   128
 71
    80
 72
    81
 73
   100
 74
   100
  0
VERTEX
  5
1BE
330
54
100
AcDbEntity
  8
PREDEFINITO
100
AcDbFaceRecord
 10
0.0
 20
0.0
 30
0.0
 70
   128
 71
    81
 72
   102
 73
   101
 74
   101
  0
VERTEX
  5
1BF
330
54
100
AcDbEntity
  8
PREDEFINITO
100
AcDbFaceRecord
 10
0.0
 20
0.0
 30
0.0
 70
   128
 71
    82
 72
   103
 73
   102
 74
   102
  0
VERTEX
  5
1C0
330
54
100
AcDbEntity
  8
PREDEFINITO
100
AcDbFaceRecord
 10
0.0
 20
0.0
 30
0.0
 70
   128
 71
    83
 72
   104
 73
   103
 74
   103
  0
VERTEX
  5
1C1
330
54
100
AcDbEntity
  8
PREDEFINITO
100
AcDbFaceRecord
 10
0.0
 20
0.0
 30
0.0
 70
   128
 71
    84
 72
   105
 73
   104
 74
   104
  0
VERTEX
  5
1C2
330
54
100
AcDbEntity
  8
PREDEFINITO
100
AcDbFaceRecord
 10
0.0
 20
0.0
 30
0.0
 70
   128
 71
    85
 72
   106
 73
   105
 74
   105
  0
VERTEX
  5
1C3
330
54
100
AcDbEntity
  8
PREDEFINITO
100
AcDbFaceRecord
 10
0.0
 20
0.0
 30
0.0
 70
   128
 71
    86
 72
   107
 73
   106
 74
   106
  0
VERTEX
  5
1C4
330
54
100
AcDbEntity
  8
PREDEFINITO
100
AcDbFaceRecord
 10
0.0
 20
0.0
 30
0.0
 70
   128
 71
    87
 72
   108
 73
   107
 74
   107
  0
VERTEX
  5
1C5
330
54
100
AcDbEntity
  8
PREDEFINITO
100
AcDbFaceRecord
 10
0.0
 20
0.0
 30
0.0
 70
   128
 71
    88
 72
   109
 73
   108
 74
   108
  0
VERTEX
  5
1C6
330
54
100
AcDbEntity
  8
PREDEFINITO
100
AcDbFaceRecord
 10
0.0
 20
0.0
 30
0.0
 70
   128
 71
    89
 72
   110
 73
   109
 74
   109
  0
VERTEX
  5
1C7
330
54
100
AcDbEntity
  8
PREDEFINITO
100
AcDbFaceRecord
 10
0.0
 20
0.0
 30
0.0
 70
   128
 71
    90
 72
   111
 73
   110
 74
   110
  0
VERTEX
  5
1C8
330
54
100
AcDbEntity
  8
PREDEFINITO
100
AcDbFaceRecord
 10
0.0
 20
0.0
 30
0.0
 70
   128
 71
    91
 72
   112
 73
   111
 74
   111
  0
VERTEX
  5
1C9
330
54
100
AcDbEntity
  8
PREDEFINITO
100
AcDbFaceRecord
 10
0.0
 20
0.0
 30
0.0
 70
   128
 71
    92
 72
   113
 73
   112
 74
   112
  0
VERTEX
  5
1CA
330
54
100
AcDbEntity
  8
PREDEFINITO
100
AcDbFaceRecord
 10
0.0
 20
0.0
 30
0.0
 70
   128
 71
    93
 72
   114
 73
   113
 74
   113
  0
VERTEX
  5
1CB
330
54
100
AcDbEntity
  8
PREDEFINITO
100
AcDbFaceRecord
 10
0.0
 20
0.0
 30
0.0
 70
   128
 71
    94
 72
   115
 73
   114
 74
   114
  0
VERTEX
  5
1CC
330
54
100
AcDbEntity
  8
PREDEFINITO
100
AcDbFaceRecord
 10
0.0
 20
0.0
 30
0.0
 70
   128
 71
    95
 72
   116
 73
   115
 74
   115
  0
VERTEX
  5
1CD
330
54
100
AcDbEntity
  8
PREDEFINITO
100
AcDbFaceRecord
 10
0.0
 20
0.0
 30
0.0
 70
   128
 71
    96
 72
   117
 73
   116
 74
   116
  0
VERTEX
  5
1CE
330
54
100
AcDbEntity
  8
PREDEFINITO
100
AcDbFaceRecord
 10
0.0
 20
0.0
 30
0.0
 70
   128
 71
    97
 72
   118
 73
   117
 74
   117
  0
VERTEX
  5
1CF
330
54
100
AcDbEntity
  8
PREDEFINITO
100
AcDbFaceRecord
 10
0.0
 20
0.0
 30
0.0
 70
   128
 71
    98
 72
   119
 73
   118
 74
   118
  0
VERTEX
  5
1D0
330
54
100
AcDbEntity
  8
PREDEFINITO
100
AcDbFaceRecord
 10
0.0
 20
0.0
 30
0.0
 70
   128
 71
    99
 72
   120
 73
   119
 74
   119
  0
VERTEX
  5
1D1
330
54
100
AcDbEntity
  8
PREDEFINITO
100
AcDbFaceRecord
 10
0.0
 20
0.0
 30
0.0
 70
   128
 71
   100
 72
   101
 73
   120
 74
   120
  0
VERTEX
  5
1D2
330
54
100
AcDbEntity
  8
PREDEFINITO
100
AcDbFaceRecord
 10
0.0
 20
0.0
 30
0.0
 70
   128
 71
   101
 72
   122
 73
   121
 74
   121
  0
VERTEX
  5
1D3
330
54
100
AcDbEntity
  8
PREDEFINITO
100
AcDbFaceRecord
 10
0.0
 20
0.0
 30
0.0
 70
   128
 71
   102
 72
   123
 73
   122
 74
   122
  0
VERTEX
  5
1D4
330
54
100
AcDbEntity
  8
PREDEFINITO
100
AcDbFaceRecord
 10
0.0
 20
0.0
 30
0.0
 70
   128
 71
   103
 72
   124
 73
   123
 74
   123
  0
VERTEX
  5
1D5
330
54
100
AcDbEntity
  8
PREDEFINITO
100
AcDbFaceRecord
 10
0.0
 20
0.0
 30
0.0
 70
   128
 71
   104
 72
   125
 73
   124
 74
   124
  0
VERTEX
  5
1D6
330
54
100
AcDbEntity
  8
PREDEFINITO
100
AcDbFaceRecord
 10
0.0
 20
0.0
 30
0.0
 70
   128
 71
   105
 72
   126
 73
   125
 74
   125
  0
VERTEX
  5
1D7
330
54
100
AcDbEntity
  8
PREDEFINITO
100
AcDbFaceRecord
 10
0.0
 20
0.0
 30
0.0
 70
   128
 71
   106
 72
   127
 73
   126
 74
   126
  0
VERTEX
  5
1D8
330
54
100
AcDbEntity
  8
PREDEFINITO
100
AcDbFaceRecord
 10
0.0
 20
0.0
 30
0.0
 70
   128
 71
   107
 72
   128
 73
   127
 74
   127
  0
VERTEX
  5
1D9
330
54
100
AcDbEntity
  8
PREDEFINITO
100
AcDbFaceRecord
 10
0.0
 20
0.0
 30
0.0
 70
   128
 71
   108
 72
   129
 73
   128
 74
   128
  0
VERTEX
  5
1DA
330
54
100
AcDbEntity
  8
PREDEFINITO
100
AcDbFaceRecord
 10
0.0
 20
0.0
 30
0.0
 70
   128
 71
   109
 72
   130
 73
   129
 74
   129
  0
VERTEX
  5
1DB
330
54
100
AcDbEntity
  8
PREDEFINITO
100
AcDbFaceRecord
 10
0.0
 20
0.0
 30
0.0
 70
   128
 71
   110
 72
   131
 73
   130
 74
   130
  0
VERTEX
  5
1DC
330
54
100
AcDbEntity
  8
PREDEFINITO
100
AcDbFaceRecord
 10
0.0
 20
0.0
 30
0.0
 70
   128
 71
   111
 72
   132
 73
   131
 74
   131
  0
VERTEX
  5
1DD
330
54
100
AcDbEntity
  8
PREDEFINITO
100
AcDbFaceRecord
 10
0.0
 20
0.0
 30
0.0
 70
   128
 71
   112
 72
   133
 73
   132
 74
   132
  0
VERTEX
  5
1DE
330
54
100
AcDbEntity
  8
PREDEFINITO
100
AcDbFaceRecord
 10
0.0
 20
0.0
 30
0.0
 70
   128
 71
   113
 72
   134
 73
   133
 74
   133
  0
VERTEX
  5
1DF
330
54
100
AcDbEntity
  8
PREDEFINITO
100
AcDbFaceRecord
 10
0.0
 20
0.0
 30
0.0
 70
   128
 71
   114
 72
   135
 73
   134
 74
   134
  0
VERTEX
  5
1E0
330
54
100
AcDbEntity
  8
PREDEFINITO
100
AcDbFaceRecord
 10
0.0
 20
0.0
 30
0.0
 70
   128
 71
   115
 72
   136
 73
   135
 74
   135
  0
VERTEX
  5
1E1
330
54
100
AcDbEntity
  8
PREDEFINITO
100
AcDbFaceRecord
 10
0.0
 20
0.0
 30
0.0
 70
   128
 71
   116
 72
   137
 73
   136
 74
   136
  0
VERTEX
  5
1E2
330
54
100
AcDbEntity
  8
PREDEFINITO
100
AcDbFaceRecord
 10
0.0
 20
0.0
 30
0.0
 70
   128
 71
   117
 72
   138
 73
   137
 74
   137
  0
VERTEX
  5
1E3
330
54
100
AcDbEntity
  8
PREDEFINITO
100
AcDbFaceRecord
 10
0.0
 20
0.0
 30
0.0
 70
   128
 71
   118
 72
   139
 73
   138
 74
   138
  0
VERTEX
  5
1E4
330
54
100
AcDbEntity
  8
PREDEFINITO
100
AcDbFaceRecord
 10
0.0
 20
0.0
 30
0.0
 70
   128
 71
   119
 72
   140
 73
   139
 74
   139
  0
VERTEX
  5
1E5
330
54
100
AcDbEntity
  8
PREDEFINITO
100
AcDbFaceRecord
 10
0.0
 20
0.0
 30
0.0
 70
   128
 71
   120
 72
   121
 73
   140
 74
   140
  0
VERTEX
  5
1E6
330
54
100
AcDbEntity
  8
PREDEFINITO
100
AcDbFaceRecord
 10
0.0
 20
0.0
 30
0.0
 70
   128
 71
   121
 72
   142
 73
   141
 74
   141
  0
VERTEX
  5
1E7
330
54
100
AcDbEntity
  8
PREDEFINITO
100
AcDbFaceRecord
 10
0.0
 20
0.0
 30
0.0
 70
   128
 71
   122
 72
   143
 73
   142
 74
   142
  0
VERTEX
  5
1E8
330
54
100
AcDbEntity
  8
PREDEFINITO
100
AcDbFaceRecord
 10
0.0
 20
0.0
 30
0.0
 70
   128
 71
   123
 72
   144
 73
   143
 74
   143
  0
VERTEX
  5
1E9
330
54
100
AcDbEntity
  8
PREDEFINITO
100
AcDbFaceRecord
 10
0.0
 20
0.0
 30
0.0
 70
   128
 71
   124
 72
   145
 73
   144
 74
   144
  0
VERTEX
  5
1EA
330
54
100
AcDbEntity
  8
PREDEFINITO
100
AcDbFaceRecord
 10
0.0
 20
0.0
 30
0.0
 70
   128
 71
   125
 72
   146
 73
   145
 74
   145
  0
VERTEX
  5
1EB
330
54
100
AcDbEntity
  8
PREDEFINITO
100
AcDbFaceRecord
 10
0.0
 20
0.0
 30
0.0
 70
   128
 71
   126
 72
   147
 73
   146
 74
   146
  0
VERTEX
  5
1EC
330
54
100
AcDbEntity
  8
PREDEFINITO
100
AcDbFaceRecord
 10
0.0
 20
0.0
 30
0.0
 70
   128
 71
   127
 72
   148
 73
   147
 74
   147
  0
VERTEX
  5
1ED
330
54
100
AcDbEntity
  8
PREDEFINITO
100
AcDbFaceRecord
 10
0.0
 20
0.0
 30
0.0
 70
   128
 71
   128
 72
   149
 73
   148
 74
   148
  0
VERTEX
  5
1EE
330
54
100
AcDbEntity
  8
PREDEFINITO
100
AcDbFaceRecord
 10
0.0
 20
0.0
 30
0.0
 70
   128
 71
   129
 72
   150
 73
   149
 74
   149
  0
VERTEX
  5
1EF
330
54
100
AcDbEntity
  8
PREDEFINITO
100
AcDbFaceRecord
 10
0.0
 20
0.0
 30
0.0
 70
   128
 71
   130
 72
   151
 73
   150
 74
   150
  0
VERTEX
  5
1F0
330
54
100
AcDbEntity
  8
PREDEFINITO
100
AcDbFaceRecord
 10
0.0
 20
0.0
 30
0.0
 70
   128
 71
   131
 72
   152
 73
   151
 74
   151
  0
VERTEX
  5
1F1
330
54
100
AcDbEntity
  8
PREDEFINITO
100
AcDbFaceRecord
 10
0.0
 20
0.0
 30
0.0
 70
   128
 71
   132
 72
   153
 73
   152
 74
   152
  0
VERTEX
  5
1F2
330
54
100
AcDbEntity
  8
PREDEFINITO
100
AcDbFaceRecord
 10
0.0
 20
0.0
 30
0.0
 70
   128
 71
   133
 72
   154
 73
   153
 74
   153
  0
VERTEX
  5
1F3
330
54
100
AcDbEntity
  8
PREDEFINITO
100
AcDbFaceRecord
 10
0.0
 20
0.0
 30
0.0
 70
   128
 71
   134
 72
   155
 73
   154
 74
   154
  0
VERTEX
  5
1F4
330
54
100
AcDbEntity
  8
PREDEFINITO
100
AcDbFaceRecord
 10
0.0
 20
0.0
 30
0.0
 70
   128
 71
   135
 72
   156
 73
   155
 74
   155
  0
VERTEX
  5
1F5
330
54
100
AcDbEntity
  8
PREDEFINITO
100
AcDbFaceRecord
 10
0.0
 20
0.0
 30
0.0
 70
   128
 71
   136
 72
   157
 73
   156
 74
   156
  0
VERTEX
  5
1F6
330
54
100
AcDbEntity
  8
PREDEFINITO
100
AcDbFaceRecord
 10
0.0
 20
0.0
 30
0.0
 70
   128
 71
   137
 72
   158
 73
   157
 74
   157
  0
VERTEX
  5
1F7
330
54
100
AcDbEntity
  8
PREDEFINITO
100
AcDbFaceRecord
 10
0.0
 20
0.0
 30
0.0
 70
   128
 71
   138
 72
   159
 73
   158
 74
   158
  0
VERTEX
  5
1F8
330
54
100
AcDbEntity
  8
PREDEFINITO
100
AcDbFaceRecord
 10
0.0
 20
0.0
 30
0.0
 70
   128
 71
   139
 72
   160
 73
   159
 74
   159
  0
VERTEX
  5
1F9
330
54
100
AcDbEntity
  8
PREDEFINITO
100
AcDbFaceRecord
 10
0.0
 20
0.0
 30
0.0
 70
   128
 71
   140
 72
   141
 73
   160
 74
   160
  0
VERTEX
  5
1FA
330
54
100
AcDbEntity
  8
PREDEFINITO
100
AcDbFaceRecord
 10
0.0
 20
0.0
 30
0.0
 70
   128
 71
   141
 72
   162
 73
   161
 74
   161
  0
VERTEX
  5
1FB
330
54
100
AcDbEntity
  8
PREDEFINITO
100
AcDbFaceRecord
 10
0.0
 20
0.0
 30
0.0
 70
   128
 71
   142
 72
   163
 73
   162
 74
   162
  0
VERTEX
  5
1FC
330
54
100
AcDbEntity
  8
PREDEFINITO
100
AcDbFaceRecord
 10
0.0
 20
0.0
 30
0.0
 70
   128
 71
   143
 72
   164
 73
   163
 74
   163
  0
VERTEX
  5
1FD
330
54
100
AcDbEntity
  8
PREDEFINITO
100
AcDbFaceRecord
 10
0.0
 20
0.0
 30
0.0
 70
   128
 71
   144
 72
   165
 73
   164
 74
   164
  0
VERTEX
  5
1FE
330
54
100
AcDbEntity
  8
PREDEFINITO
100
AcDbFaceRecord
 10
0.0
 20
0.0
 30
0.0
 70
   128
 71
   145
 72
   166
 73
   165
 74
   165
  0
VERTEX
  5
1FF
330
54
100
AcDbEntity
  8
PREDEFINITO
100
AcDbFaceRecord
 10
0.0
 20
0.0
 30
0.0
 70
   128
 71
   146
 72
   167
 73
   166
 74
   166
  0
VERTEX
  5
200
330
54
100
AcDbEntity
  8
PREDEFINITO
100
AcDbFaceRecord
 10
0.0
 20
0.0
 30
0.0
 70
   128
 71
   147
 72
   168
 73
   167
 74
   167
  0
VERTEX
  5
201
330
54
100
AcDbEntity
  8
PREDEFINITO
100
AcDbFaceRecord
 10
0.0
 20
0.0
 30
0.0
 70
   128
 71
   148
 72
   169
 73
   168
 74
   168
  0
VERTEX
  5
202
330
54
100
AcDbEntity
  8
PREDEFINITO
100
AcDbFaceRecord
 10
0.0
 20
0.0
 30
0.0
 70
   128
 71
   149
 72
   170
 73
   169
 74
   169
  0
VERTEX
  5
203
330
54
100
AcDbEntity
  8
PREDEFINITO
100
AcDbFaceRecord
 10
0.0
 20
0.0
 30
0.0
 70
   128
 71
   150
 72
   171
 73
   170
 74
   170
  0
VERTEX
  5
204
330
54
100
AcDbEntity
  8
PREDEFINITO
100
AcDbFaceRecord
 10
0.0
 20
0.0
 30
0.0
 70
   128
 71
   151
 72
   172
 73
   171
 74
   171
  0
VERTEX
  5
205
330
54
100
AcDbEntity
  8
PREDEFINITO
100
AcDbFaceRecord
 10
0.0
 20
0.0
 30
0.0
 70
   128
 71
   152
 72
   173
 73
   172
 74
   172
  0
VERTEX
  5
206
330
54
100
AcDbEntity
  8
PREDEFINITO
100
AcDbFaceRecord
 10
0.0
 20
0.0
 30
0.0
 70
   128
 71
   153
 72
   174
 73
   173
 74
   173
  0
VERTEX
  5
207
330
54
100
AcDbEntity
  8
PREDEFINITO
100
AcDbFaceRecord
 10
0.0
 20
0.0
 30
0.0
 70
   128
 71
   154
 72
   175
 73
   174
 74
   174
  0
VERTEX
  5
208
330
54
100
AcDbEntity
  8
PREDEFINITO
100
AcDbFaceRecord
 10
0.0
 20
0.0
 30
0.0
 70
   128
 71
   155
 72
   176
 73
   175
 74
   175
  0
VERTEX
  5
209
330
54
100
AcDbEntity
  8
PREDEFINITO
100
AcDbFaceRecord
 10
0.0
 20
0.0
 30
0.0
 70
   128
 71
   156
 72
   177
 73
   176
 74
   176
  0
VERTEX
  5
20A
330
54
100
AcDbEntity
  8
PREDEFINITO
100
AcDbFaceRecord
 10
0.0
 20
0.0
 30
0.0
 70
   128
 71
   157
 72
   178
 73
   177
 74
   177
  0
VERTEX
  5
20B
330
54
100
AcDbEntity
  8
PREDEFINITO
100
AcDbFaceRecord
 10
0.0
 20
0.0
 30
0.0
 70
   128
 71
   158
 72
   179
 73
   178
 74
   178
  0
VERTEX
  5
20C
330
54
100
AcDbEntity
  8
PREDEFINITO
100
AcDbFaceRecord
 10
0.0
 20
0.0
 30
0.0
 70
   128
 71
   159
 72
   180
 73
   179
 74
   179
  0
VERTEX
  5
20D
330
54
100
AcDbEntity
  8
PREDEFINITO
100
AcDbFaceRecord
 10
0.0
 20
0.0
 30
0.0
 70
   128
 71
   160
 72
   161
 73
   180
 74
   180
  0
VERTEX
  5
20E
330
54
100
AcDbEntity
  8
PREDEFINITO
100
AcDbFaceRecord
 10
0.0
 20
0.0
 30
0.0
 70
   128
 71
   161
 72
   182
 73
   181
 74
   181
  0
VERTEX
  5
20F
330
54
100
AcDbEntity
  8
PREDEFINITO
100
AcDbFaceRecord
 10
0.0
 20
0.0
 30
0.0
 70
   128
 71
   162
 72
   183
 73
   182
 74
   182
  0
VERTEX
  5
210
330
54
100
AcDbEntity
  8
PREDEFINITO
100
AcDbFaceRecord
 10
0.0
 20
0.0
 30
0.0
 70
   128
 71
   163
 72
   184
 73
   183
 74
   183
  0
VERTEX
  5
211
330
54
100
AcDbEntity
  8
PREDEFINITO
100
AcDbFaceRecord
 10
0.0
 20
0.0
 30
0.0
 70
   128
 71
   164
 72
   185
 73
   184
 74
   184
  0
VERTEX
  5
212
330
54
100
AcDbEntity
  8
PREDEFINITO
100
AcDbFaceRecord
 10
0.0
 20
0.0
 30
0.0
 70
   128
 71
   165
 72
   186
 73
   185
 74
   185
  0
VERTEX
  5
213
330
54
100
AcDbEntity
  8
PREDEFINITO
100
AcDbFaceRecord
 10
0.0
 20
0.0
 30
0.0
 70
   128
 71
   166
 72
   187
 73
   186
 74
   186
  0
VERTEX
  5
214
330
54
100
AcDbEntity
  8
PREDEFINITO
100
AcDbFaceRecord
 10
0.0
 20
0.0
 30
0.0
 70
   128
 71
   167
 72
   188
 73
   187
 74
   187
  0
VERTEX
  5
215
330
54
100
AcDbEntity
  8
PREDEFINITO
100
AcDbFaceRecord
 10
0.0
 20
0.0
 30
0.0
 70
   128
 71
   168
 72
   189
 73
   188
 74
   188
  0
VERTEX
  5
216
330
54
100
AcDbEntity
  8
PREDEFINITO
100
AcDbFaceRecord
 10
0.0
 20
0.0
 30
0.0
 70
   128
 71
   169
 72
   190
 73
   189
 74
   189
  0
VERTEX
  5
217
330
54
100
AcDbEntity
  8
PREDEFINITO
100
AcDbFaceRecord
 10
0.0
 20
0.0
 30
0.0
 70
   128
 71
   170
 72
   191
 73
   190
 74
   190
  0
VERTEX
  5
218
330
54
100
AcDbEntity
  8
PREDEFINITO
100
AcDbFaceRecord
 10
0.0
 20
0.0
 30
0.0
 70
   128
 71
   171
 72
   192
 73
   191
 74
   191
  0
VERTEX
  5
219
330
54
100
AcDbEntity
  8
PREDEFINITO
100
AcDbFaceRecord
 10
0.0
 20
0.0
 30
0.0
 70
   128
 71
   172
 72
   193
 73
   192
 74
   192
  0
VERTEX
  5
21A
330
54
100
AcDbEntity
  8
PREDEFINITO
100
AcDbFaceRecord
 10
0.0
 20
0.0
 30
0.0
 70
   128
 71
   173
 72
   194
 73
   193
 74
   193
  0
VERTEX
  5
21B
330
54
100
AcDbEntity
  8
PREDEFINITO
100
AcDbFaceRecord
 10
0.0
 20
0.0
 30
0.0
 70
   128
 71
   174
 72
   195
 73
   194
 74
   194
  0
VERTEX
  5
21C
330
54
100
AcDbEntity
  8
PREDEFINITO
100
AcDbFaceRecord
 10
0.0
 20
0.0
 30
0.0
 70
   128
 71
   175
 72
   196
 73
   195
 74
   195
  0
VERTEX
  5
21D
330
54
100
AcDbEntity
  8
PREDEFINITO
100
AcDbFaceRecord
 10
0.0
 20
0.0
 30
0.0
 70
   128
 71
   176
 72
   197
 73
   196
 74
   196
  0
VERTEX
  5
21E
330
54
100
AcDbEntity
  8
PREDEFINITO
100
AcDbFaceRecord
 10
0.0
 20
0.0
 30
0.0
 70
   128
 71
   177
 72
   198
 73
   197
 74
   197
  0
VERTEX
  5
21F
330
54
100
AcDbEntity
  8
PREDEFINITO
100
AcDbFaceRecord
 10
0.0
 20
0.0
 30
0.0
 70
   128
 71
   178
 72
   199
 73
   198
 74
   198
  0
VERTEX
  5
220
330
54
100
AcDbEntity
  8
PREDEFINITO
100
AcDbFaceRecord
 10
0.0
 20
0.0
 30
0.0
 70
   128
 71
   179
 72
   200
 73
   199
 74
   199
  0
VERTEX
  5
221
330
54
100
AcDbEntity
  8
PREDEFINITO
100
AcDbFaceRecord
 10
0.0
 20
0.0
 30
0.0
 70
   128
 71
   180
 72
   181
 73
   200
 74
   200
  0
VERTEX
  5
222
330
54
100
AcDbEntity
  8
PREDEFINITO
100
AcDbFaceRecord
 10
0.0
 20
0.0
 30
0.0
 70
   128
 71
   181
 72
   202
 73
   201
 74
   201
  0
VERTEX
  5
223
330
54
100
AcDbEntity
  8
PREDEFINITO
100
AcDbFaceRecord
 10
0.0
 20
0.0
 30
0.0
 70
   128
 71
   182
 72
   203
 73
   202
 74
   202
  0
VERTEX
  5
224
330
54
100
AcDbEntity
  8
PREDEFINITO
100
AcDbFaceRecord
 10
0.0
 20
0.0
 30
0.0
 70
   128
 71
   183
 72
   204
 73
   203
 74
   203
  0
VERTEX
  5
225
330
54
100
AcDbEntity
  8
PREDEFINITO
100
AcDbFaceRecord
 10
0.0
 20
0.0
 30
0.0
 70
   128
 71
   184
 72
   205
 73
   204
 74
   204
  0
VERTEX
  5
226
330
54
100
AcDbEntity
  8
PREDEFINITO
100
AcDbFaceRecord
 10
0.0
 20
0.0
 30
0.0
 70
   128
 71
   185
 72
   206
 73
   205
 74
   205
  0
VERTEX
  5
227
330
54
100
AcDbEntity
  8
PREDEFINITO
100
AcDbFaceRecord
 10
0.0
 20
0.0
 30
0.0
 70
   128
 71
   186
 72
   207
 73
   206
 74
   206
  0
VERTEX
  5
228
330
54
100
AcDbEntity
  8
PREDEFINITO
100
AcDbFaceRecord
 10
0.0
 20
0.0
 30
0.0
 70
   128
 71
   187
 72
   208
 73
   207
 74
   207
  0
VERTEX
  5
229
330
54
100
AcDbEntity
  8
PREDEFINITO
100
AcDbFaceRecord
 10
0.0
 20
0.0
 30
0.0
 70
   128
 71
   188
 72
   209
 73
   208
 74
   208
  0
VERTEX
  5
22A
330
54
100
AcDbEntity
  8
PREDEFINITO
100
AcDbFaceRecord
 10
0.0
 20
0.0
 30
0.0
 70
   128
 71
   189
 72
   210
 73
   209
 74
   209
  0
VERTEX
  5
22B
330
54
100
AcDbEntity
  8
PREDEFINITO
100
AcDbFaceRecord
 10
0.0
 20
0.0
 30
0.0
 70
   128
 71
   190
 72
   211
 73
   210
 74
   210
  0
VERTEX
  5
22C
330
54
100
AcDbEntity
  8
PREDEFINITO
100
AcDbFaceRecord
 10
0.0
 20
0.0
 30
0.0
 70
   128
 71
   191
 72
   212
 73
   211
 74
   211
  0
VERTEX
  5
22D
330
54
100
AcDbEntity
  8
PREDEFINITO
100
AcDbFaceRecord
 10
0.0
 20
0.0
 30
0.0
 70
   128
 71
   192
 72
   213
 73
   212
 74
   212
  0
VERTEX
  5
22E
330
54
100
AcDbEntity
  8
PREDEFINITO
100
AcDbFaceRecord
 10
0.0
 20
0.0
 30
0.0
 70
   128
 71
   193
 72
   214
 73
   213
 74
   213
  0
VERTEX
  5
22F
330
54
100
AcDbEntity
  8
PREDEFINITO
100
AcDbFaceRecord
 10
0.0
 20
0.0
 30
0.0
 70
   128
 71
   194
 72
   215
 73
   214
 74
   214
  0
VERTEX
  5
230
330
54
100
AcDbEntity
  8
PREDEFINITO
100
AcDbFaceRecord
 10
0.0
 20
0.0
 30
0.0
 70
   128
 71
   195
 72
   216
 73
   215
 74
   215
  0
VERTEX
  5
231
330
54
100
AcDbEntity
  8
PREDEFINITO
100
AcDbFaceRecord
 10
0.0
 20
0.0
 30
0.0
 70
   128
 71
   196
 72
   217
 73
   216
 74
   216
  0
VERTEX
  5
232
330
54
100
AcDbEntity
  8
PREDEFINITO
100
AcDbFaceRecord
 10
0.0
 20
0.0
 30
0.0
 70
   128
 71
   197
 72
   218
 73
   217
 74
   217
  0
VERTEX
  5
233
330
54
100
AcDbEntity
  8
PREDEFINITO
100
AcDbFaceRecord
 10
0.0
 20
0.0
 30
0.0
 70
   128
 71
   198
 72
   219
 73
   218
 74
   218
  0
VERTEX
  5
234
330
54
100
AcDbEntity
  8
PREDEFINITO
100
AcDbFaceRecord
 10
0.0
 20
0.0
 30
0.0
 70
   128
 71
   199
 72
   220
 73
   219
 74
   219
  0
VERTEX
  5
235
330
54
100
AcDbEntity
  8
PREDEFINITO
100
AcDbFaceRecord
 10
0.0
 20
0.0
 30
0.0
 70
   128
 71
   200
 72
   201
 73
   220
 74
   220
  0
VERTEX
  5
236
330
54
100
AcDbEntity
  8
PREDEFINITO
100
AcDbFaceRecord
 10
0.0
 20
0.0
 30
0.0
 70
   128
 71
   201
 72
   222
 73
   221
 74
   221
  0
VERTEX
  5
237
330
54
100
AcDbEntity
  8
PREDEFINITO
100
AcDbFaceRecord
 10
0.0
 20
0.0
 30
0.0
 70
   128
 71
   202
 72
   223
 73
   222
 74
   222
  0
VERTEX
  5
238
330
54
100
AcDbEntity
  8
PREDEFINITO
100
AcDbFaceRecord
 10
0.0
 20
0.0
 30
0.0
 70
   128
 71
   203
 72
   224
 73
   223
 74
   223
  0
VERTEX
  5
239
330
54
100
AcDbEntity
  8
PREDEFINITO
100
AcDbFaceRecord
 10
0.0
 20
0.0
 30
0.0
 70
   128
 71
   204
 72
   225
 73
   224
 74
   224
  0
VERTEX
  5
23A
330
54
100
AcDbEntity
  8
PREDEFINITO
100
AcDbFaceRecord
 10
0.0
 20
0.0
 30
0.0
 70
   128
 71
   205
 72
   226
 73
   225
 74
   225
  0
VERTEX
  5
23B
330
54
100
AcDbEntity
  8
PREDEFINITO
100
AcDbFaceRecord
 10
0.0
 20
0.0
 30
0.0
 70
   128
 71
   206
 72
   227
 73
   226
 74
   226
  0
VERTEX
  5
23C
330
54
100
AcDbEntity
  8
PREDEFINITO
100
AcDbFaceRecord
 10
0.0
 20
0.0
 30
0.0
 70
   128
 71
   207
 72
   228
 73
   227
 74
   227
  0
VERTEX
  5
23D
330
54
100
AcDbEntity
  8
PREDEFINITO
100
AcDbFaceRecord
 10
0.0
 20
0.0
 30
0.0
 70
   128
 71
   208
 72
   229
 73
   228
 74
   228
  0
VERTEX
  5
23E
330
54
100
AcDbEntity
  8
PREDEFINITO
100
AcDbFaceRecord
 10
0.0
 20
0.0
 30
0.0
 70
   128
 71
   209
 72
   230
 73
   229
 74
   229
  0
VERTEX
  5
23F
330
54
100
AcDbEntity
  8
PREDEFINITO
100
AcDbFaceRecord
 10
0.0
 20
0.0
 30
0.0
 70
   128
 71
   210
 72
   231
 73
   230
 74
   230
  0
VERTEX
  5
240
330
54
100
AcDbEntity
  8
PREDEFINITO
100
AcDbFaceRecord
 10
0.0
 20
0.0
 30
0.0
 70
   128
 71
   211
 72
   232
 73
   231
 74
   231
  0
VERTEX
  5
241
330
54
100
AcDbEntity
  8
PREDEFINITO
100
AcDbFaceRecord
 10
0.0
 20
0.0
 30
0.0
 70
   128
 71
   212
 72
   233
 73
   232
 74
   232
  0
VERTEX
  5
242
330
54
100
AcDbEntity
  8
PREDEFINITO
100
AcDbFaceRecord
 10
0.0
 20
0.0
 30
0.0
 70
   128
 71
   213
 72
   234
 73
   233
 74
   233
  0
VERTEX
  5
243
330
54
100
AcDbEntity
  8
PREDEFINITO
100
AcDbFaceRecord
 10
0.0
 20
0.0
 30
0.0
 70
   128
 71
   214
 72
   235
 73
   234
 74
   234
  0
VERTEX
  5
244
330
54
100
AcDbEntity
  8
PREDEFINITO
100
AcDbFaceRecord
 10
0.0
 20
0.0
 30
0.0
 70
   128
 71
   215
 72
   236
 73
   235
 74
   235
  0
VERTEX
  5
245
330
54
100
AcDbEntity
  8
PREDEFINITO
100
AcDbFaceRecord
 10
0.0
 20
0.0
 30
0.0
 70
   128
 71
   216
 72
   237
 73
   236
 74
   236
  0
VERTEX
  5
246
330
54
100
AcDbEntity
  8
PREDEFINITO
100
AcDbFaceRecord
 10
0.0
 20
0.0
 30
0.0
 70
   128
 71
   217
 72
   238
 73
   237
 74
   237
  0
VERTEX
  5
247
330
54
100
AcDbEntity
  8
PREDEFINITO
100
AcDbFaceRecord
 10
0.0
 20
0.0
 30
0.0
 70
   128
 71
   218
 72
   239
 73
   238
 74
   238
  0
VERTEX
  5
248
330
54
100
AcDbEntity
  8
PREDEFINITO
100
AcDbFaceRecord
 10
0.0
 20
0.0
 30
0.0
 70
   128
 71
   219
 72
   240
 73
   239
 74
   239
  0
VERTEX
  5
249
330
54
100
AcDbEntity
  8
PREDEFINITO
100
AcDbFaceRecord
 10
0.0
 20
0.0
 30
0.0
 70
   128
 71
   220
 72
   221
 73
   240
 74
   240
  0
VERTEX
  5
24A
330
54
100
AcDbEntity
  8
PREDEFINITO
100
AcDbFaceRecord
 10
0.0
 20
0.0
 30
0.0
 70
   128
 71
   221
 72
   242
 73
   241
 74
   241
  0
VERTEX
  5
24B
330
54
100
AcDbEntity
  8
PREDEFINITO
100
AcDbFaceRecord
 10
0.0
 20
0.0
 30
0.0
 70
   128
 71
   222
 72
   243
 73
   242
 74
   242
  0
VERTEX
  5
24C
330
54
100
AcDbEntity
  8
PREDEFINITO
100
AcDbFaceRecord
 10
0.0
 20
0.0
 30
0.0
 70
   128
 71
   223
 72
   244
 73
   243
 74
   243
  0
VERTEX
  5
24D
330
54
100
AcDbEntity
  8
PREDEFINITO
100
AcDbFaceRecord
 10
0.0
 20
0.0
 30
0.0
 70
   128
 71
   224
 72
   245
 73
   244
 74
   244
  0
VERTEX
  5
24E
330
54
100
AcDbEntity
  8
PREDEFINITO
100
AcDbFaceRecord
 10
0.0
 20
0.0
 30
0.0
 70
   128
 71
   225
 72
   246
 73
   245
 74
   245
  0
VERTEX
  5
24F
330
54
100
AcDbEntity
  8
PREDEFINITO
100
AcDbFaceRecord
 10
0.0
 20
0.0
 30
0.0
 70
   128
 71
   226
 72
   247
 73
   246
 74
   246
  0
VERTEX
  5
250
330
54
100
AcDbEntity
  8
PREDEFINITO
100
AcDbFaceRecord
 10
0.0
 20
0.0
 30
0.0
 70
   128
 71
   227
 72
   248
 73
   247
 74
   247
  0
VERTEX
  5
251
330
54
100
AcDbEntity
  8
PREDEFINITO
100
AcDbFaceRecord
 10
0.0
 20
0.0
 30
0.0
 70
   128
 71
   228
 72
   249
 73
   248
 74
   248
  0
VERTEX
  5
252
330
54
100
AcDbEntity
  8
PREDEFINITO
100
AcDbFaceRecord
 10
0.0
 20
0.0
 30
0.0
 70
   128
 71
   229
 72
   250
 73
   249
 74
   249
  0
VERTEX
  5
253
330
54
100
AcDbEntity
  8
PREDEFINITO
100
AcDbFaceRecord
 10
0.0
 20
0.0
 30
0.0
 70
   128
 71
   230
 72
   251
 73
   250
 74
   250
  0
VERTEX
  5
254
330
54
100
AcDbEntity
  8
PREDEFINITO
100
AcDbFaceRecord
 10
0.0
 20
0.0
 30
0.0
 70
   128
 71
   231
 72
   252
 73
   251
 74
   251
  0
VERTEX
  5
255
330
54
100
AcDbEntity
  8
PREDEFINITO
100
AcDbFaceRecord
 10
0.0
 20
0.0
 30
0.0
 70
   128
 71
   232
 72
   253
 73
   252
 74
   252
  0
VERTEX
  5
256
330
54
100
AcDbEntity
  8
PREDEFINITO
100
AcDbFaceRecord
 10
0.0
 20
0.0
 30
0.0
 70
   128
 71
   233
 72
   254
 73
   253
 74
   253
  0
VERTEX
  5
257
330
54
100
AcDbEntity
  8
PREDEFINITO
100
AcDbFaceRecord
 10
0.0
 20
0.0
 30
0.0
 70
   128
 71
   234
 72
   255
 73
   254
 74
   254
  0
VERTEX
  5
258
330
54
100
AcDbEntity
  8
PREDEFINITO
100
AcDbFaceRecord
 10
0.0
 20
0.0
 30
0.0
 70
   128
 71
   235
 72
   256
 73
   255
 74
   255
  0
VERTEX
  5
259
330
54
100
AcDbEntity
  8
PREDEFINITO
100
AcDbFaceRecord
 10
0.0
 20
0.0
 30
0.0
 70
   128
 71
   236
 72
   257
 73
   256
 74
   256
  0
VERTEX
  5
25A
330
54
100
AcDbEntity
  8
PREDEFINITO
100
AcDbFaceRecord
 10
0.0
 20
0.0
 30
0.0
 70
   128
 71
   237
 72
   258
 73
   257
 74
   257
  0
VERTEX
  5
25B
330
54
100
AcDbEntity
  8
PREDEFINITO
100
AcDbFaceRecord
 10
0.0
 20
0.0
 30
0.0
 70
   128
 71
   238
 72
   259
 73
   258
 74
   258
  0
VERTEX
  5
25C
330
54
100
AcDbEntity
  8
PREDEFINITO
100
AcDbFaceRecord
 10
0.0
 20
0.0
 30
0.0
 70
   128
 71
   239
 72
   260
 73
   259
 74
   259
  0
VERTEX
  5
25D
330
54
100
AcDbEntity
  8
PREDEFINITO
100
AcDbFaceRecord
 10
0.0
 20
0.0
 30
0.0
 70
   128
 71
   240
 72
   241
 73
   260
 74
   260
  0
VERTEX
  5
25E
330
54
100
AcDbEntity
  8
PREDEFINITO
100
AcDbFaceRecord
 10
0.0
 20
0.0
 30
0.0
 70
   128
 71
   241
 72
   262
 73
   261
 74
   261
  0
VERTEX
  5
25F
330
54
100
AcDbEntity
  8
PREDEFINITO
100
AcDbFaceRecord
 10
0.0
 20
0.0
 30
0.0
 70
   128
 71
   242
 72
   263
 73
   262
 74
   262
  0
VERTEX
  5
260
330
54
100
AcDbEntity
  8
PREDEFINITO
100
AcDbFaceRecord
 10
0.0
 20
0.0
 30
0.0
 70
   128
 71
   243
 72
   264
 73
   263
 74
   263
  0
VERTEX
  5
261
330
54
100
AcDbEntity
  8
PREDEFINITO
100
AcDbFaceRecord
 10
0.0
 20
0.0
 30
0.0
 70
   128
 71
   244
 72
   265
 73
   264
 74
   264
  0
VERTEX
  5
262
330
54
100
AcDbEntity
  8
PREDEFINITO
100
AcDbFaceRecord
 10
0.0
 20
0.0
 30
0.0
 70
   128
 71
   245
 72
   266
 73
   265
 74
   265
  0
VERTEX
  5
263
330
54
100
AcDbEntity
  8
PREDEFINITO
100
AcDbFaceRecord
 10
0.0
 20
0.0
 30
0.0
 70
   128
 71
   246
 72
   267
 73
   266
 74
   266
  0
VERTEX
  5
264
330
54
100
AcDbEntity
  8
PREDEFINITO
100
AcDbFaceRecord
 10
0.0
 20
0.0
 30
0.0
 70
   128
 71
   247
 72
   268
 73
   267
 74
   267
  0
VERTEX
  5
265
330
54
100
AcDbEntity
  8
PREDEFINITO
100
AcDbFaceRecord
 10
0.0
 20
0.0
 30
0.0
 70
   128
 71
   248
 72
   269
 73
   268
 74
   268
  0
VERTEX
  5
266
330
54
100
AcDbEntity
  8
PREDEFINITO
100
AcDbFaceRecord
 10
0.0
 20
0.0
 30
0.0
 70
   128
 71
   249
 72
   270
 73
   269
 74
   269
  0
VERTEX
  5
267
330
54
100
AcDbEntity
  8
PREDEFINITO
100
AcDbFaceRecord
 10
0.0
 20
0.0
 30
0.0
 70
   128
 71
   250
 72
   271
 73
   270
 74
   270
  0
VERTEX
  5
268
330
54
100
AcDbEntity
  8
PREDEFINITO
100
AcDbFaceRecord
 10
0.0
 20
0.0
 30
0.0
 70
   128
 71
   251
 72
   272
 73
   271
 74
   271
  0
VERTEX
  5
269
330
54
100
AcDbEntity
  8
PREDEFINITO
100
AcDbFaceRecord
 10
0.0
 20
0.0
 30
0.0
 70
   128
 71
   252
 72
   273
 73
   272
 74
   272
  0
VERTEX
  5
26A
330
54
100
AcDbEntity
  8
PREDEFINITO
100
AcDbFaceRecord
 10
0.0
 20
0.0
 30
0.0
 70
   128
 71
   253
 72
   274
 73
   273
 74
   273
  0
VERTEX
  5
26B
330
54
100
AcDbEntity
  8
PREDEFINITO
100
AcDbFaceRecord
 10
0.0
 20
0.0
 30
0.0
 70
   128
 71
   254
 72
   275
 73
   274
 74
   274
  0
VERTEX
  5
26C
330
54
100
AcDbEntity
  8
PREDEFINITO
100
AcDbFaceRecord
 10
0.0
 20
0.0
 30
0.0
 70
   128
 71
   255
 72
   276
 73
   275
 74
   275
  0
VERTEX
  5
26D
330
54
100
AcDbEntity
  8
PREDEFINITO
100
AcDbFaceRecord
 10
0.0
 20
0.0
 30
0.0
 70
   128
 71
   256
 72
   277
 73
   276
 74
   276
  0
VERTEX
  5
26E
330
54
100
AcDbEntity
  8
PREDEFINITO
100
AcDbFaceRecord
 10
0.0
 20
0.0
 30
0.0
 70
   128
 71
   257
 72
   278
 73
   277
 74
   277
  0
VERTEX
  5
26F
330
54
100
AcDbEntity
  8
PREDEFINITO
100
AcDbFaceRecord
 10
0.0
 20
0.0
 30
0.0
 70
   128
 71
   258
 72
   279
 73
   278
 74
   278
  0
VERTEX
  5
270
330
54
100
AcDbEntity
  8
PREDEFINITO
100
AcDbFaceRecord
 10
0.0
 20
0.0
 30
0.0
 70
   128
 71
   259
 72
   280
 73
   279
 74
   279
  0
VERTEX
  5
271
330
54
100
AcDbEntity
  8
PREDEFINITO
100
AcDbFaceRecord
 10
0.0
 20
0.0
 30
0.0
 70
   128
 71
   260
 72
   261
 73
   280
 74
   280
  0
VERTEX
  5
272
330
54
100
AcDbEntity
  8
PREDEFINITO
100
AcDbFaceRecord
 10
0.0
 20
0.0
 30
0.0
 70
   128
 71
     1
 72
     2
 73
    22
 74
    22
  0
VERTEX
  5
273
330
54
100
AcDbEntity
  8
PREDEFINITO
100
AcDbFaceRecord
 10
0.0
 20
0.0
 30
0.0
 70
   128
 71
     2
 72
     3
 73
    23
 74
    23
  0
VERTEX
  5
274
330
54
100
AcDbEntity
  8
PREDEFINITO
100
AcDbFaceRecord
 10
0.0
 20
0.0
 30
0.0
 70
   128
 71
     3
 72
     4
 73
    24
 74
    24
  0
VERTEX
  5
275
330
54
100
AcDbEntity
  8
PREDEFINITO
100
AcDbFaceRecord
 10
0.0
 20
0.0
 30
0.0
 70
   128
 71
     4
 72
     5
 73
    25
 74
    25
  0
VERTEX
  5
276
330
54
100
AcDbEntity
  8
PREDEFINITO
100
AcDbFaceRecord
 10
0.0
 20
0.0
 30
0.0
 70
   128
 71
     5
 72
     6
 73
    26
 74
    26
  0
VERTEX
  5
277
330
54
100
AcDbEntity
  8
PREDEFINITO
100
AcDbFaceRecord
 10
0.0
 20
0.0
 30
0.0
 70
   128
 71
     6
 72
     7
 73
    27
 74
    27
  0
VERTEX
  5
278
330
54
100
AcDbEntity
  8
PREDEFINITO
100
AcDbFaceRecord
 10
0.0
 20
0.0
 30
0.0
 70
   128
 71
     7
 72
     8
 73
    28
 74
    28
  0
VERTEX
  5
279
330
54
100
AcDbEntity
  8
PREDEFINITO
100
AcDbFaceRecord
 10
0.0
 20
0.0
 30
0.0
 70
   128
 71
     8
 72
     9
 73
    29
 74
    29
  0
VERTEX
  5
27A
330
54
100
AcDbEntity
  8
PREDEFINITO
100
AcDbFaceRecord
 10
0.0
 20
0.0
 30
0.0
 70
   128
 71
     9
 72
    10
 73
    30
 74
    30
  0
VERTEX
  5
27B
330
54
100
AcDbEntity
  8
PREDEFINITO
100
AcDbFaceRecord
 10
0.0
 20
0.0
 30
0.0
 70
   128
 71
    10
 72
    11
 73
    31
 74
    31
  0
VERTEX
  5
27C
330
54
100
AcDbEntity
  8
PREDEFINITO
100
AcDbFaceRecord
 10
0.0
 20
0.0
 30
0.0
 70
   128
 71
    11
 72
    12
 73
    32
 74
    32
  0
VERTEX
  5
27D
330
54
100
AcDbEntity
  8
PREDEFINITO
100
AcDbFaceRecord
 10
0.0
 20
0.0
 30
0.0
 70
   128
 71
    12
 72
    13
 73
    33
 74
    33
  0
VERTEX
  5
27E
330
54
100
AcDbEntity
  8
PREDEFINITO
100
AcDbFaceRecord
 10
0.0
 20
0.0
 30
0.0
 70
   128
 71
    13
 72
    14
 73
    34
 74
    34
  0
VERTEX
  5
27F
330
54
100
AcDbEntity
  8
PREDEFINITO
100
AcDbFaceRecord
 10
0.0
 20
0.0
 30
0.0
 70
   128
 71
    14
 72
    15
 73
    35
 74
    35
  0
VERTEX
  5
280
330
54
100
AcDbEntity
  8
PREDEFINITO
100
AcDbFaceRecord
 10
0.0
 20
0.0
 30
0.0
 70
   128
 71
    15
 72
    16
 73
    36
 74
    36
  0
VERTEX
  5
281
330
54
100
AcDbEntity
  8
PREDEFINITO
100
AcDbFaceRecord
 10
0.0
 20
0.0
 30
0.0
 70
   128
 71
    16
 72
    17
 73
    37
 74
    37
  0
VERTEX
  5
282
330
54
100
AcDbEntity
  8
PREDEFINITO
100
AcDbFaceRecord
 10
0.0
 20
0.0
 30
0.0
 70
   128
 71
    17
 72
    18
 73
    38
 74
    38
  0
VERTEX
  5
283
330
54
100
AcDbEntity
  8
PREDEFINITO
100
AcDbFaceRecord
 10
0.0
 20
0.0
 30
0.0
 70
   128
 71
    18
 72
    19
 73
    39
 74
    39
  0
VERTEX
  5
284
330
54
100
AcDbEntity
  8
PREDEFINITO
100
AcDbFaceRecord
 10
0.0
 20
0.0
 30
0.0
 70
   128
 71
    19
 72
    20
 73
    40
 74
    40
  0
VERTEX
  5
285
330
54
100
AcDbEntity
  8
PREDEFINITO
100
AcDbFaceRecord
 10
0.0
 20
0.0
 30
0.0
 70
   128
 71
    20
 72
     1
 73
    21
 74
    21
  0
VERTEX
  5
286
330
54
100
AcDbEntity
  8
PREDEFINITO
100
AcDbFaceRecord
 10
0.0
 20
0.0
 30
0.0
 70
   128
 71
    21
 72
    22
 73
    42
 74
    42
  0
VERTEX
  5
287
330
54
100
AcDbEntity
  8
PREDEFINITO
100
AcDbFaceRecord
 10
0.0
 20
0.0
 30
0.0
 70
   128
 71
    22
 72
    23
 73
    43
 74
    43
  0
VERTEX
  5
288
330
54
100
AcDbEntity
  8
PREDEFINITO
100
AcDbFaceRecord
 10
0.0
 20
0.0
 30
0.0
 70
   128
 71
    23
 72
    24
 73
    44
 74
    44
  0
VERTEX
  5
289
330
54
100
AcDbEntity
  8
PREDEFINITO
100
AcDbFaceRecord
 10
0.0
 20
0.0
 30
0.0
 70
   128
 71
    24
 72
    25
 73
    45
 74
    45
  0
VERTEX
  5
28A
330
54
100
AcDbEntity
  8
PREDEFINITO
100
AcDbFaceRecord
 10
0.0
 20
0.0
 30
0.0
 70
   128
 71
    25
 72
    26
 73
    46
 74
    46
  0
VERTEX
  5
28B
330
54
100
AcDbEntity
  8
PREDEFINITO
100
AcDbFaceRecord
 10
0.0
 20
0.0
 30
0.0
 70
   128
 71
    26
 72
    27
 73
    47
 74
    47
  0
VERTEX
  5
28C
330
54
100
AcDbEntity
  8
PREDEFINITO
100
AcDbFaceRecord
 10
0.0
 20
0.0
 30
0.0
 70
   128
 71
    27
 72
    28
 73
    48
 74
    48
  0
VERTEX
  5
28D
330
54
100
AcDbEntity
  8
PREDEFINITO
100
AcDbFaceRecord
 10
0.0
 20
0.0
 30
0.0
 70
   128
 71
    28
 72
    29
 73
    49
 74
    49
  0
VERTEX
  5
28E
330
54
100
AcDbEntity
  8
PREDEFINITO
100
AcDbFaceRecord
 10
0.0
 20
0.0
 30
0.0
 70
   128
 71
    29
 72
    30
 73
    50
 74
    50
  0
VERTEX
  5
28F
330
54
100
AcDbEntity
  8
PREDEFINITO
100
AcDbFaceRecord
 10
0.0
 20
0.0
 30
0.0
 70
   128
 71
    30
 72
    31
 73
    51
 74
    51
  0
VERTEX
  5
290
330
54
100
AcDbEntity
  8
PREDEFINITO
100
AcDbFaceRecord
 10
0.0
 20
0.0
 30
0.0
 70
   128
 71
    31
 72
    32
 73
    52
 74
    52
  0
VERTEX
  5
291
330
54
100
AcDbEntity
  8
PREDEFINITO
100
AcDbFaceRecord
 10
0.0
 20
0.0
 30
0.0
 70
   128
 71
    32
 72
    33
 73
    53
 74
    53
  0
VERTEX
  5
292
330
54
100
AcDbEntity
  8
PREDEFINITO
100
AcDbFaceRecord
 10
0.0
 20
0.0
 30
0.0
 70
   128
 71
    33
 72
    34
 73
    54
 74
    54
  0
VERTEX
  5
293
330
54
100
AcDbEntity
  8
PREDEFINITO
100
AcDbFaceRecord
 10
0.0
 20
0.0
 30
0.0
 70
   128
 71
    34
 72
    35
 73
    55
 74
    55
  0
VERTEX
  5
294
330
54
100
AcDbEntity
  8
PREDEFINITO
100
AcDbFaceRecord
 10
0.0
 20
0.0
 30
0.0
 70
   128
 71
    35
 72
    36
 73
    56
 74
    56
  0
VERTEX
  5
295
330
54
100
AcDbEntity
  8
PREDEFINITO
100
AcDbFaceRecord
 10
0.0
 20
0.0
 30
0.0
 70
   128
 71
    36
 72
    37
 73
    57
 74
    57
  0
VERTEX
  5
296
330
54
100
AcDbEntity
  8
PREDEFINITO
100
AcDbFaceRecord
 10
0.0
 20
0.0
 30
0.0
 70
   128
 71
    37
 72
    38
 73
    58
 74
    58
  0
VERTEX
  5
297
330
54
100
AcDbEntity
  8
PREDEFINITO
100
AcDbFaceRecord
 10
0.0
 20
0.0
 30
0.0
 70
   128
 71
    38
 72
    39
 73
    59
 74
    59
  0
VERTEX
  5
298
330
54
100
AcDbEntity
  8
PREDEFINITO
100
AcDbFaceRecord
 10
0.0
 20
0.0
 30
0.0
 70
   128
 71
    39
 72
    40
 73
    60
 74
    60
  0
VERTEX
  5
299
330
54
100
AcDbEntity
  8
PREDEFINITO
100
AcDbFaceRecord
 10
0.0
 20
0.0
 30
0.0
 70
   128
 71
    40
 72
    21
 73
    41
 74
    41
  0
VERTEX
  5
29A
330
54
100
AcDbEntity
  8
PREDEFINITO
100
AcDbFaceRecord
 10
0.0
 20
0.0
 30
0.0
 70
   128
 71
    41
 72
    42
 73
    62
 74
    62
  0
VERTEX
  5
29B
330
54
100
AcDbEntity
  8
PREDEFINITO
100
AcDbFaceRecord
 10
0.0
 20
0.0
 30
0.0
 70
   128
 71
    42
 72
    43
 73
    63
 74
    63
  0
VERTEX
  5
29C
330
54
100
AcDbEntity
  8
PREDEFINITO
100
AcDbFaceRecord
 10
0.0
 20
0.0
 30
0.0
 70
   128
 71
    43
 72
    44
 73
    64
 74
    64
  0
VERTEX
  5
29D
330
54
100
AcDbEntity
  8
PREDEFINITO
100
AcDbFaceRecord
 10
0.0
 20
0.0
 30
0.0
 70
   128
 71
    44
 72
    45
 73
    65
 74
    65
  0
VERTEX
  5
29E
330
54
100
AcDbEntity
  8
PREDEFINITO
100
AcDbFaceRecord
 10
0.0
 20
0.0
 30
0.0
 70
   128
 71
    45
 72
    46
 73
    66
 74
    66
  0
VERTEX
  5
29F
330
54
100
AcDbEntity
  8
PREDEFINITO
100
AcDbFaceRecord
 10
0.0
 20
0.0
 30
0.0
 70
   128
 71
    46
 72
    47
 73
    67
 74
    67
  0
VERTEX
  5
2A0
330
54
100
AcDbEntity
  8
PREDEFINITO
100
AcDbFaceRecord
 10
0.0
 20
0.0
 30
0.0
 70
   128
 71
    47
 72
    48
 73
    68
 74
    68
  0
VERTEX
  5
2A1
330
54
100
AcDbEntity
  8
PREDEFINITO
100
AcDbFaceRecord
 10
0.0
 20
0.0
 30
0.0
 70
   128
 71
    48
 72
    49
 73
    69
 74
    69
  0
VERTEX
  5
2A2
330
54
100
AcDbEntity
  8
PREDEFINITO
100
AcDbFaceRecord
 10
0.0
 20
0.0
 30
0.0
 70
   128
 71
    49
 72
    50
 73
    70
 74
    70
  0
VERTEX
  5
2A3
330
54
100
AcDbEntity
  8
PREDEFINITO
100
AcDbFaceRecord
 10
0.0
 20
0.0
 30
0.0
 70
   128
 71
    50
 72
    51
 73
    71
 74
    71
  0
VERTEX
  5
2A4
330
54
100
AcDbEntity
  8
PREDEFINITO
100
AcDbFaceRecord
 10
0.0
 20
0.0
 30
0.0
 70
   128
 71
    51
 72
    52
 73
    72
 74
    72
  0
VERTEX
  5
2A5
330
54
100
AcDbEntity
  8
PREDEFINITO
100
AcDbFaceRecord
 10
0.0
 20
0.0
 30
0.0
 70
   128
 71
    52
 72
    53
 73
    73
 74
    73
  0
VERTEX
  5
2A6
330
54
100
AcDbEntity
  8
PREDEFINITO
100
AcDbFaceRecord
 10
0.0
 20
0.0
 30
0.0
 70
   128
 71
    53
 72
    54
 73
    74
 74
    74
  0
VERTEX
  5
2A7
330
54
100
AcDbEntity
  8
PREDEFINITO
100
AcDbFaceRecord
 10
0.0
 20
0.0
 30
0.0
 70
   128
 71
    54
 72
    55
 73
    75
 74
    75
  0
VERTEX
  5
2A8
330
54
100
AcDbEntity
  8
PREDEFINITO
100
AcDbFaceRecord
 10
0.0
 20
0.0
 30
0.0
 70
   128
 71
    55
 72
    56
 73
    76
 74
    76
  0
VERTEX
  5
2A9
330
54
100
AcDbEntity
  8
PREDEFINITO
100
AcDbFaceRecord
 10
0.0
 20
0.0
 30
0.0
 70
   128
 71
    56
 72
    57
 73
    77
 74
    77
  0
VERTEX
  5
2AA
330
54
100
AcDbEntity
  8
PREDEFINITO
100
AcDbFaceRecord
 10
0.0
 20
0.0
 30
0.0
 70
   128
 71
    57
 72
    58
 73
    78
 74
    78
  0
VERTEX
  5
2AB
330
54
100
AcDbEntity
  8
PREDEFINITO
100
AcDbFaceRecord
 10
0.0
 20
0.0
 30
0.0
 70
   128
 71
    58
 72
    59
 73
    79
 74
    79
  0
VERTEX
  5
2AC
330
54
100
AcDbEntity
  8
PREDEFINITO
100
AcDbFaceRecord
 10
0.0
 20
0.0
 30
0.0
 70
   128
 71
    59
 72
    60
 73
    80
 74
    80
  0
VERTEX
  5
2AD
330
54
100
AcDbEntity
  8
PREDEFINITO
100
AcDbFaceRecord
 10
0.0
 20
0.0
 30
0.0
 70
   128
 71
    60
 72
    41
 73
    61
 74
    61
  0
VERTEX
  5
2AE
330
54
100
AcDbEntity
  8
PREDEFINITO
100
AcDbFaceRecord
 10
0.0
 20
0.0
 30
0.0
 70
   128
 71
    61
 72
    62
 73
    82
 74
    82
  0
VERTEX
  5
2AF
330
54
100
AcDbEntity
  8
PREDEFINITO
100
AcDbFaceRecord
 10
0.0
 20
0.0
 30
0.0
 70
   128
 71
    62
 72
    63
 73
    83
 74
    83
  0
VERTEX
  5
2B0
330
54
100
AcDbEntity
  8
PREDEFINITO
100
AcDbFaceRecord
 10
0.0
 20
0.0
 30
0.0
 70
   128
 71
    63
 72
    64
 73
    84
 74
    84
  0
VERTEX
  5
2B1
330
54
100
AcDbEntity
  8
PREDEFINITO
100
AcDbFaceRecord
 10
0.0
 20
0.0
 30
0.0
 70
   128
 71
    64
 72
    65
 73
    85
 74
    85
  0
VERTEX
  5
2B2
330
54
100
AcDbEntity
  8
PREDEFINITO
100
AcDbFaceRecord
 10
0.0
 20
0.0
 30
0.0
 70
   128
 71
    65
 72
    66
 73
    86
 74
    86
  0
VERTEX
  5
2B3
330
54
100
AcDbEntity
  8
PREDEFINITO
100
AcDbFaceRecord
 10
0.0
 20
0.0
 30
0.0
 70
   128
 71
    66
 72
    67
 73
    87
 74
    87
  0
VERTEX
  5
2B4
330
54
100
AcDbEntity
  8
PREDEFINITO
100
AcDbFaceRecord
 10
0.0
 20
0.0
 30
0.0
 70
   128
 71
    67
 72
    68
 73
    88
 74
    88
  0
VERTEX
  5
2B5
330
54
100
AcDbEntity
  8
PREDEFINITO
100
AcDbFaceRecord
 10
0.0
 20
0.0
 30
0.0
 70
   128
 71
    68
 72
    69
 73
    89
 74
    89
  0
VERTEX
  5
2B6
330
54
100
AcDbEntity
  8
PREDEFINITO
100
AcDbFaceRecord
 10
0.0
 20
0.0
 30
0.0
 70
   128
 71
    69
 72
    70
 73
    90
 74
    90
  0
VERTEX
  5
2B7
330
54
100
AcDbEntity
  8
PREDEFINITO
100
AcDbFaceRecord
 10
0.0
 20
0.0
 30
0.0
 70
   128
 71
    70
 72
    71
 73
    91
 74
    91
  0
VERTEX
  5
2B8
330
54
100
AcDbEntity
  8
PREDEFINITO
100
AcDbFaceRecord
 10
0.0
 20
0.0
 30
0.0
 70
   128
 71
    71
 72
    72
 73
    92
 74
    92
  0
VERTEX
  5
2B9
330
54
100
AcDbEntity
  8
PREDEFINITO
100
AcDbFaceRecord
 10
0.0
 20
0.0
 30
0.0
 70
   128
 71
    72
 72
    73
 73
    93
 74
    93
  0
VERTEX
  5
2BA
330
54
100
AcDbEntity
  8
PREDEFINITO
100
AcDbFaceRecord
 10
0.0
 20
0.0
 30
0.0
 70
   128
 71
    73
 72
    74
 73
    94
 74
    94
  0
VERTEX
  5
2BB
330
54
100
AcDbEntity
  8
PREDEFINITO
100
AcDbFaceRecord
 10
0.0
 20
0.0
 30
0.0
 70
   128
 71
    74
 72
    75
 73
    95
 74
    95
  0
VERTEX
  5
2BC
330
54
100
AcDbEntity
  8
PREDEFINITO
100
AcDbFaceRecord
 10
0.0
 20
0.0
 30
0.0
 70
   128
 71
    75
 72
    76
 73
    96
 74
    96
  0
VERTEX
  5
2BD
330
54
100
AcDbEntity
  8
PREDEFINITO
100
AcDbFaceRecord
 10
0.0
 20
0.0
 30
0.0
 70
   128
 71
    76
 72
    77
 73
    97
 74
    97
  0
VERTEX
  5
2BE
330
54
100
AcDbEntity
  8
PREDEFINITO
100
AcDbFaceRecord
 10
0.0
 20
0.0
 30
0.0
 70
   128
 71
    77
 72
    78
 73
    98
 74
    98
  0
VERTEX
  5
2BF
330
54
100
AcDbEntity
  8
PREDEFINITO
100
AcDbFaceRecord
 10
0.0
 20
0.0
 30
0.0
 70
   128
 71
    78
 72
    79
 73
    99
 74
    99
  0
VERTEX
  5
2C0
330
54
100
AcDbEntity
  8
PREDEFINITO
100
AcDbFaceRecord
 10
0.0
 20
0.0
 30
0.0
 70
   128
 71
    79
 72
    80
 73
   100
 74
   100
  0
VERTEX
  5
2C1
330
54
100
AcDbEntity
  8
PREDEFINITO
100
AcDbFaceRecord
 10
0.0
 20
0.0
 30
0.0
 70
   128
 71
    80
 72
    61
 73
    81
 74
    81
  0
VERTEX
  5
2C2
330
54
100
AcDbEntity
  8
PREDEFINITO
100
AcDbFaceRecord
 10
0.0
 20
0.0
 30
0.0
 70
   128
 71
    81
 72
    82
 73
   102
 74
   102
  0
VERTEX
  5
2C3
330
54
100
AcDbEntity
  8
PREDEFINITO
100
AcDbFaceRecord
 10
0.0
 20
0.0
 30
0.0
 70
   128
 71
    82
 72
    83
 73
   103
 74
   103
  0
VERTEX
  5
2C4
330
54
100
AcDbEntity
  8
PREDEFINITO
100
AcDbFaceRecord
 10
0.0
 20
0.0
 30
0.0
 70
   128
 71
    83
 72
    84
 73
   104
 74
   104
  0
VERTEX
  5
2C5
330
54
100
AcDbEntity
  8
PREDEFINITO
100
AcDbFaceRecord
 10
0.0
 20
0.0
 30
0.0
 70
   128
 71
    84
 72
    85
 73
   105
 74
   105
  0
VERTEX
  5
2C6
330
54
100
AcDbEntity
  8
PREDEFINITO
100
AcDbFaceRecord
 10
0.0
 20
0.0
 30
0.0
 70
   128
 71
    85
 72
    86
 73
   106
 74
   106
  0
VERTEX
  5
2C7
330
54
100
AcDbEntity
  8
PREDEFINITO
100
AcDbFaceRecord
 10
0.0
 20
0.0
 30
0.0
 70
   128
 71
    86
 72
    87
 73
   107
 74
   107
  0
VERTEX
  5
2C8
330
54
100
AcDbEntity
  8
PREDEFINITO
100
AcDbFaceRecord
 10
0.0
 20
0.0
 30
0.0
 70
   128
 71
    87
 72
    88
 73
   108
 74
   108
  0
VERTEX
  5
2C9
330
54
100
AcDbEntity
  8
PREDEFINITO
100
AcDbFaceRecord
 10
0.0
 20
0.0
 30
0.0
 70
   128
 71
    88
 72
    89
 73
   109
 74
   109
  0
VERTEX
  5
2CA
330
54
100
AcDbEntity
  8
PREDEFINITO
100
AcDbFaceRecord
 10
0.0
 20
0.0
 30
0.0
 70
   128
 71
    89
 72
    90
 73
   110
 74
   110
  0
VERTEX
  5
2CB
330
54
100
AcDbEntity
  8
PREDEFINITO
100
AcDbFaceRecord
 10
0.0
 20
0.0
 30
0.0
 70
   128
 71
    90
 72
    91
 73
   111
 74
   111
  0
VERTEX
  5
2CC
330
54
100
AcDbEntity
  8
PREDEFINITO
100
AcDbFaceRecord
 10
0.0
 20
0.0
 30
0.0
 70
   128
 71
    91
 72
    92
 73
   112
 74
   112
  0
VERTEX
  5
2CD
330
54
100
AcDbEntity
  8
PREDEFINITO
100
AcDbFaceRecord
 10
0.0
 20
0.0
 30
0.0
 70
   128
 71
    92
 72
    93
 73
   113
 74
   113
  0
VERTEX
  5
2CE
330
54
100
AcDbEntity
  8
PREDEFINITO
100
AcDbFaceRecord
 10
0.0
 20
0.0
 30
0.0
 70
   128
 71
    93
 72
    94
 73
   114
 74
   114
  0
VERTEX
  5
2CF
330
54
100
AcDbEntity
  8
PREDEFINITO
100
AcDbFaceRecord
 10
0.0
 20
0.0
 30
0.0
 70
   128
 71
    94
 72
    95
 73
   115
 74
   115
  0
VERTEX
  5
2D0
330
54
100
AcDbEntity
  8
PREDEFINITO
100
AcDbFaceRecord
 10
0.0
 20
0.0
 30
0.0
 70
   128
 71
    95
 72
    96
 73
   116
 74
   116
  0
VERTEX
  5
2D1
330
54
100
AcDbEntity
  8
PREDEFINITO
100
AcDbFaceRecord
 10
0.0
 20
0.0
 30
0.0
 70
   128
 71
    96
 72
    97
 73
   117
 74
   117
  0
VERTEX
  5
2D2
330
54
100
AcDbEntity
  8
PREDEFINITO
100
AcDbFaceRecord
 10
0.0
 20
0.0
 30
0.0
 70
   128
 71
    97
 72
    98
 73
   118
 74
   118
  0
VERTEX
  5
2D3
330
54
100
AcDbEntity
  8
PREDEFINITO
100
AcDbFaceRecord
 10
0.0
 20
0.0
 30
0.0
 70
   128
 71
    98
 72
    99
 73
   119
 74
   119
  0
VERTEX
  5
2D4
330
54
100
AcDbEntity
  8
PREDEFINITO
100
AcDbFaceRecord
 10
0.0
 20
0.0
 30
0.0
 70
   128
 71
    99
 72
   100
 73
   120
 74
   120
  0
VERTEX
  5
2D5
330
54
100
AcDbEntity
  8
PREDEFINITO
100
AcDbFaceRecord
 10
0.0
 20
0.0
 30
0.0
 70
   128
 71
   100
 72
    81
 73
   101
 74
   101
  0
VERTEX
  5
2D6
330
54
100
AcDbEntity
  8
PREDEFINITO
100
AcDbFaceRecord
 10
0.0
 20
0.0
 30
0.0
 70
   128
 71
   101
 72
   102
 73
   122
 74
   122
  0
VERTEX
  5
2D7
330
54
100
AcDbEntity
  8
PREDEFINITO
100
AcDbFaceRecord
 10
0.0
 20
0.0
 30
0.0
 70
   128
 71
   102
 72
   103
 73
   123
 74
   123
  0
VERTEX
  5
2D8
330
54
100
AcDbEntity
  8
PREDEFINITO
100
AcDbFaceRecord
 10
0.0
 20
0.0
 30
0.0
 70
   128
 71
   103
 72
   104
 73
   124
 74
   124
  0
VERTEX
  5
2D9
330
54
100
AcDbEntity
  8
PREDEFINITO
100
AcDbFaceRecord
 10
0.0
 20
0.0
 30
0.0
 70
   128
 71
   104
 72
   105
 73
   125
 74
   125
  0
VERTEX
  5
2DA
330
54
100
AcDbEntity
  8
PREDEFINITO
100
AcDbFaceRecord
 10
0.0
 20
0.0
 30
0.0
 70
   128
 71
   105
 72
   106
 73
   126
 74
   126
  0
VERTEX
  5
2DB
330
54
100
AcDbEntity
  8
PREDEFINITO
100
AcDbFaceRecord
 10
0.0
 20
0.0
 30
0.0
 70
   128
 71
   106
 72
   107
 73
   127
 74
   127
  0
VERTEX
  5
2DC
330
54
100
AcDbEntity
  8
PREDEFINITO
100
AcDbFaceRecord
 10
0.0
 20
0.0
 30
0.0
 70
   128
 71
   107
 72
   108
 73
   128
 74
   128
  0
VERTEX
  5
2DD
330
54
100
AcDbEntity
  8
PREDEFINITO
100
AcDbFaceRecord
 10
0.0
 20
0.0
 30
0.0
 70
   128
 71
   108
 72
   109
 73
   129
 74
   129
  0
VERTEX
  5
2DE
330
54
100
AcDbEntity
  8
PREDEFINITO
100
AcDbFaceRecord
 10
0.0
 20
0.0
 30
0.0
 70
   128
 71
   109
 72
   110
 73
   130
 74
   130
  0
VERTEX
  5
2DF
330
54
100
AcDbEntity
  8
PREDEFINITO
100
AcDbFaceRecord
 10
0.0
 20
0.0
 30
0.0
 70
   128
 71
   110
 72
   111
 73
   131
 74
   131
  0
VERTEX
  5
2E0
330
54
100
AcDbEntity
  8
PREDEFINITO
100
AcDbFaceRecord
 10
0.0
 20
0.0
 30
0.0
 70
   128
 71
   111
 72
   112
 73
   132
 74
   132
  0
VERTEX
  5
2E1
330
54
100
AcDbEntity
  8
PREDEFINITO
100
AcDbFaceRecord
 10
0.0
 20
0.0
 30
0.0
 70
   128
 71
   112
 72
   113
 73
   133
 74
   133
  0
VERTEX
  5
2E2
330
54
100
AcDbEntity
  8
PREDEFINITO
100
AcDbFaceRecord
 10
0.0
 20
0.0
 30
0.0
 70
   128
 71
   113
 72
   114
 73
   134
 74
   134
  0
VERTEX
  5
2E3
330
54
100
AcDbEntity
  8
PREDEFINITO
100
AcDbFaceRecord
 10
0.0
 20
0.0
 30
0.0
 70
   128
 71
   114
 72
   115
 73
   135
 74
   135
  0
VERTEX
  5
2E4
330
54
100
AcDbEntity
  8
PREDEFINITO
100
AcDbFaceRecord
 10
0.0
 20
0.0
 30
0.0
 70
   128
 71
   115
 72
   116
 73
   136
 74
   136
  0
VERTEX
  5
2E5
330
54
100
AcDbEntity
  8
PREDEFINITO
100
AcDbFaceRecord
 10
0.0
 20
0.0
 30
0.0
 70
   128
 71
   116
 72
   117
 73
   137
 74
   137
  0
VERTEX
  5
2E6
330
54
100
AcDbEntity
  8
PREDEFINITO
100
AcDbFaceRecord
 10
0.0
 20
0.0
 30
0.0
 70
   128
 71
   117
 72
   118
 73
   138
 74
   138
  0
VERTEX
  5
2E7
330
54
100
AcDbEntity
  8
PREDEFINITO
100
AcDbFaceRecord
 10
0.0
 20
0.0
 30
0.0
 70
   128
 71
   118
 72
   119
 73
   139
 74
   139
  0
VERTEX
  5
2E8
330
54
100
AcDbEntity
  8
PREDEFINITO
100
AcDbFaceRecord
 10
0.0
 20
0.0
 30
0.0
 70
   128
 71
   119
 72
   120
 73
   140
 74
   140
  0
VERTEX
  5
2E9
330
54
100
AcDbEntity
  8
PREDEFINITO
100
AcDbFaceRecord
 10
0.0
 20
0.0
 30
0.0
 70
   128
 71
   120
 72
   101
 73
   121
 74
   121
  0
VERTEX
  5
2EA
330
54
100
AcDbEntity
  8
PREDEFINITO
100
AcDbFaceRecord
 10
0.0
 20
0.0
 30
0.0
 70
   128
 71
   121
 72
   122
 73
   142
 74
   142
  0
VERTEX
  5
2EB
330
54
100
AcDbEntity
  8
PREDEFINITO
100
AcDbFaceRecord
 10
0.0
 20
0.0
 30
0.0
 70
   128
 71
   122
 72
   123
 73
   143
 74
   143
  0
VERTEX
  5
2EC
330
54
100
AcDbEntity
  8
PREDEFINITO
100
AcDbFaceRecord
 10
0.0
 20
0.0
 30
0.0
 70
   128
 71
   123
 72
   124
 73
   144
 74
   144
  0
VERTEX
  5
2ED
330
54
100
AcDbEntity
  8
PREDEFINITO
100
AcDbFaceRecord
 10
0.0
 20
0.0
 30
0.0
 70
   128
 71
   124
 72
   125
 73
   145
 74
   145
  0
VERTEX
  5
2EE
330
54
100
AcDbEntity
  8
PREDEFINITO
100
AcDbFaceRecord
 10
0.0
 20
0.0
 30
0.0
 70
   128
 71
   125
 72
   126
 73
   146
 74
   146
  0
VERTEX
  5
2EF
330
54
100
AcDbEntity
  8
PREDEFINITO
100
AcDbFaceRecord
 10
0.0
 20
0.0
 30
0.0
 70
   128
 71
   126
 72
   127
 73
   147
 74
   147
  0
VERTEX
  5
2F0
330
54
100
AcDbEntity
  8
PREDEFINITO
100
AcDbFaceRecord
 10
0.0
 20
0.0
 30
0.0
 70
   128
 71
   127
 72
   128
 73
   148
 74
   148
  0
VERTEX
  5
2F1
330
54
100
AcDbEntity
  8
PREDEFINITO
100
AcDbFaceRecord
 10
0.0
 20
0.0
 30
0.0
 70
   128
 71
   128
 72
   129
 73
   149
 74
   149
  0
VERTEX
  5
2F2
330
54
100
AcDbEntity
  8
PREDEFINITO
100
AcDbFaceRecord
 10
0.0
 20
0.0
 30
0.0
 70
   128
 71
   129
 72
   130
 73
   150
 74
   150
  0
VERTEX
  5
2F3
330
54
100
AcDbEntity
  8
PREDEFINITO
100
AcDbFaceRecord
 10
0.0
 20
0.0
 30
0.0
 70
   128
 71
   130
 72
   131
 73
   151
 74
   151
  0
VERTEX
  5
2F4
330
54
100
AcDbEntity
  8
PREDEFINITO
100
AcDbFaceRecord
 10
0.0
 20
0.0
 30
0.0
 70
   128
 71
   131
 72
   132
 73
   152
 74
   152
  0
VERTEX
  5
2F5
330
54
100
AcDbEntity
  8
PREDEFINITO
100
AcDbFaceRecord
 10
0.0
 20
0.0
 30
0.0
 70
   128
 71
   132
 72
   133
 73
   153
 74
   153
  0
VERTEX
  5
2F6
330
54
100
AcDbEntity
  8
PREDEFINITO
100
AcDbFaceRecord
 10
0.0
 20
0.0
 30
0.0
 70
   128
 71
   133
 72
   134
 73
   154
 74
   154
  0
VERTEX
  5
2F7
330
54
100
AcDbEntity
  8
PREDEFINITO
100
AcDbFaceRecord
 10
0.0
 20
0.0
 30
0.0
 70
   128
 71
   134
 72
   135
 73
   155
 74
   155
  0
VERTEX
  5
2F8
330
54
100
AcDbEntity
  8
PREDEFINITO
100
AcDbFaceRecord
 10
0.0
 20
0.0
 30
0.0
 70
   128
 71
   135
 72
   136
 73
   156
 74
   156
  0
VERTEX
  5
2F9
330
54
100
AcDbEntity
  8
PREDEFINITO
100
AcDbFaceRecord
 10
0.0
 20
0.0
 30
0.0
 70
   128
 71
   136
 72
   137
 73
   157
 74
   157
  0
VERTEX
  5
2FA
330
54
100
AcDbEntity
  8
PREDEFINITO
100
AcDbFaceRecord
 10
0.0
 20
0.0
 30
0.0
 70
   128
 71
   137
 72
   138
 73
   158
 74
   158
  0
VERTEX
  5
2FB
330
54
100
AcDbEntity
  8
PREDEFINITO
100
AcDbFaceRecord
 10
0.0
 20
0.0
 30
0.0
 70
   128
 71
   138
 72
   139
 73
   159
 74
   159
  0
VERTEX
  5
2FC
330
54
100
AcDbEntity
  8
PREDEFINITO
100
AcDbFaceRecord
 10
0.0
 20
0.0
 30
0.0
 70
   128
 71
   139
 72
   140
 73
   160
 74
   160
  0
VERTEX
  5
2FD
330
54
100
AcDbEntity
  8
PREDEFINITO
100
AcDbFaceRecord
 10
0.0
 20
0.0
 30
0.0
 70
   128
 71
   140
 72
   121
 73
   141
 74
   141
  0
VERTEX
  5
2FE
330
54
100
AcDbEntity
  8
PREDEFINITO
100
AcDbFaceRecord
 10
0.0
 20
0.0
 30
0.0
 70
   128
 71
   141
 72
   142
 73
   162
 74
   162
  0
VERTEX
  5
2FF
330
54
100
AcDbEntity
  8
PREDEFINITO
100
AcDbFaceRecord
 10
0.0
 20
0.0
 30
0.0
 70
   128
 71
   142
 72
   143
 73
   163
 74
   163
  0
VERTEX
  5
300
330
54
100
AcDbEntity
  8
PREDEFINITO
100
AcDbFaceRecord
 10
0.0
 20
0.0
 30
0.0
 70
   128
 71
   143
 72
   144
 73
   164
 74
   164
  0
VERTEX
  5
301
330
54
100
AcDbEntity
  8
PREDEFINITO
100
AcDbFaceRecord
 10
0.0
 20
0.0
 30
0.0
 70
   128
 71
   144
 72
   145
 73
   165
 74
   165
  0
VERTEX
  5
302
330
54
100
AcDbEntity
  8
PREDEFINITO
100
AcDbFaceRecord
 10
0.0
 20
0.0
 30
0.0
 70
   128
 71
   145
 72
   146
 73
   166
 74
   166
  0
VERTEX
  5
303
330
54
100
AcDbEntity
  8
PREDEFINITO
100
AcDbFaceRecord
 10
0.0
 20
0.0
 30
0.0
 70
   128
 71
   146
 72
   147
 73
   167
 74
   167
  0
VERTEX
  5
304
330
54
100
AcDbEntity
  8
PREDEFINITO
100
AcDbFaceRecord
 10
0.0
 20
0.0
 30
0.0
 70
   128
 71
   147
 72
   148
 73
   168
 74
   168
  0
VERTEX
  5
305
330
54
100
AcDbEntity
  8
PREDEFINITO
100
AcDbFaceRecord
 10
0.0
 20
0.0
 30
0.0
 70
   128
 71
   148
 72
   149
 73
   169
 74
   169
  0
VERTEX
  5
306
330
54
100
AcDbEntity
  8
PREDEFINITO
100
AcDbFaceRecord
 10
0.0
 20
0.0
 30
0.0
 70
   128
 71
   149
 72
   150
 73
   170
 74
   170
  0
VERTEX
  5
307
330
54
100
AcDbEntity
  8
PREDEFINITO
100
AcDbFaceRecord
 10
0.0
 20
0.0
 30
0.0
 70
   128
 71
   150
 72
   151
 73
   171
 74
   171
  0
VERTEX
  5
308
330
54
100
AcDbEntity
  8
PREDEFINITO
100
AcDbFaceRecord
 10
0.0
 20
0.0
 30
0.0
 70
   128
 71
   151
 72
   152
 73
   172
 74
   172
  0
VERTEX
  5
309
330
54
100
AcDbEntity
  8
PREDEFINITO
100
AcDbFaceRecord
 10
0.0
 20
0.0
 30
0.0
 70
   128
 71
   152
 72
   153
 73
   173
 74
   173
  0
VERTEX
  5
30A
330
54
100
AcDbEntity
  8
PREDEFINITO
100
AcDbFaceRecord
 10
0.0
 20
0.0
 30
0.0
 70
   128
 71
   153
 72
   154
 73
   174
 74
   174
  0
VERTEX
  5
30B
330
54
100
AcDbEntity
  8
PREDEFINITO
100
AcDbFaceRecord
 10
0.0
 20
0.0
 30
0.0
 70
   128
 71
   154
 72
   155
 73
   175
 74
   175
  0
VERTEX
  5
30C
330
54
100
AcDbEntity
  8
PREDEFINITO
100
AcDbFaceRecord
 10
0.0
 20
0.0
 30
0.0
 70
   128
 71
   155
 72
   156
 73
   176
 74
   176
  0
VERTEX
  5
30D
330
54
100
AcDbEntity
  8
PREDEFINITO
100
AcDbFaceRecord
 10
0.0
 20
0.0
 30
0.0
 70
   128
 71
   156
 72
   157
 73
   177
 74
   177
  0
VERTEX
  5
30E
330
54
100
AcDbEntity
  8
PREDEFINITO
100
AcDbFaceRecord
 10
0.0
 20
0.0
 30
0.0
 70
   128
 71
   157
 72
   158
 73
   178
 74
   178
  0
VERTEX
  5
30F
330
54
100
AcDbEntity
  8
PREDEFINITO
100
AcDbFaceRecord
 10
0.0
 20
0.0
 30
0.0
 70
   128
 71
   158
 72
   159
 73
   179
 74
   179
  0
VERTEX
  5
310
330
54
100
AcDbEntity
  8
PREDEFINITO
100
AcDbFaceRecord
 10
0.0
 20
0.0
 30
0.0
 70
   128
 71
   159
 72
   160
 73
   180
 74
   180
  0
VERTEX
  5
311
330
54
100
AcDbEntity
  8
PREDEFINITO
100
AcDbFaceRecord
 10
0.0
 20
0.0
 30
0.0
 70
   128
 71
   160
 72
   141
 73
   161
 74
   161
  0
VERTEX
  5
312
330
54
100
AcDbEntity
  8
PREDEFINITO
100
AcDbFaceRecord
 10
0.0
 20
0.0
 30
0.0
 70
   128
 71
   161
 72
   162
 73
   182
 74
   182
  0
VERTEX
  5
313
330
54
100
AcDbEntity
  8
PREDEFINITO
100
AcDbFaceRecord
 10
0.0
 20
0.0
 30
0.0
 70
   128
 71
   162
 72
   163
 73
   183
 74
   183
  0
VERTEX
  5
314
330
54
100
AcDbEntity
  8
PREDEFINITO
100
AcDbFaceRecord
 10
0.0
 20
0.0
 30
0.0
 70
   128
 71
   163
 72
   164
 73
   184
 74
   184
  0
VERTEX
  5
315
330
54
100
AcDbEntity
  8
PREDEFINITO
100
AcDbFaceRecord
 10
0.0
 20
0.0
 30
0.0
 70
   128
 71
   164
 72
   165
 73
   185
 74
   185
  0
VERTEX
  5
316
330
54
100
AcDbEntity
  8
PREDEFINITO
100
AcDbFaceRecord
 10
0.0
 20
0.0
 30
0.0
 70
   128
 71
   165
 72
   166
 73
   186
 74
   186
  0
VERTEX
  5
317
330
54
100
AcDbEntity
  8
PREDEFINITO
100
AcDbFaceRecord
 10
0.0
 20
0.0
 30
0.0
 70
   128
 71
   166
 72
   167
 73
   187
 74
   187
  0
VERTEX
  5
318
330
54
100
AcDbEntity
  8
PREDEFINITO
100
AcDbFaceRecord
 10
0.0
 20
0.0
 30
0.0
 70
   128
 71
   167
 72
   168
 73
   188
 74
   188
  0
VERTEX
  5
319
330
54
100
AcDbEntity
  8
PREDEFINITO
100
AcDbFaceRecord
 10
0.0
 20
0.0
 30
0.0
 70
   128
 71
   168
 72
   169
 73
   189
 74
   189
  0
VERTEX
  5
31A
330
54
100
AcDbEntity
  8
PREDEFINITO
100
AcDbFaceRecord
 10
0.0
 20
0.0
 30
0.0
 70
   128
 71
   169
 72
   170
 73
   190
 74
   190
  0
VERTEX
  5
31B
330
54
100
AcDbEntity
  8
PREDEFINITO
100
AcDbFaceRecord
 10
0.0
 20
0.0
 30
0.0
 70
   128
 71
   170
 72
   171
 73
   191
 74
   191
  0
VERTEX
  5
31C
330
54
100
AcDbEntity
  8
PREDEFINITO
100
AcDbFaceRecord
 10
0.0
 20
0.0
 30
0.0
 70
   128
 71
   171
 72
   172
 73
   192
 74
   192
  0
VERTEX
  5
31D
330
54
100
AcDbEntity
  8
PREDEFINITO
100
AcDbFaceRecord
 10
0.0
 20
0.0
 30
0.0
 70
   128
 71
   172
 72
   173
 73
   193
 74
   193
  0
VERTEX
  5
31E
330
54
100
AcDbEntity
  8
PREDEFINITO
100
AcDbFaceRecord
 10
0.0
 20
0.0
 30
0.0
 70
   128
 71
   173
 72
   174
 73
   194
 74
   194
  0
VERTEX
  5
31F
330
54
100
AcDbEntity
  8
PREDEFINITO
100
AcDbFaceRecord
 10
0.0
 20
0.0
 30
0.0
 70
   128
 71
   174
 72
   175
 73
   195
 74
   195
  0
VERTEX
  5
320
330
54
100
AcDbEntity
  8
PREDEFINITO
100
AcDbFaceRecord
 10
0.0
 20
0.0
 30
0.0
 70
   128
 71
   175
 72
   176
 73
   196
 74
   196
  0
VERTEX
  5
321
330
54
100
AcDbEntity
  8
PREDEFINITO
100
AcDbFaceRecord
 10
0.0
 20
0.0
 30
0.0
 70
   128
 71
   176
 72
   177
 73
   197
 74
   197
  0
VERTEX
  5
322
330
54
100
AcDbEntity
  8
PREDEFINITO
100
AcDbFaceRecord
 10
0.0
 20
0.0
 30
0.0
 70
   128
 71
   177
 72
   178
 73
   198
 74
   198
  0
VERTEX
  5
323
330
54
100
AcDbEntity
  8
PREDEFINITO
100
AcDbFaceRecord
 10
0.0
 20
0.0
 30
0.0
 70
   128
 71
   178
 72
   179
 73
   199
 74
   199
  0
VERTEX
  5
324
330
54
100
AcDbEntity
  8
PREDEFINITO
100
AcDbFaceRecord
 10
0.0
 20
0.0
 30
0.0
 70
   128
 71
   179
 72
   180
 73
   200
 74
   200
  0
VERTEX
  5
325
330
54
100
AcDbEntity
  8
PREDEFINITO
100
AcDbFaceRecord
 10
0.0
 20
0.0
 30
0.0
 70
   128
 71
   180
 72
   161
 73
   181
 74
   181
  0
VERTEX
  5
326
330
54
100
AcDbEntity
  8
PREDEFINITO
100
AcDbFaceRecord
 10
0.0
 20
0.0
 30
0.0
 70
   128
 71
   181
 72
   182
 73
   202
 74
   202
  0
VERTEX
  5
327
330
54
100
AcDbEntity
  8
PREDEFINITO
100
AcDbFaceRecord
 10
0.0
 20
0.0
 30
0.0
 70
   128
 71
   182
 72
   183
 73
   203
 74
   203
  0
VERTEX
  5
328
330
54
100
AcDbEntity
  8
PREDEFINITO
100
AcDbFaceRecord
 10
0.0
 20
0.0
 30
0.0
 70
   128
 71
   183
 72
   184
 73
   204
 74
   204
  0
VERTEX
  5
329
330
54
100
AcDbEntity
  8
PREDEFINITO
100
AcDbFaceRecord
 10
0.0
 20
0.0
 30
0.0
 70
   128
 71
   184
 72
   185
 73
   205
 74
   205
  0
VERTEX
  5
32A
330
54
100
AcDbEntity
  8
PREDEFINITO
100
AcDbFaceRecord
 10
0.0
 20
0.0
 30
0.0
 70
   128
 71
   185
 72
   186
 73
   206
 74
   206
  0
VERTEX
  5
32B
330
54
100
AcDbEntity
  8
PREDEFINITO
100
AcDbFaceRecord
 10
0.0
 20
0.0
 30
0.0
 70
   128
 71
   186
 72
   187
 73
   207
 74
   207
  0
VERTEX
  5
32C
330
54
100
AcDbEntity
  8
PREDEFINITO
100
AcDbFaceRecord
 10
0.0
 20
0.0
 30
0.0
 70
   128
 71
   187
 72
   188
 73
   208
 74
   208
  0
VERTEX
  5
32D
330
54
100
AcDbEntity
  8
PREDEFINITO
100
AcDbFaceRecord
 10
0.0
 20
0.0
 30
0.0
 70
   128
 71
   188
 72
   189
 73
   209
 74
   209
  0
VERTEX
  5
32E
330
54
100
AcDbEntity
  8
PREDEFINITO
100
AcDbFaceRecord
 10
0.0
 20
0.0
 30
0.0
 70
   128
 71
   189
 72
   190
 73
   210
 74
   210
  0
VERTEX
  5
32F
330
54
100
AcDbEntity
  8
PREDEFINITO
100
AcDbFaceRecord
 10
0.0
 20
0.0
 30
0.0
 70
   128
 71
   190
 72
   191
 73
   211
 74
   211
  0
VERTEX
  5
330
330
54
100
AcDbEntity
  8
PREDEFINITO
100
AcDbFaceRecord
 10
0.0
 20
0.0
 30
0.0
 70
   128
 71
   191
 72
   192
 73
   212
 74
   212
  0
VERTEX
  5
331
330
54
100
AcDbEntity
  8
PREDEFINITO
100
AcDbFaceRecord
 10
0.0
 20
0.0
 30
0.0
 70
   128
 71
   192
 72
   193
 73
   213
 74
   213
  0
VERTEX
  5
332
330
54
100
AcDbEntity
  8
PREDEFINITO
100
AcDbFaceRecord
 10
0.0
 20
0.0
 30
0.0
 70
   128
 71
   193
 72
   194
 73
   214
 74
   214
  0
VERTEX
  5
333
330
54
100
AcDbEntity
  8
PREDEFINITO
100
AcDbFaceRecord
 10
0.0
 20
0.0
 30
0.0
 70
   128
 71
   194
 72
   195
 73
   215
 74
   215
  0
VERTEX
  5
334
330
54
100
AcDbEntity
  8
PREDEFINITO
100
AcDbFaceRecord
 10
0.0
 20
0.0
 30
0.0
 70
   128
 71
   195
 72
   196
 73
   216
 74
   216
  0
VERTEX
  5
335
330
54
100
AcDbEntity
  8
PREDEFINITO
100
AcDbFaceRecord
 10
0.0
 20
0.0
 30
0.0
 70
   128
 71
   196
 72
   197
 73
   217
 74
   217
  0
VERTEX
  5
336
330
54
100
AcDbEntity
  8
PREDEFINITO
100
AcDbFaceRecord
 10
0.0
 20
0.0
 30
0.0
 70
   128
 71
   197
 72
   198
 73
   218
 74
   218
  0
VERTEX
  5
337
330
54
100
AcDbEntity
  8
PREDEFINITO
100
AcDbFaceRecord
 10
0.0
 20
0.0
 30
0.0
 70
   128
 71
   198
 72
   199
 73
   219
 74
   219
  0
VERTEX
  5
338
330
54
100
AcDbEntity
  8
PREDEFINITO
100
AcDbFaceRecord
 10
0.0
 20
0.0
 30
0.0
 70
   128
 71
   199
 72
   200
 73
   220
 74
   220
  0
VERTEX
  5
339
330
54
100
AcDbEntity
  8
PREDEFINITO
100
AcDbFaceRecord
 10
0.0
 20
0.0
 30
0.0
 70
   128
 71
   200
 72
   181
 73
   201
 74
   201
  0
VERTEX
  5
33A
330
54
100
AcDbEntity
  8
PREDEFINITO
100
AcDbFaceRecord
 10
0.0
 20
0.0
 30
0.0
 70
   128
 71
   201
 72
   202
 73
   222
 74
   222
  0
VERTEX
  5
33B
330
54
100
AcDbEntity
  8
PREDEFINITO
100
AcDbFaceRecord
 10
0.0
 20
0.0
 30
0.0
 70
   128
 71
   202
 72
   203
 73
   223
 74
   223
  0
VERTEX
  5
33C
330
54
100
AcDbEntity
  8
PREDEFINITO
100
AcDbFaceRecord
 10
0.0
 20
0.0
 30
0.0
 70
   128
 71
   203
 72
   204
 73
   224
 74
   224
  0
VERTEX
  5
33D
330
54
100
AcDbEntity
  8
PREDEFINITO
100
AcDbFaceRecord
 10
0.0
 20
0.0
 30
0.0
 70
   128
 71
   204
 72
   205
 73
   225
 74
   225
  0
VERTEX
  5
33E
330
54
100
AcDbEntity
  8
PREDEFINITO
100
AcDbFaceRecord
 10
0.0
 20
0.0
 30
0.0
 70
   128
 71
   205
 72
   206
 73
   226
 74
   226
  0
VERTEX
  5
33F
330
54
100
AcDbEntity
  8
PREDEFINITO
100
AcDbFaceRecord
 10
0.0
 20
0.0
 30
0.0
 70
   128
 71
   206
 72
   207
 73
   227
 74
   227
  0
VERTEX
  5
340
330
54
100
AcDbEntity
  8
PREDEFINITO
100
AcDbFaceRecord
 10
0.0
 20
0.0
 30
0.0
 70
   128
 71
   207
 72
   208
 73
   228
 74
   228
  0
VERTEX
  5
341
330
54
100
AcDbEntity
  8
PREDEFINITO
100
AcDbFaceRecord
 10
0.0
 20
0.0
 30
0.0
 70
   128
 71
   208
 72
   209
 73
   229
 74
   229
  0
VERTEX
  5
342
330
54
100
AcDbEntity
  8
PREDEFINITO
100
AcDbFaceRecord
 10
0.0
 20
0.0
 30
0.0
 70
   128
 71
   209
 72
   210
 73
   230
 74
   230
  0
VERTEX
  5
343
330
54
100
AcDbEntity
  8
PREDEFINITO
100
AcDbFaceRecord
 10
0.0
 20
0.0
 30
0.0
 70
   128
 71
   210
 72
   211
 73
   231
 74
   231
  0
VERTEX
  5
344
330
54
100
AcDbEntity
  8
PREDEFINITO
100
AcDbFaceRecord
 10
0.0
 20
0.0
 30
0.0
 70
   128
 71
   211
 72
   212
 73
   232
 74
   232
  0
VERTEX
  5
345
330
54
100
AcDbEntity
  8
PREDEFINITO
100
AcDbFaceRecord
 10
0.0
 20
0.0
 30
0.0
 70
   128
 71
   212
 72
   213
 73
   233
 74
   233
  0
VERTEX
  5
346
330
54
100
AcDbEntity
  8
PREDEFINITO
100
AcDbFaceRecord
 10
0.0
 20
0.0
 30
0.0
 70
   128
 71
   213
 72
   214
 73
   234
 74
   234
  0
VERTEX
  5
347
330
54
100
AcDbEntity
  8
PREDEFINITO
100
AcDbFaceRecord
 10
0.0
 20
0.0
 30
0.0
 70
   128
 71
   214
 72
   215
 73
   235
 74
   235
  0
VERTEX
  5
348
330
54
100
AcDbEntity
  8
PREDEFINITO
100
AcDbFaceRecord
 10
0.0
 20
0.0
 30
0.0
 70
   128
 71
   215
 72
   216
 73
   236
 74
   236
  0
VERTEX
  5
349
330
54
100
AcDbEntity
  8
PREDEFINITO
100
AcDbFaceRecord
 10
0.0
 20
0.0
 30
0.0
 70
   128
 71
   216
 72
   217
 73
   237
 74
   237
  0
VERTEX
  5
34A
330
54
100
AcDbEntity
  8
PREDEFINITO
100
AcDbFaceRecord
 10
0.0
 20
0.0
 30
0.0
 70
   128
 71
   217
 72
   218
 73
   238
 74
   238
  0
VERTEX
  5
34B
330
54
100
AcDbEntity
  8
PREDEFINITO
100
AcDbFaceRecord
 10
0.0
 20
0.0
 30
0.0
 70
   128
 71
   218
 72
   219
 73
   239
 74
   239
  0
VERTEX
  5
34C
330
54
100
AcDbEntity
  8
PREDEFINITO
100
AcDbFaceRecord
 10
0.0
 20
0.0
 30
0.0
 70
   128
 71
   219
 72
   220
 73
   240
 74
   240
  0
VERTEX
  5
34D
330
54
100
AcDbEntity
  8
PREDEFINITO
100
AcDbFaceRecord
 10
0.0
 20
0.0
 30
0.0
 70
   128
 71
   220
 72
   201
 73
   221
 74
   221
  0
VERTEX
  5
34E
330
54
100
AcDbEntity
  8
PREDEFINITO
100
AcDbFaceRecord
 10
0.0
 20
0.0
 30
0.0
 70
   128
 71
   221
 72
   222
 73
   242
 74
   242
  0
VERTEX
  5
34F
330
54
100
AcDbEntity
  8
PREDEFINITO
100
AcDbFaceRecord
 10
0.0
 20
0.0
 30
0.0
 70
   128
 71
   222
 72
   223
 73
   243
 74
   243
  0
VERTEX
  5
350
330
54
100
AcDbEntity
  8
PREDEFINITO
100
AcDbFaceRecord
 10
0.0
 20
0.0
 30
0.0
 70
   128
 71
   223
 72
   224
 73
   244
 74
   244
  0
VERTEX
  5
351
330
54
100
AcDbEntity
  8
PREDEFINITO
100
AcDbFaceRecord
 10
0.0
 20
0.0
 30
0.0
 70
   128
 71
   224
 72
   225
 73
   245
 74
   245
  0
VERTEX
  5
352
330
54
100
AcDbEntity
  8
PREDEFINITO
100
AcDbFaceRecord
 10
0.0
 20
0.0
 30
0.0
 70
   128
 71
   225
 72
   226
 73
   246
 74
   246
  0
VERTEX
  5
353
330
54
100
AcDbEntity
  8
PREDEFINITO
100
AcDbFaceRecord
 10
0.0
 20
0.0
 30
0.0
 70
   128
 71
   226
 72
   227
 73
   247
 74
   247
  0
VERTEX
  5
354
330
54
100
AcDbEntity
  8
PREDEFINITO
100
AcDbFaceRecord
 10
0.0
 20
0.0
 30
0.0
 70
   128
 71
   227
 72
   228
 73
   248
 74
   248
  0
VERTEX
  5
355
330
54
100
AcDbEntity
  8
PREDEFINITO
100
AcDbFaceRecord
 10
0.0
 20
0.0
 30
0.0
 70
   128
 71
   228
 72
   229
 73
   249
 74
   249
  0
VERTEX
  5
356
330
54
100
AcDbEntity
  8
PREDEFINITO
100
AcDbFaceRecord
 10
0.0
 20
0.0
 30
0.0
 70
   128
 71
   229
 72
   230
 73
   250
 74
   250
  0
VERTEX
  5
357
330
54
100
AcDbEntity
  8
PREDEFINITO
100
AcDbFaceRecord
 10
0.0
 20
0.0
 30
0.0
 70
   128
 71
   230
 72
   231
 73
   251
 74
   251
  0
VERTEX
  5
358
330
54
100
AcDbEntity
  8
PREDEFINITO
100
AcDbFaceRecord
 10
0.0
 20
0.0
 30
0.0
 70
   128
 71
   231
 72
   232
 73
   252
 74
   252
  0
VERTEX
  5
359
330
54
100
AcDbEntity
  8
PREDEFINITO
100
AcDbFaceRecord
 10
0.0
 20
0.0
 30
0.0
 70
   128
 71
   232
 72
   233
 73
   253
 74
   253
  0
VERTEX
  5
35A
330
54
100
AcDbEntity
  8
PREDEFINITO
100
AcDbFaceRecord
 10
0.0
 20
0.0
 30
0.0
 70
   128
 71
   233
 72
   234
 73
   254
 74
   254
  0
VERTEX
  5
35B
330
54
100
AcDbEntity
  8
PREDEFINITO
100
AcDbFaceRecord
 10
0.0
 20
0.0
 30
0.0
 70
   128
 71
   234
 72
   235
 73
   255
 74
   255
  0
VERTEX
  5
35C
330
54
100
AcDbEntity
  8
PREDEFINITO
100
AcDbFaceRecord
 10
0.0
 20
0.0
 30
0.0
 70
   128
 71
   235
 72
   236
 73
   256
 74
   256
  0
VERTEX
  5
35D
330
54
100
AcDbEntity
  8
PREDEFINITO
100
AcDbFaceRecord
 10
0.0
 20
0.0
 30
0.0
 70
   128
 71
   236
 72
   237
 73
   257
 74
   257
  0
VERTEX
  5
35E
330
54
100
AcDbEntity
  8
PREDEFINITO
100
AcDbFaceRecord
 10
0.0
 20
0.0
 30
0.0
 70
   128
 71
   237
 72
   238
 73
   258
 74
   258
  0
VERTEX
  5
35F
330
54
100
AcDbEntity
  8
PREDEFINITO
100
AcDbFaceRecord
 10
0.0
 20
0.0
 30
0.0
 70
   128
 71
   238
 72
   239
 73
   259
 74
   259
  0
VERTEX
  5
360
330
54
100
AcDbEntity
  8
PREDEFINITO
100
AcDbFaceRecord
 10
0.0
 20
0.0
 30
0.0
 70
   128
 71
   239
 72
   240
 73
   260
 74
   260
  0
VERTEX
  5
361
330
54
100
AcDbEntity
  8
PREDEFINITO
100
AcDbFaceRecord
 10
0.0
 20
0.0
 30
0.0
 70
   128
 71
   240
 72
   221
 73
   241
 74
   241
  0
VERTEX
  5
362
330
54
100
AcDbEntity
  8
PREDEFINITO
100
AcDbFaceRecord
 10
0.0
 20
0.0
 30
0.0
 70
   128
 71
   241
 72
   242
 73
   262
 74
   262
  0
VERTEX
  5
363
330
54
100
AcDbEntity
  8
PREDEFINITO
100
AcDbFaceRecord
 10
0.0
 20
0.0
 30
0.0
 70
   128
 71
   242
 72
   243
 73
   263
 74
   263
  0
VERTEX
  5
364
330
54
100
AcDbEntity
  8
PREDEFINITO
100
AcDbFaceRecord
 10
0.0
 20
0.0
 30
0.0
 70
   128
 71
   243
 72
   244
 73
   264
 74
   264
  0
VERTEX
  5
365
330
54
100
AcDbEntity
  8
PREDEFINITO
100
AcDbFaceRecord
 10
0.0
 20
0.0
 30
0.0
 70
   128
 71
   244
 72
   245
 73
   265
 74
   265
  0
VERTEX
  5
366
330
54
100
AcDbEntity
  8
PREDEFINITO
100
AcDbFaceRecord
 10
0.0
 20
0.0
 30
0.0
 70
   128
 71
   245
 72
   246
 73
   266
 74
   266
  0
VERTEX
  5
367
330
54
100
AcDbEntity
  8
PREDEFINITO
100
AcDbFaceRecord
 10
0.0
 20
0.0
 30
0.0
 70
   128
 71
   246
 72
   247
 73
   267
 74
   267
  0
VERTEX
  5
368
330
54
100
AcDbEntity
  8
PREDEFINITO
100
AcDbFaceRecord
 10
0.0
 20
0.0
 30
0.0
 70
   128
 71
   247
 72
   248
 73
   268
 74
   268
  0
VERTEX
  5
369
330
54
100
AcDbEntity
  8
PREDEFINITO
100
AcDbFaceRecord
 10
0.0
 20
0.0
 30
0.0
 70
   128
 71
   248
 72
   249
 73
   269
 74
   269
  0
VERTEX
  5
36A
330
54
100
AcDbEntity
  8
PREDEFINITO
100
AcDbFaceRecord
 10
0.0
 20
0.0
 30
0.0
 70
   128
 71
   249
 72
   250
 73
   270
 74
   270
  0
VERTEX
  5
36B
330
54
100
AcDbEntity
  8
PREDEFINITO
100
AcDbFaceRecord
 10
0.0
 20
0.0
 30
0.0
 70
   128
 71
   250
 72
   251
 73
   271
 74
   271
  0
VERTEX
  5
36C
330
54
100
AcDbEntity
  8
PREDEFINITO
100
AcDbFaceRecord
 10
0.0
 20
0.0
 30
0.0
 70
   128
 71
   251
 72
   252
 73
   272
 74
   272
  0
VERTEX
  5
36D
330
54
100
AcDbEntity
  8
PREDEFINITO
100
AcDbFaceRecord
 10
0.0
 20
0.0
 30
0.0
 70
   128
 71
   252
 72
   253
 73
   273
 74
   273
  0
VERTEX
  5
36E
330
54
100
AcDbEntity
  8
PREDEFINITO
100
AcDbFaceRecord
 10
0.0
 20
0.0
 30
0.0
 70
   128
 71
   253
 72
   254
 73
   274
 74
   274
  0
VERTEX
  5
36F
330
54
100
AcDbEntity
  8
PREDEFINITO
100
AcDbFaceRecord
 10
0.0
 20
0.0
 30
0.0
 70
   128
 71
   254
 72
   255
 73
   275
 74
   275
  0
VERTEX
  5
370
330
54
100
AcDbEntity
  8
PREDEFINITO
100
AcDbFaceRecord
 10
0.0
 20
0.0
 30
0.0
 70
   128
 71
   255
 72
   256
 73
   276
 74
   276
  0
VERTEX
  5
371
330
54
100
AcDbEntity
  8
PREDEFINITO
100
AcDbFaceRecord
 10
0.0
 20
0.0
 30
0.0
 70
   128
 71
   256
 72
   257
 73
   277
 74
   277
  0
VERTEX
  5
372
330
54
100
AcDbEntity
  8
PREDEFINITO
100
AcDbFaceRecord
 10
0.0
 20
0.0
 30
0.0
 70
   128
 71
   257
 72
   258
 73
   278
 74
   278
  0
VERTEX
  5
373
330
54
100
AcDbEntity
  8
PREDEFINITO
100
AcDbFaceRecord
 10
0.0
 20
0.0
 30
0.0
 70
   128
 71
   258
 72
   259
 73
   279
 74
   279
  0
VERTEX
  5
374
330
54
100
AcDbEntity
  8
PREDEFINITO
100
AcDbFaceRecord
 10
0.0
 20
0.0
 30
0.0
 70
   128
 71
   259
 72
   260
 73
   280
 74
   280
  0
VERTEX
  5
375
330
54
100
AcDbEntity
  8
PREDEFINITO
100
AcDbFaceRecord
 10
0.0
 20
0.0
 30
0.0
 70
   128
 71
   260
 72
   241
 73
   261
 74
   261
  0
SEQEND
  5
55
330
54
100
AcDbEntity
  8
PREDEFINITO
  0
ENDSEC
  0
SECTION
  2
OBJECTS
  0
DICTIONARY
  5
C
330
0
100
AcDbDictionary
281
     1
  3
ACAD_GROUP
350
D
  3
ACAD_LAYOUT
350
1A
  3
ACAD_MLINESTYLE
350
17
  3
ACAD_PLOTSETTINGS
350
19
  3
ACAD_PLOTSTYLENAME
350
E
  3
ACAD_TABLESTYLE
350
376
  3
ACAD_VISUALSTYLE
350
2A
  0
DICTIONARY
  5
D
102
{ACAD_REACTORS
330
C
102
}
330
C
100
AcDbDictionary
281
     1
  0
DICTIONARY
  5
1A
102
{ACAD_REACTORS
330
C
102
}
330
C
100
AcDbDictionary
281
     1
  3
Layout1
350
1E
  3
Layout2
350
26
  3
Model
350
22
  0
DICTIONARY
  5
17
102
{ACAD_REACTORS
330
C
102
}
330
C
100
AcDbDictionary
281
     1
  3
Standard
350
18
  0
DICTIONARY
  5
19
102
{ACAD_REACTORS
330
C
102
}
330
C
100
AcDbDictionary
281
     1
  0
ACDBDICTIONARYWDFLT
  5
E
102
{ACAD_REACTORS
330
C
102
}
330
C
100
AcDbDictionary
281
     1
  3
Normal
350
F
100
AcDbDictionaryWithDefault
340
F
  0
DICTIONARY
  5
376
102
{ACAD_REACTORS
330
C
102
}
330
C
100
AcDbDictionary
281
     1
  0
DICTIONARY
  5
2A
102
{ACAD_REACTORS
330
C
102
}
330
C
100
AcDbDictionary
281
     1
  3
2dWireframe
350
2F
  3
3D Hidden
350
31
  3
3dWireframe
350
30
  3
Basic
350
32
  3
Brighten
350
36
  3
ColorChange
350
3A
  3
Conceptual
350
34
  3
Dim
350
35
  3
Facepattern
350
39
  3
Flat
350
2B
  3
FlatWithEdges
350
2C
  3
Gouraud
350
2D
  3
GouraudWithEdges
350
2E
  3
Linepattern
350
38
  3
Realistic
350
33
  3
Thicken
350
37
  0
LAYOUT
  5
1E
102
{ACAD_REACTORS
330
1A
102
}
330
1A
100
AcDbPlotSettings
  1

  2
none_device
  4

  6

 40
0.0
 41
0.0
 42
0.0
 43
0.0
 44
0.0
 45
0.0
 46
0.0
 47
0.0
 48
0.0
 49
0.0
140
0.0
141
0.0
142
1.0
143
1.0
 70
   688
 72
     0
 73
     0
 74
     5
  7

 75
    16
 76
     0
 77
     2
 78
   300
147
1.0
148
0.0
149
0.0
100
AcDbLayout
  1
Layout1
 70
     1
 71
     1
 10
0.0
 20
0.0
 11
12.0
 21
9.0
 12
0.0
 22
0.0
 32
0.0
 14
1.000000000000000E+20
 24
1.000000000000000E+20
 34
1.000000000000000E+20
 15
-1.000000000000000E+20
 25
-1.000000000000000E+20
 35
-1.000000000000000E+20
146
0.0
 13
0.0
 23
0.0
 33
0.0
 16
1.0
 26
0.0
 36
0.0
 17
0.0
 27
1.0
 37
0.0
 76
     0
330
1B
  0
LAYOUT
  5
26
102
{ACAD_REACTORS
330
1A
102
}
330
1A
100
AcDbPlotSettings
  1

  2
none_device
  4

  6

 40
0.0
 41
0.0
 42
0.0
 43
0.0
 44
0.0
 45
0.0
 46
0.0
 47
0.0
 48
0.0
 49
0.0
140
0.0
141
0.0
142
1.0
143
1.0
 70
   688
 72
     0
 73
     0
 74
     5
  7

 75
    16
 76
     0
 77
     2
 78
   300
147
1.0
148
0.0
149
0.0
100
AcDbLayout
  1
Layout2
 70
     1
 71
     2
 10
0.0
 20
0.0
 11
0.0
 21
0.0
 12
0.0
 22
0.0
 32
0.0
 14
0.0
 24
0.0
 34
0.0
 15
0.0
 25
0.0
 35
0.0
146
0.0
 13
0.0
 23
0.0
 33
0.0
 16
1.0
 26
0.0
 36
0.0
 17
0.0
 27
1.0
 37
0.0
 76
     0
330
23
  0
LAYOUT
  5
22
102
{ACAD_REACTORS
330
1A
102
}
330
1A
100
AcDbPlotSettings
  1

  2
none_device
  4

  6

 40
0.0
 41
0.0
 42
0.0
 43
0.0
 44
0.0
 45
0.0
 46
0.0
 47
0.0
 48
0.0
 49
0.0
140
0.0
141
0.0
142
1.0
143
1.0
 70
  1712
 72
     0
 73
     0
 74
     0
  7

 75
     0
 76
     0
 77
     2
 78
   300
147
1.0
148
0.0
149
0.0
100
AcDbLayout
  1
Model
 70
     1
 71
     0
 10
0.0
 20
0.0
 11
12.0
 21
9.0
 12
0.0
 22
0.0
 32
0.0
 14
0.0
 24
-85.0
 34
-23.36557769775391
 15
1200.0
 25
85.0
 35
114.4338912963867
146
0.0
 13
0.0
 23
0.0
 33
0.0
 16
1.0
 26
0.0
 36
0.0
 17
0.0
 27
1.0
 37
0.0
 76
     0
330
1F
331
29
  0
MLINESTYLE
  5
18
102
{ACAD_REACTORS
330
17
102
}
330
17
100
AcDbMlineStyle
  2
Standard
 70
     0
  3

 62
   256
 51
90.0
 52
90.0
 71
     2
 49
0.5
 62
   256
  6
BYLAYER
 49
-0.5
 62
   256
  6
BYLAYER
  0
ACDBPLACEHOLDER
  5
F
102
{ACAD_REACTORS
330
E
102
}
330
E
  0
VISUALSTYLE
  5
2F
102
{ACAD_REACTORS
330
2A
102
}
330
2A
100
AcDbVisualStyle
  2
2dWireframe
 70
     4
 71
     0
 72
     2
 73
     0
 90
        0
 40
-0.6
 41
-30.0
 62
     5
 63
     7
421
 16777215
 74
     1
 91
        4
 64
     7
 65
   257
 75
     1
175
     1
 42
1.0
 92
        0
 66
   257
 43
1.0
 76
     1
 77
     6
 78
     2
 67
     7
 79
     5
170
     0
171
     0
290
     0
174
     0
 93
        1
 44
0.0
173
     0
291
     0
 45
0.0
1001
ACAD
1000
AcDbSavedByObjectVersion
1070
     0
  0
VISUALSTYLE
  5
31
102
{ACAD_REACTORS
330
2A
102
}
330
2A
100
AcDbVisualStyle
  2
3D Hidden
 70
     6
 71
     1
 72
     2
 73
     2
 90
        0
 40
-0.6
 41
-30.0
 62
     5
 63
     7
421
 16777215
 74
     2
 91
        2
 64
     7
 65
   257
 75
     2
175
     1
 42
40.0
 92
        0
 66
   257
 43
1.0
 76
     1
 77
     6
 78
     2
 67
     7
 79
     3
170
     0
171
     0
290
     0
174
     0
 93
        1
 44
0.0
173
     0
291
     0
 45
0.0
1001
ACAD
1000
AcDbSavedByObjectVersion
1070
     0
  0
VISUALSTYLE
  5
30
102
{ACAD_REACTORS
330
2A
102
}
330
2A
100
AcDbVisualStyle
  2
3dWireframe
 70
     5
 71
     0
 72
     2
 73
     0
 90
        0
 40
-0.6
 41
-30.0
 62
     5
 63
     7
421
 16777215
 74
     1
 91
        4
 64
     7
 65
   257
 75
     1
175
     1
 42
1.0
 92
        0
 66
   257
 43
1.0
 76
     1
 77
     6
 78
     2
 67
     7
 79
     5
170
     0
171
     0
290
     0
174
     0
 93
        1
 44
0.0
173
     0
291
     0
 45
0.0
1001
ACAD
1000
AcDbSavedByObjectVersion
1070
     0
  0
VISUALSTYLE
  5
32
102
{ACAD_REACTORS
330
2A
102
}
330
2A
100
AcDbVisualStyle
  2
Basic
 70
     7
 71
     1
 72
     0
 73
     1
 90
        0
 40
-0.6
 41
-30.0
 62
     5
 63
     7
421
 16777215
 74
     0
 91
        4
 64
     7
 65
   257
 75
     1
175
     1
 42
1.0
 92
        8
 66
     7
 43
1.0
 76
     1
 77
     6
 78
     2
 67
     7
 79
     5
170
     0
171
     0
290
     0
174
     0
 93
        1
 44
0.0
173
     0
291
     1
 45
0.0
1001
ACAD
1000
AcDbSavedByObjectVersion
1070
     0
  0
VISUALSTYLE
  5
36
102
{ACAD_REACTORS
330
2A
102
}
330
2A
100
AcDbVisualStyle
  2
Brighten
 70
    12
 71
     2
 72
     2
 73
     0
 90
        0
 40
-0.6
 41
-30.0
 62
     5
 63
     7
421
 16777215
 74
     1
 91
        4
 64
     7
 65
   257
 75
     1
175
     1
 42
1.0
 92
        8
 66
     7
 43
1.0
 76
     1
 77
     6
 78
     2
 67
     7
 79
     5
170
     0
171
     0
290
     0
174
     0
 93
        1
 44
50.0
173
     0
291
     1
 45
0.0
1001
ACAD
1000
AcDbSavedByObjectVersion
1070
     0
  0
VISUALSTYLE
  5
3A
102
{ACAD_REACTORS
330
2A
102
}
330
2A
100
AcDbVisualStyle
  2
ColorChange
 70
    16
 71
     2
 72
     2
 73
     3
 90
        0
 40
-0.6
 41
-30.0
 62
     5
 63
     8
421
  8421504
 74
     1
 91
        4
 64
     7
 65
   257
 75
     1
175
     1
 42
1.0
 92
        8
 66
     8
424
  8421504
 43
1.0
 76
     1
 77
     6
 78
     2
 67
     7
 79
     5
170
     0
171
     0
290
     0
174
     0
 93
        1
 44
0.0
173
     0
291
     1
 45
0.0
1001
ACAD
1000
AcDbSavedByObjectVersion
1070
     0
  0
VISUALSTYLE
  5
34
102
{ACAD_REACTORS
330
2A
102
}
330
2A
100
AcDbVisualStyle
  2
Conceptual
 70
     9
 71
     3
 72
     2
 73
     0
 90
        0
 40
-0.6
 41
-30.0
 62
     5
 63
     7
421
 16777215
 74
     2
 91
        2
 64
     7
 65
   257
 75
     1
175
     1
 42
40.0
 92
        8
 66
     7
 43
1.0
 76
     1
 77
     6
 78
     2
 67
     7
 79
     3
170
     0
171
     0
290
     0
174
     0
 93
        1
 44
0.0
173
     0
291
     0
 45
0.0
1001
ACAD
1000
AcDbSavedByObjectVersion
1070
     0
  0
VISUALSTYLE
  5
35
102
{ACAD_REACTORS
330
2A
102
}
330
2A
100
AcDbVisualStyle
  2
Dim
 70
    11
 71
     2
 72
     2
 73
     0
 90
        0
 40
-0.6
 41
-30.0
 62
     5
 63
     7
421
 16777215
 74
     1
 91
        4
 64
     7
 65
   257
 75
     1
175
     1
 42
1.0
 92
        8
 66
     7
 43
1.0
 76
     1
 77
     6
 78
     2
 67
     7
 79
     5
170
     0
171
     0
290
     0
174
     0
 93
        1
 44
-50.0
173
     0
291
     1
 45
0.0
1001
ACAD
1000
AcDbSavedByObjectVersion
1070
     0
  0
VISUALSTYLE
  5
39
102
{ACAD_REACTORS
330
2A
102
}
330
2A
100
AcDbVisualStyle
  2
Facepattern
 70
    15
 71
     2
 72
     2
 73
     0
 90
        0
 40
-0.6
 41
-30.0
 62
     5
 63
     7
421
 16777215
 74
     1
 91
        4
 64
     7
 65
   257
 75
     1
175
     1
 42
1.0
 92
        8
 66
     7
 43
1.0
 76
     1
 77
     6
 78
     2
 67
     7
 79
     5
170
     0
171
     0
290
     0
174
     0
 93
        1
 44
0.0
173
     0
291
     1
 45
0.0
1001
ACAD
1000
AcDbSavedByObjectVersion
1070
     0
  0
VISUALSTYLE
  5
2B
102
{ACAD_REACTORS
330
2A
102
}
330
2A
100
AcDbVisualStyle
  2
Flat
 70
     0
 71
     2
 72
     1
 73
     1
 90
        2
 40
-0.6
 41
30.0
 62
     5
 63
     7
421
 16777215
 74
     0
 91
        4
 64
     7
 65
   257
 75
     1
175
     1
 42
1.0
 92
        8
 66
     7
 43
1.0
 76
     1
 77
     6
 78
     2
 67
     7
 79
     5
170
     0
171
     0
290
     0
174
     0
 93
       13
 44
0.0
173
     0
291
     1
 45
0.0
1001
ACAD
1000
AcDbSavedByObjectVersion
1070
     0
  0
VISUALSTYLE
  5
2C
102
{ACAD_REACTORS
330
2A
102
}
330
2A
100
AcDbVisualStyle
  2
FlatWithEdges
 70
     1
 71
     2
 72
     1
 73
     1
 90
        2
 40
-0.6
 41
30.0
 62
     5
 63
     7
421
 16777215
 74
     1
 91
        4
 64
     7
 65
   257
 75
     1
175
     1
 42
1.0
 92
        0
 66
   257
 43
1.0
 76
     1
 77
     6
 78
     2
 67
     7
 79
     5
170
     0
171
     0
290
     0
174
     0
 93
       13
 44
0.0
173
     0
291
     1
 45
0.0
1001
ACAD
1000
AcDbSavedByObjectVersion
1070
     0
  0
VISUALSTYLE
  5
2D
102
{ACAD_REACTORS
330
2A
102
}
330
2A
100
AcDbVisualStyle
  2
Gouraud
 70
     2
 71
     2
 72
     2
 73
     1
 90
        2
 40
-0.6
 41
30.0
 62
     5
 63
     7
421
 16777215
 74
     0
 91
        4
 64
     7
 65
   257
 75
     1
175
     1
 42
1.0
 92
        0
 66
     7
 43
1.0
 76
     1
 77
     6
 78
     2
 67
     7
 79
     5
170
     0
171
     0
290
     0
174
     0
 93
       13
 44
0.0
173
     0
291
     1
 45
0.0
1001
ACAD
1000
AcDbSavedByObjectVersion
1070
     0
  0
VISUALSTYLE
  5
2E
102
{ACAD_REACTORS
330
2A
102
}
330
2A
100
AcDbVisualStyle
  2
GouraudWithEdges
 70
     3
 71
     2
 72
     2
 73
     1
 90
        2
 40
-0.6
 41
30.0
 62
     5
 63
     7
421
 16777215
 74
     1
 91
        4
 64
     7
 65
   257
 75
     1
175
     1
 42
1.0
 92
        0
 66
   257
 43
1.0
 76
     1
 77
     6
 78
     2
 67
     7
 79
     5
170
     0
171
     0
290
     0
174
     0
 93
       13
 44
0.0
173
     0
291
     1
 45
0.0
1001
ACAD
1000
AcDbSavedByObjectVersion
1070
     0
  0
VISUALSTYLE
  5
38
102
{ACAD_REACTORS
330
2A
102
}
330
2A
100
AcDbVisualStyle
  2
Linepattern
 70
    14
 71
     2
 72
     2
 73
     0
 90
        0
 40
-0.6
 41
-30.0
 62
     5
 63
     7
421
 16777215
 74
     1
 91
        4
 64
     7
 65
   257
 75
     7
175
     7
 42
1.0
 92
        8
 66
     7
 43
1.0
 76
     1
 77
     6
 78
     2
 67
     7
 79
     5
170
     0
171
     0
290
     0
174
     0
 93
        1
 44
0.0
173
     0
291
     1
 45
0.0
1001
ACAD
1000
AcDbSavedByObjectVersion
1070
     0
  0
VISUALSTYLE
  5
33
102
{ACAD_REACTORS
330
2A
102
}
330
2A
100
AcDbVisualStyle
  2
Realistic
 70
     8
 71
     2
 72
     2
 73
     0
 90
        0
 40
-0.6
 41
-30.0
 62
     5
 63
     7
421
 16777215
 74
     1
 91
        0
 64
     7
 65
   257
 75
     1
175
     1
 42
1.0
 92
        8
 66
     8
424
  7895160
 43
1.0
 76
     1
 77
     6
 78
     2
 67
     7
 79
     5
170
     0
171
     0
290
     0
174
     0
 93
       13
 44
0.0
173
     0
291
     0
 45
0.0
1001
ACAD
1000
AcDbSavedByObjectVersion
1070
     0
  0
VISUALSTYLE
  5
37
102
{ACAD_REACTORS
330
2A
102
}
330
2A
100
AcDbVisualStyle
  2
Thicken
 70
    13
 71
     2
 72
     2
 73
     0
 90
        0
 40
-0.6
 41
-30.0
 62
     5
 63
     7
421
 16777215
 74
     1
 91
        4
 64
     7
 65
   257
 75
     1
175
     1
 42
1.0
 92
       12
 66
     7
 43
1.0
 76
     1
 77
     6
 78
     2
 67
     7
 79
     5
170
     0
171
     0
290
     0
174
     0
 93
        1
 44
0.0
173
     0
291
     1
 45
0.0
1001
ACAD
1000
AcDbSavedByObjectVersion
1070
     0
  0
ENDSEC
  0
EOF
