999
dxflib 2.0.4.8
  0
SECTION
  2
HEADER
  9
$ACADVER
  1
AC1015
  9
$HANDSEED
  5
FFFF
  9
$DIMASZ
 40
2.5
  9
$DIMGAP
 40
0.625
  9
$INSUNITS
 70
0
  9
$DIMEXO
 40
0.625
  9
$DIMTXT
 40
2.5
  9
$DIMSTYLE
  2
Standard
  9
$PLIMMIN
 10
0.0
 20
0.0
  9
$PLIMMAX
 10
210.0
 20
297.0
  9
$DIMEXE
 40
1.25
  0
ENDSEC
  0
SECTION
  2
TABLES
  0
TABLE
  2
VPORT
  5
8
100
AcDbSymbolTable
 70
1
  0
VPORT
  5
30
100
AcDbSymbolTableRecord
100
AcDbViewportTableRecord
  2
*Active
 70
0
 10
0.0
 20
0.0
 11
1.0
 21
1.0
 12
286.3055555555554861
 22
148.5
 13
0.0
 23
0.0
 14
10.0
 24
10.0
 15
10.0
 25
10.0
 16
0.0
 26
0.0
 36
1.0
 17
0.0
 27
0.0
 37
0.0
 40
297.0
 41
1.92798353909465
 42
50.0
 43
0.0
 44
0.0
 50
0.0
 51
0.0
 71
0
 72
100
 73
1
 74
3
 75
1
 76
1
 77
0
 78
0
281
0
 65
1
110
0.0
120
0.0
130
0.0
111
1.0
121
0.0
131
0.0
112
0.0
122
1.0
132
0.0
 79
0
146
0.0
  0
ENDTAB
  0
TABLE
  2
LTYPE
  5
5
100
AcDbSymbolTable
 70
21
  0
LTYPE
  5
14
100
AcDbSymbolTableRecord
100
AcDbLinetypeTableRecord
  2
ByBlock
 70
0
  3

 72
65
 73
0
 40
0.0
  0
LTYPE
  5
15
100
AcDbSymbolTableRecord
100
AcDbLinetypeTableRecord
  2
ByLayer
 70
0
  3

 72
65
 73
0
 40
0.0
  0
LTYPE
  5
16
100
AcDbSymbolTableRecord
100
AcDbLinetypeTableRecord
  2
CONTINUOUS
 70
0
  3
Solid line
 72
65
 73
0
 40
0.0
  0
LTYPE
  5
31
100
AcDbSymbolTableRecord
100
AcDbLinetypeTableRecord
  2
DOT
 70
0
  3
Dot . . . . . . . . . . . . . . . . . . . . . .
 72
65
 73
2
 40
6.3499999999999996
 49
0.0
 74
0
 49
-6.3499999999999996
 74
0
  0
LTYPE
  5
32
100
AcDbSymbolTableRecord
100
AcDbLinetypeTableRecord
  2
DOT2
 70
0
  3
Dot (.5x) .....................................
 72
65
 73
2
 40
3.1749999999999998
 49
0.0
 74
0
 49
-3.1749999999999998
 74
0
  0
LTYPE
  5
33
100
AcDbSymbolTableRecord
100
AcDbLinetypeTableRecord
  2
DOTX2
 70
0
  3
Dot (2x) .  .  .  .  .  .  .  .  .  .  .  .  .
 72
65
 73
2
 40
12.6999999999999993
 49
0.0
 74
0
 49
-12.6999999999999993
 74
0
  0
LTYPE
  5
34
100
AcDbSymbolTableRecord
100
AcDbLinetypeTableRecord
  2
DASHED
 70
0
  3
Dashed __ __ __ __ __ __ __ __ __ __ __ __ __ _
 72
65
 73
2
 40
19.0500000000000007
 49
12.6999999999999993
 74
0
 49
-6.3499999999999996
 74
0
  0
LTYPE
  5
35
100
AcDbSymbolTableRecord
100
AcDbLinetypeTableRecord
  2
DASHED2
 70
0
  3
Dashed (.5x) _ _ _ _ _ _ _ _ _ _ _ _ _ _ _ _ _
 72
65
 73
2
 40
9.5250000000000004
 49
6.3499999999999996
 74
0
 49
-3.1749999999999998
 74
0
  0
LTYPE
  5
36
100
AcDbSymbolTableRecord
100
AcDbLinetypeTableRecord
  2
DASHEDX2
 70
0
  3
Dashed (2x) ____  ____  ____  ____  ____  ___
 72
65
 73
2
 40
38.1000000000000014
 49
25.3999999999999986
 74
0
 49
-12.6999999999999993
 74
0
  0
LTYPE
  5
37
100
AcDbSymbolTableRecord
100
AcDbLinetypeTableRecord
  2
DASHDOT
 70
0
  3
Dash dot __ . __ . __ . __ . __ . __ . __ . __
 72
65
 73
4
 40
25.3999999999999986
 49
12.6999999999999993
 74
0
 49
-6.3499999999999996
 74
0
 49
0.0
 74
0
 49
-6.3499999999999996
 74
0
  0
LTYPE
  5
38
100
AcDbSymbolTableRecord
100
AcDbLinetypeTableRecord
  2
DASHDOT2
 70
0
  3
Dash dot (.5x) _._._._._._._._._._._._._._._.
 72
65
 73
4
 40
12.6999999999999993
 49
6.3499999999999996
 74
0
 49
-3.1749999999999998
 74
0
 49
0.0
 74
0
 49
-3.1749999999999998
 74
0
  0
LTYPE
  5
39
100
AcDbSymbolTableRecord
100
AcDbLinetypeTableRecord
  2
DASHDOTX2
 70
0
  3
Dash dot (2x) ____  .  ____  .  ____  .  ___
 72
65
 73
4
 40
50.7999999999999972
 49
25.3999999999999986
 74
0
 49
-12.6999999999999993
 74
0
 49
0.0
 74
0
 49
-12.6999999999999993
 74
0
  0
LTYPE
  5
3A
100
AcDbSymbolTableRecord
100
AcDbLinetypeTableRecord
  2
DIVIDE
 70
0
  3
Divide ____ . . ____ . . ____ . . ____ . . ____
 72
65
 73
6
 40
31.75
 49
12.6999999999999993
 74
0
 49
-6.3499999999999996
 74
0
 49
0.0
 74
0
 49
-6.3499999999999996
 74
0
 49
0.0
 74
0
 49
-6.3499999999999996
 74
0
  0
LTYPE
  5
3B
100
AcDbSymbolTableRecord
100
AcDbLinetypeTableRecord
  2
DIVIDE2
 70
0
  3
Divide (.5x) __..__..__..__..__..__..__..__.._
 72
65
 73
6
 40
15.875
 49
6.3499999999999996
 74
0
 49
-3.1749999999999998
 74
0
 49
0.0
 74
0
 49
-3.1749999999999998
 74
0
 49
0.0
 74
0
 49
-3.1749999999999998
 74
0
  0
LTYPE
  5
3C
100
AcDbSymbolTableRecord
100
AcDbLinetypeTableRecord
  2
DIVIDEX2
 70
0
  3
Divide (2x) ________  .  .  ________  .  .  _
 72
65
 73
6
 40
63.5
 49
25.3999999999999986
 74
0
 49
-12.6999999999999993
 74
0
 49
0.0
 74
0
 49
-12.6999999999999993
 74
0
 49
0.0
 74
0
 49
-12.6999999999999993
 74
0
  0
LTYPE
  5
3D
100
AcDbSymbolTableRecord
100
AcDbLinetypeTableRecord
  2
CENTER
 70
0
  3
Center ____ _ ____ _ ____ _ ____ _ ____ _ ____
 72
65
 73
4
 40
50.7999999999999972
 49
31.75
 74
0
 49
-6.3499999999999996
 74
0
 49
6.3499999999999996
 74
0
 49
-6.3499999999999996
 74
0
  0
LTYPE
  5
3E
100
AcDbSymbolTableRecord
100
AcDbLinetypeTableRecord
  2
CENTER2
 70
0
  3
Center (.5x) ___ _ ___ _ ___ _ ___ _ ___ _ ___
 72
65
 73
4
 40
28.5749999999999993
 49
19.0500000000000007
 74
0
 49
-3.1749999999999998
 74
0
 49
3.1749999999999998
 74
0
 49
-3.1749999999999998
 74
0
  0
LTYPE
  5
3F
100
AcDbSymbolTableRecord
100
AcDbLinetypeTableRecord
  2
CENTERX2
 70
0
  3
Center (2x) ________  __  ________  __  _____
 72
65
 73
4
 40
101.5999999999999943
 49
63.5
 74
0
 49
-12.6999999999999993
 74
0
 49
12.6999999999999993
 74
0
 49
-12.6999999999999993
 74
0
  0
LTYPE
  5
40
100
AcDbSymbolTableRecord
100
AcDbLinetypeTableRecord
  2
BORDER
 70
0
  3
Border __ __ . __ __ . __ __ . __ __ . __ __ .
 72
65
 73
6
 40
44.4500000000000028
 49
12.6999999999999993
 74
0
 49
-6.3499999999999996
 74
0
 49
12.6999999999999993
 74
0
 49
-6.3499999999999996
 74
0
 49
0.0
 74
0
 49
-6.3499999999999996
 74
0
  0
LTYPE
  5
41
100
AcDbSymbolTableRecord
100
AcDbLinetypeTableRecord
  2
BORDER2
 70
0
  3
Border (.5x) __.__.__.__.__.__.__.__.__.__.__.
 72
65
 73
6
 40
22.2250000000000014
 49
6.3499999999999996
 74
0
 49
-3.1749999999999998
 74
0
 49
6.3499999999999996
 74
0
 49
-3.1749999999999998
 74
0
 49
0.0
 74
0
 49
-3.1749999999999998
 74
0
  0
LTYPE
  5
42
100
AcDbSymbolTableRecord
100
AcDbLinetypeTableRecord
  2
BORDERX2
 70
0
  3
Border (2x) ____  ____  .  ____  ____  .  ___
 72
65
 73
6
 40
88.9000000000000057
 49
25.3999999999999986
 74
0
 49
-12.6999999999999993
 74
0
 49
25.3999999999999986
 74
0
 49
-12.6999999999999993
 74
0
 49
0.0
 74
0
 49
-12.6999999999999993
 74
0
  0
ENDTAB
  0
TABLE
  2
LAYER
  5
2
100
AcDbSymbolTable
 70
5
  0
LAYER
  5
10
100
AcDbSymbolTableRecord
100
AcDbLayerTableRecord
  2
0
 70
0
 62
7
  6
CONTINUOUS
370
0
390
F
  0
LAYER
  5
43
100
AcDbSymbolTableRecord
100
AcDbLayerTableRecord
  2
Alluminio
 70
0
 62
1
  6
CONTINUOUS
370
0
390
F
  0
LAYER
  5
44
100
AcDbSymbolTableRecord
100
AcDbLayerTableRecord
  2
Servo
 70
0
 62
7
  6
CONTINUOUS
370
0
390
F
  0
LAYER
  5
45
100
AcDbSymbolTableRecord
100
AcDbLayerTableRecord
  2
Ingranaggi
 70
0
 62
2
  6
CONTINUOUS
370
0
390
F
  0
LAYER
  5
46
100
AcDbSymbolTableRecord
100
AcDbLayerTableRecord
  2
Lego
 70
0
 62
3
  6
CONTINUOUS
370
0
390
F
  0
ENDTAB
  0
TABLE
  2
STYLE
  5
3
100
AcDbSymbolTable
 70
1
  0
STYLE
  5
11
100
AcDbSymbolTableRecord
100
AcDbTextStyleTableRecord
  2
Standard
 70
0
 40
0.0
 41
0.75
 50
0.0
 71
0
 42
2.5
  3
txt
  4

  0
ENDTAB
  0
TABLE
  2
VIEW
  5
6
100
AcDbSymbolTable
 70
0
  0
ENDTAB
  0
TABLE
  2
UCS
  5
7
100
AcDbSymbolTable
 70
0
  0
ENDTAB
  0
TABLE
  2
APPID
  5
9
100
AcDbSymbolTable
 70
1
  0
APPID
  5
12
100
AcDbSymbolTableRecord
100
AcDbRegAppTableRecord
  2
ACAD
 70
0
  0
ENDTAB
  0
TABLE
  2
DIMSTYLE
  5
A
100
AcDbSymbolTable
 70
1
100
AcDbDimStyleTable
 71
0
  0
DIMSTYLE
105
27
100
AcDbSymbolTableRecord
100
AcDbDimStyleTableRecord
  2
Standard
 41
2.5
 42
0.625
 43
3.75
 44
1.25
 70
0
 73
0
 74
0
 77
1
 78
8
140
2.5
141
2.5
143
0.03937007874016
147
0.625
171
3
172
1
271
2
272
2
274
3
278
44
283
0
284
8
340
11
  0
ENDTAB
  0
TABLE
  2
BLOCK_RECORD
  5
1
100
AcDbSymbolTable
 70
1
  0
BLOCK_RECORD
  5
1F
100
AcDbSymbolTableRecord
100
AcDbBlockTableRecord
  2
*Model_Space
340
22
  0
BLOCK_RECORD
  5
1B
100
AcDbSymbolTableRecord
100
AcDbBlockTableRecord
  2
*Paper_Space
340
1E
  0
BLOCK_RECORD
  5
23
100
AcDbSymbolTableRecord
100
AcDbBlockTableRecord
  2
*Paper_Space0
340
26
  0
ENDTAB
  0
ENDSEC
  0
SECTION
  2
BLOCKS
  0
BLOCK
  5
20
100
AcDbEntity
  8
0
100
AcDbBlockBegin
  2
*Model_Space
 70
0
 10
0.0
 20
0.0
 30
0.0
  3
*Model_Space
  1

  0
ENDBLK
  5
21
100
AcDbEntity
  8
0
100
AcDbBlockEnd
  0
BLOCK
  5
1C
100
AcDbEntity
 67
1
  8
0
100
AcDbBlockBegin
  2
*Paper_Space
 70
0
 10
0.0
 20
0.0
 30
0.0
  3
*Paper_Space
  1

  0
ENDBLK
  5
1D
100
AcDbEntity
 67
1
  8
0
100
AcDbBlockEnd
  0
BLOCK
  5
24
100
AcDbEntity
  8
0
100
AcDbBlockBegin
  2
*Paper_Space0
 70
0
 10
0.0
 20
0.0
 30
0.0
  3
*Paper_Space0
  1

  0
ENDBLK
  5
25
100
AcDbEntity
  8
0
100
AcDbBlockEnd
  0
ENDSEC
  0
SECTION
  2
ENTITIES
  0
CIRCLE
  5
47
100
AcDbEntity
100
AcDbCircle
  8
Alluminio
 62
1
370
-1
  6
ByLayer
 10
7.9800000000000004
 20
0.0
 30
0.0
 40
2.9500000000000002
  0
CIRCLE
  5
48
100
AcDbEntity
100
AcDbCircle
  8
Alluminio
 62
1
370
-1
  6
ByLayer
 10
7.9800000000000004
 20
0.0
 30
0.0
 40
2.3500000000000001
  0
CIRCLE
  5
49
100
AcDbEntity
100
AcDbCircle
  8
Alluminio
 62
1
370
-1
  6
ByLayer
 10
-7.9800000000000004
 20
0.0
 30
0.0
 40
2.9500000000000002
  0
CIRCLE
  5
4A
100
AcDbEntity
100
AcDbCircle
  8
Alluminio
 62
1
370
-1
  6
ByLayer
 10
-7.9800000000000004
 20
0.0
 30
0.0
 40
2.3500000000000001
  0
CIRCLE
  5
4B
100
AcDbEntity
100
AcDbCircle
  8
Alluminio
 62
1
370
-1
  6
ByLayer
 10
0.0
 20
7.9800000000000004
 30
0.0
 40
2.9500000000000002
  0
CIRCLE
  5
4C
100
AcDbEntity
100
AcDbCircle
  8
Alluminio
 62
1
370
-1
  6
ByLayer
 10
0.0
 20
7.9800000000000004
 30
0.0
 40
2.3500000000000001
  0
CIRCLE
  5
4D
100
AcDbEntity
100
AcDbCircle
  8
Alluminio
 62
1
370
-1
  6
ByLayer
 10
0.0
 20
-7.9800000000000004
 30
0.0
 40
2.9500000000000002
  0
CIRCLE
  5
4E
100
AcDbEntity
100
AcDbCircle
  8
Alluminio
 62
1
370
-1
  6
ByLayer
 10
0.0
 20
-7.9800000000000004
 30
0.0
 40
2.3500000000000001
  0
ARC
  5
4F
100
AcDbEntity
  8
Alluminio
 62
1
370
-1
  6
ByLayer
100
AcDbCircle
 10
8.1500000000000004
 20
8.1500000000000004
 30
0.0
 40
3.6000000000000001
100
AcDbArc
 50
360.0
 51
90.0000000000000284
  0
LINE
  5
50
100
AcDbEntity
100
AcDbLine
  8
Alluminio
 62
1
370
-1
  6
ByLayer
 10
-8.1500000000000004
 20
11.75
 30
0.0
 11
8.1499999999999986
 21
11.75
 31
0.0
  0
ARC
  5
51
100
AcDbEntity
  8
Alluminio
 62
1
370
-1
  6
ByLayer
100
AcDbCircle
 10
-8.1500000000000004
 20
8.1500000000000004
 30
0.0
 40
3.6000000000000001
100
AcDbArc
 50
90.0
 51
180.0
  0
LINE
  5
52
100
AcDbEntity
100
AcDbLine
  8
Alluminio
 62
1
370
-1
  6
ByLayer
 10
-11.75
 20
-8.1500000000000004
 30
0.0
 11
-11.75
 21
8.1499999999999986
 31
0.0
  0
ARC
  5
53
100
AcDbEntity
  8
Alluminio
 62
1
370
-1
  6
ByLayer
100
AcDbCircle
 10
-8.1500000000000004
 20
-8.1500000000000004
 30
0.0
 40
3.6000000000000001
100
AcDbArc
 50
180.0
 51
270.0
  0
LINE
  5
54
100
AcDbEntity
100
AcDbLine
  8
Alluminio
 62
1
370
-1
  6
ByLayer
 10
-8.1500000000000004
 20
-11.75
 30
0.0
 11
8.1500000000000004
 21
-11.75
 31
0.0
  0
LINE
  5
55
100
AcDbEntity
100
AcDbLine
  8
Alluminio
 62
1
370
-1
  6
ByLayer
 10
11.75
 20
-8.1500000000000004
 30
0.0
 11
11.75
 21
8.1499999999999986
 31
0.0
  0
ARC
  5
56
100
AcDbEntity
  8
Alluminio
 62
1
370
-1
  6
ByLayer
100
AcDbCircle
 10
8.1500000000000004
 20
-8.1500000000000004
 30
0.0
 40
3.6000000000000001
100
AcDbArc
 50
270.0
 51
0.0
  0
LINE
  5
57
100
AcDbEntity
100
AcDbLine
  8
Alluminio
 62
1
370
-1
  6
ByLayer
 10
-11.75
 20
-28.2999999999999972
 30
0.0
 11
-11.75
 21
-32.2000000000000028
 31
0.0
  0
LINE
  5
58
100
AcDbEntity
100
AcDbLine
  8
Alluminio
 62
1
370
-1
  6
ByLayer
 10
-11.75
 20
-32.2000000000000028
 30
0.0
 11
11.75
 21
-32.2000000000000028
 31
0.0
  0
LINE
  5
59
100
AcDbEntity
100
AcDbLine
  8
Alluminio
 62
1
370
-1
  6
ByLayer
 10
-11.75
 20
-28.2999999999999972
 30
0.0
 11
11.75
 21
-28.2999999999999972
 31
0.0
  0
LINE
  5
5A
100
AcDbEntity
100
AcDbLine
  8
Alluminio
 62
1
370
-1
  6
ByLayer
 10
11.75
 20
-28.2999999999999972
 30
0.0
 11
11.75
 21
-32.2000000000000028
 31
0.0
  0
LINE
  5
5B
100
AcDbEntity
100
AcDbLine
  8
Alluminio
 62
1
370
-1
  6
ByLayer
 10
-10.9300000000000015
 20
-32.2000000000000028
 30
0.0
 11
-10.9299999999999997
 21
-31.4000000000000057
 31
0.0
  0
LINE
  5
5C
100
AcDbEntity
100
AcDbLine
  8
Alluminio
 62
1
370
-1
  6
ByLayer
 10
-10.9299999999999997
 20
-31.4000000000000057
 30
0.0
 11
-5.0299999999999985
 21
-31.4000000000000057
 31
0.0
  0
LINE
  5
5D
100
AcDbEntity
100
AcDbLine
  8
Alluminio
 62
1
370
-1
  6
ByLayer
 10
-5.0299999999999985
 20
-31.4000000000000057
 30
0.0
 11
-5.0299999999999985
 21
-32.2000000000000028
 31
0.0
  0
LINE
  5
5E
100
AcDbEntity
100
AcDbLine
  8
Alluminio
 62
1
370
-1
  6
ByLayer
 10
-5.0299999999999985
 20
-28.2999999999999972
 30
0.0
 11
-5.0299999999999985
 21
-29.1000000000000085
 31
0.0
  0
LINE
  5
5F
100
AcDbEntity
100
AcDbLine
  8
Alluminio
 62
1
370
-1
  6
ByLayer
 10
-5.0299999999999985
 20
-29.1000000000000085
 30
0.0
 11
-10.9299999999999997
 21
-29.1000000000000085
 31
0.0
  0
LINE
  5
60
100
AcDbEntity
100
AcDbLine
  8
Alluminio
 62
1
370
-1
  6
ByLayer
 10
-10.9299999999999997
 20
-29.1000000000000085
 30
0.0
 11
-10.9299999999999997
 21
-28.2999999999999972
 31
0.0
  0
LINE
  5
61
100
AcDbEntity
100
AcDbLine
  8
Alluminio
 62
1
370
-1
  6
ByLayer
 10
5.0299999999999949
 20
-32.2000000000000028
 30
0.0
 11
5.0299999999999949
 21
-31.4000000000000057
 31
0.0
  0
LINE
  5
62
100
AcDbEntity
100
AcDbLine
  8
Alluminio
 62
1
370
-1
  6
ByLayer
 10
5.0299999999999949
 20
-31.4000000000000057
 30
0.0
 11
10.9300000000000352
 21
-31.4000000000000057
 31
0.0
  0
LINE
  5
63
100
AcDbEntity
100
AcDbLine
  8
Alluminio
 62
1
370
-1
  6
ByLayer
 10
10.9300000000000352
 20
-31.4000000000000057
 30
0.0
 11
10.9300000000000335
 21
-32.2000000000000028
 31
0.0
  0
LINE
  5
64
100
AcDbEntity
100
AcDbLine
  8
Alluminio
 62
1
370
-1
  6
ByLayer
 10
10.9300000000000352
 20
-28.2999999999999972
 30
0.0
 11
10.9300000000000352
 21
-29.1000000000000085
 31
0.0
  0
LINE
  5
65
100
AcDbEntity
100
AcDbLine
  8
Alluminio
 62
1
370
-1
  6
ByLayer
 10
10.9300000000000352
 20
-29.1000000000000085
 30
0.0
 11
5.0299999999999949
 21
-29.1000000000000085
 31
0.0
  0
LINE
  5
66
100
AcDbEntity
100
AcDbLine
  8
Alluminio
 62
1
370
-1
  6
ByLayer
 10
5.0299999999999949
 20
-29.1000000000000085
 30
0.0
 11
5.0299999999999949
 21
-28.2999999999999972
 31
0.0
  0
LINE
  5
67
100
AcDbEntity
100
AcDbLine
  8
Alluminio
 62
1
370
-1
  6
ByLayer
 10
-10.3300000000000001
 20
-29.1000000000000085
 30
0.0
 11
-10.3300000000000001
 21
-31.4000000000000057
 31
0.0
  0
LINE
  5
68
100
AcDbEntity
100
AcDbLine
  8
Alluminio
 62
1
370
-1
  6
ByLayer
 10
-5.6299999999999928
 20
-29.1000000000000085
 30
0.0
 11
-5.6299999999999928
 21
-31.4000000000000057
 31
0.0
  0
LINE
  5
69
100
AcDbEntity
100
AcDbLine
  8
Alluminio
 62
1
370
-1
  6
ByLayer
 10
5.629999999999959
 20
-29.1000000000000085
 30
0.0
 11
5.629999999999959
 21
-31.4000000000000057
 31
0.0
  0
LINE
  5
6A
100
AcDbEntity
100
AcDbLine
  8
Alluminio
 62
1
370
-1
  6
ByLayer
 10
10.3300000000000018
 20
-29.1000000000000085
 30
0.0
 11
10.3300000000000018
 21
-31.4000000000000057
 31
0.0
  0
CIRCLE
  5
6B
100
AcDbEntity
100
AcDbCircle
  8
Ingranaggi
 62
256
370
-1
  6
ByLayer
 10
0.0
 20
0.0
 30
0.0
 40
0.9
  0
CIRCLE
  5
6C
100
AcDbEntity
100
AcDbCircle
  8
Ingranaggi
 62
256
370
-1
  6
ByLayer
 10
0.0
 20
0.0
 30
0.0
 40
2.8999999999999999
  0
CIRCLE
  5
6D
100
AcDbEntity
100
AcDbCircle
  8
Ingranaggi
 62
256
370
-1
  6
ByLayer
 10
0.0
 20
0.0
 30
0.0
 40
3.8999999999999999
  0
CIRCLE
  5
6E
100
AcDbEntity
100
AcDbCircle
  8
Ingranaggi
 62
256
370
-1
  6
ByLayer
 10
0.0
 20
0.0
 30
0.0
 40
8.5
  0
CIRCLE
  5
6F
100
AcDbEntity
100
AcDbCircle
  8
Ingranaggi
 62
256
370
-1
  6
ByLayer
 10
0.0
 20
0.0
 30
0.0
 40
3.0
  0
CIRCLE
  5
70
100
AcDbEntity
100
AcDbCircle
  8
Ingranaggi
 62
256
370
-1
  6
ByLayer
 10
0.0
 20
0.0
 30
0.0
 40
6.5
  0
LINE
  5
71
100
AcDbEntity
100
AcDbLine
  8
Ingranaggi
 62
256
370
-1
  6
ByLayer
 10
2.8999999999999702
 20
-30.0999999999999943
 30
0.0
 11
2.8999999999999702
 21
-26.5
 31
0.0
  0
LINE
  5
72
100
AcDbEntity
100
AcDbLine
  8
Ingranaggi
 62
256
370
-1
  6
ByLayer
 10
-2.8999999999999702
 20
-30.0999999999999943
 30
0.0
 11
-2.8999999999999702
 21
-26.5
 31
0.0
  0
LINE
  5
73
100
AcDbEntity
100
AcDbLine
  8
Ingranaggi
 62
256
370
-1
  6
ByLayer
 10
-2.8999999999999702
 20
-26.5
 30
0.0
 11
2.8999999999999702
 21
-26.5
 31
0.0
  0
LINE
  5
74
100
AcDbEntity
100
AcDbLine
  8
Ingranaggi
 62
256
370
-1
  6
ByLayer
 10
-3.0000000000000071
 20
-30.0999999999999943
 30
0.0
 11
3.0000000000000213
 21
-30.0999999999999943
 31
0.0
  0
LINE
  5
75
100
AcDbEntity
100
AcDbLine
  8
Ingranaggi
 62
256
370
-1
  6
ByLayer
 10
-8.4999999999999787
 20
-40.0999999999999943
 30
0.0
 11
8.4999999999999929
 21
-40.0999999999999943
 31
0.0
  0
LINE
  5
76
100
AcDbEntity
100
AcDbLine
  8
Ingranaggi
 62
256
370
-1
  6
ByLayer
 10
-8.4999999999999787
 20
-40.0999999999999943
 30
0.0
 11
-8.4999999999999787
 21
-36.5
 31
0.0
  0
LINE
  5
77
100
AcDbEntity
100
AcDbLine
  8
Ingranaggi
 62
256
370
-1
  6
ByLayer
 10
8.4999999999999929
 20
-40.0999999999999943
 30
0.0
 11
8.4999999999999929
 21
-36.5
 31
0.0
  0
LINE
  5
78
100
AcDbEntity
100
AcDbLine
  8
Ingranaggi
 62
256
370
-1
  6
ByLayer
 10
-8.4999999999999787
 20
-36.5
 30
0.0
 11
8.4999999999999929
 21
-36.5
 31
0.0
  0
LINE
  5
79
100
AcDbEntity
100
AcDbLine
  8
Ingranaggi
 62
256
370
-1
  6
ByLayer
 10
3.8999999999999844
 20
-37.9000000000000057
 30
0.0
 11
3.8999999999999844
 21
-34.0999999999999943
 31
0.0
  0
LINE
  5
7A
100
AcDbEntity
100
AcDbLine
  8
Ingranaggi
 62
256
370
-1
  6
ByLayer
 10
-3.8999999999999702
 20
-37.9000000000000057
 30
0.0
 11
-3.8999999999999702
 21
-34.0999999999999943
 31
0.0
  0
LINE
  5
7B
100
AcDbEntity
100
AcDbLine
  8
Ingranaggi
 62
256
370
-1
  6
ByLayer
 10
-3.8999999999999702
 20
-34.0999999999999943
 30
0.0
 11
3.8999999999999844
 21
-34.0999999999999943
 31
0.0
  0
LINE
  5
7C
100
AcDbEntity
100
AcDbLine
  8
Ingranaggi
 62
256
370
-1
  6
ByLayer
 10
-3.0000000000000071
 20
-34.0999999999999943
 30
0.0
 11
-3.0000000000000071
 21
-30.0999999999999943
 31
0.0
  0
LINE
  5
7D
100
AcDbEntity
100
AcDbLine
  8
Ingranaggi
 62
256
370
-1
  6
ByLayer
 10
3.0000000000000213
 20
-34.0999999999999943
 30
0.0
 11
3.0000000000000213
 21
-30.0999999999999943
 31
0.0
  0
LINE
  5
7E
100
AcDbEntity
100
AcDbLine
  8
Ingranaggi
 62
256
370
-1
  6
ByLayer
 10
-6.4999999999999929
 20
-37.9000000000000057
 30
0.0
 11
6.5000000000000071
 21
-37.9000000000000057
 31
0.0
  0
LINE
  5
7F
100
AcDbEntity
100
AcDbLine
  8
Ingranaggi
 62
256
370
-1
  6
ByLayer
 10
-6.4999999999999929
 20
-37.9000000000000057
 30
0.0
 11
-6.4999999999999929
 21
-36.5
 31
0.0
  0
LINE
  5
80
100
AcDbEntity
100
AcDbLine
  8
Ingranaggi
 62
256
370
-1
  6
ByLayer
 10
6.5000000000000071
 20
-37.9000000000000057
 30
0.0
 11
6.5000000000000071
 21
-36.5
 31
0.0
  0
LINE
  5
81
100
AcDbEntity
100
AcDbLine
  8
Ingranaggi
 62
256
370
-1
  6
ByLayer
 10
-0.8999999999998849
 20
-36.0
 30
0.0
 11
-0.8999999999998849
 21
-26.5
 31
0.0
  0
LINE
  5
82
100
AcDbEntity
100
AcDbLine
  8
Ingranaggi
 62
256
370
-1
  6
ByLayer
 10
0.8999999999998991
 20
-36.0
 30
0.0
 11
0.8999999999998991
 21
-26.5
 31
0.0
  0
LINE
  5
83
100
AcDbEntity
100
AcDbLine
  8
Ingranaggi
 62
256
370
-1
  6
ByLayer
 10
-0.8999999999998849
 20
-36.0
 30
0.0
 11
0.8999999999998991
 21
-36.0
 31
0.0
  0
LINE
  5
84
100
AcDbEntity
100
AcDbLine
  8
Ingranaggi
 62
256
370
-1
  6
ByLayer
 10
-4.4999999999999929
 20
-41.7000000000000028
 30
0.0
 11
4.5000000000000071
 21
-41.7000000000000028
 31
0.0
  0
LINE
  5
85
100
AcDbEntity
100
AcDbLine
  8
Ingranaggi
 62
256
370
-1
  6
ByLayer
 10
4.5000000000000071
 20
-41.7000000000000028
 30
0.0
 11
4.5000000000000071
 21
-40.0999999999999943
 31
0.0
  0
LINE
  5
86
100
AcDbEntity
100
AcDbLine
  8
Ingranaggi
 62
256
370
-1
  6
ByLayer
 10
-4.4999999999999929
 20
-41.7000000000000028
 30
0.0
 11
-4.4999999999999929
 21
-40.0999999999999943
 31
0.0
  0
LINE
  5
87
100
AcDbEntity
100
AcDbLine
  8
Ingranaggi
 62
256
370
-1
  6
ByLayer
 10
3.0000000000000062
 20
-41.7000000000000028
 30
0.0
 11
3.0000000000000062
 21
-40.0999999999999943
 31
0.0
  0
LINE
  5
88
100
AcDbEntity
100
AcDbLine
  8
Ingranaggi
 62
256
370
-1
  6
ByLayer
 10
-2.9999999999999938
 20
-41.7000000000000028
 30
0.0
 11
-2.9999999999999938
 21
-40.0999999999999943
 31
0.0
  0
LINE
  5
89
100
AcDbEntity
100
AcDbLine
  8
Servo
 62
256
370
-1
  6
ByLayer
 10
29.8499999999999837
 20
-9.900000000000011
 30
0.0
 11
29.8499999999999837
 21
9.899999999999995
 31
0.0
  0
ARC
  5
8A
100
AcDbEntity
  8
Servo
 62
256
370
-1
  6
ByLayer
100
AcDbCircle
 10
34.2628865979381061
 20
4.9499999999999922
 30
0.0
 40
2.6128865979381501
100
AcDbArc
 50
31.1091425401491399
 51
328.8908574598508494
  0
LINE
  5
8B
100
AcDbEntity
100
AcDbLine
  8
Servo
 62
256
370
-1
  6
ByLayer
 10
36.4999999999999858
 20
3.599999999999977
 30
0.0
 11
36.4999999999999858
 21
-3.5999999999999628
 31
0.0
  0
ARC
  5
8C
100
AcDbEntity
  8
Servo
 62
256
370
-1
  6
ByLayer
100
AcDbCircle
 10
34.2628865979381061
 20
-4.9500000000000082
 30
0.0
 40
2.6128865979381501
100
AcDbArc
 50
31.1091425401491399
 51
328.8908574598508494
  0
ARC
  5
8D
100
AcDbEntity
  8
Servo
 62
256
370
-1
  6
ByLayer
100
AcDbCircle
 10
-14.0628865979381708
 20
-4.9499999999999833
 30
0.0
 40
2.6128865979381501
100
AcDbArc
 50
211.1091425401491506
 51
148.8908574598508494
  0
LINE
  5
8E
100
AcDbEntity
100
AcDbLine
  8
Servo
 62
256
370
-1
  6
ByLayer
 10
-16.300000000000022
 20
-3.5999999999999983
 30
0.0
 11
-16.300000000000022
 21
3.5999999999999699
 31
0.0
  0
ARC
  5
8F
100
AcDbEntity
  8
Servo
 62
256
370
-1
  6
ByLayer
100
AcDbCircle
 10
-14.0628865979381708
 20
4.949999999999986
 30
0.0
 40
2.6128865979381501
100
AcDbArc
 50
211.1091425401491506
 51
148.8908574598508494
  0
LINE
  5
90
100
AcDbEntity
100
AcDbLine
  8
Servo
 62
256
370
-1
  6
ByLayer
 10
-16.300000000000022
 20
6.3000000000000096
 30
0.0
 11
-16.300000000000022
 21
8.9000000000000092
 31
0.0
  0
ARC
  5
91
100
AcDbEntity
  8
Servo
 62
256
370
-1
  6
ByLayer
100
AcDbCircle
 10
-15.300000000000022
 20
8.9000000000000092
 30
0.0
 40
1.0
100
AcDbArc
 50
90.0
 51
180.0
  0
LINE
  5
92
100
AcDbEntity
100
AcDbLine
  8
Servo
 62
256
370
-1
  6
ByLayer
 10
-16.300000000000022
 20
-8.9000000000000039
 30
0.0
 11
-16.300000000000022
 21
-6.300000000000006
 31
0.0
  0
ARC
  5
93
100
AcDbEntity
  8
Servo
 62
256
370
-1
  6
ByLayer
100
AcDbCircle
 10
-15.300000000000022
 20
-8.9000000000000039
 30
0.0
 40
1.0
100
AcDbArc
 50
180.0
 51
269.9999999999996021
  0
LINE
  5
94
100
AcDbEntity
100
AcDbLine
  8
Servo
 62
256
370
-1
  6
ByLayer
 10
36.4999999999999858
 20
-6.3000000000000123
 30
0.0
 11
36.4999999999999858
 21
-8.9000000000000057
 31
0.0
  0
LINE
  5
95
100
AcDbEntity
100
AcDbLine
  8
Servo
 62
256
370
-1
  6
ByLayer
 10
35.4999999999999858
 20
-9.9000000000000057
 30
0.0
 11
-15.3000000000000291
 21
-9.9000000000000039
 31
0.0
  0
ARC
  5
96
100
AcDbEntity
  8
Servo
 62
256
370
-1
  6
ByLayer
100
AcDbCircle
 10
35.4999999999999858
 20
-8.9000000000000057
 30
0.0
 40
1.0
100
AcDbArc
 50
270.0
 51
0.0
  0
LINE
  5
97
100
AcDbEntity
100
AcDbLine
  8
Servo
 62
256
370
-1
  6
ByLayer
 10
-15.300000000000022
 20
9.9000000000000092
 30
0.0
 11
35.4999999999999858
 21
9.8999999999999897
 31
0.0
  0
LINE
  5
98
100
AcDbEntity
100
AcDbLine
  8
Servo
 62
256
370
-1
  6
ByLayer
 10
36.4999999999999858
 20
8.8999999999999897
 30
0.0
 11
36.4999999999999858
 21
6.2999999999999954
 31
0.0
  0
ARC
  5
99
100
AcDbEntity
  8
Servo
 62
256
370
-1
  6
ByLayer
100
AcDbCircle
 10
35.4999999999999858
 20
8.8999999999999897
 30
0.0
 40
1.0
100
AcDbArc
 50
0.0
 51
90.0
  0
LINE
  5
9A
100
AcDbEntity
100
AcDbLine
  8
Servo
 62
256
370
-1
  6
ByLayer
 10
-10.0500000000000149
 20
-9.9000000000000057
 30
0.0
 11
-10.0500000000000149
 21
9.9000000000000004
 31
0.0
  0
CIRCLE
  5
9B
100
AcDbEntity
100
AcDbCircle
  8
Servo
 62
256
370
-1
  6
ByLayer
 10
0.0
 20
0.0
 30
0.0
 40
6.4500000000000002
  0
CIRCLE
  5
9C
100
AcDbEntity
100
AcDbCircle
  8
Servo
 62
256
370
-1
  6
ByLayer
 10
0.0
 20
0.0
 30
0.0
 40
5.0
  0
CIRCLE
  5
9D
100
AcDbEntity
100
AcDbCircle
  8
Servo
 62
256
370
-1
  6
ByLayer
 10
0.0
 20
0.0
 30
0.0
 40
3.0
  0
LINE
  5
9E
100
AcDbEntity
100
AcDbLine
  8
Servo
 62
256
370
-1
  6
ByLayer
 10
-10.0500000000000149
 20
0.6999999999999998
 30
0.0
 11
-12.8500000000000103
 21
0.7000000000000062
 31
0.0
  0
ARC
  5
9F
100
AcDbEntity
  8
Servo
 62
256
370
-1
  6
ByLayer
100
AcDbCircle
 10
-12.8500000000000121
 20
0.0000000000000018
 30
0.0
 40
0.7000000000000044
100
AcDbArc
 50
89.9999999999998579
 51
270.0
  0
LINE
  5
A0
100
AcDbEntity
100
AcDbLine
  8
Servo
 62
256
370
-1
  6
ByLayer
 10
-12.8500000000000121
 20
-0.7000000000000027
 30
0.0
 11
-10.0500000000000149
 21
-0.700000000000002
 31
0.0
  0
ARC
  5
A1
100
AcDbEntity
  8
Servo
 62
256
370
0
  6
CONTINUOUS
100
AcDbCircle
 10
0.0
 20
0.0
 30
0.0
 40
9.25
100
AcDbArc
 50
73.0888032570590127
 51
286.9111967429406604
  0
LINE
  5
A2
100
AcDbEntity
100
AcDbLine
  8
Servo
 62
256
370
-1
  6
ByLayer
 10
29.8499999999999837
 20
-0.7000000000000125
 30
0.0
 11
32.6499999999999631
 21
-0.7000000000000316
 31
0.0
  0
LINE
  5
A3
100
AcDbEntity
100
AcDbLine
  8
Servo
 62
256
370
-1
  6
ByLayer
 10
32.6499999999999631
 20
0.6999999999999885
 30
0.0
 11
29.8499999999999837
 21
0.6999999999999734
 31
0.0
  0
ARC
  5
A4
100
AcDbEntity
  8
Servo
 62
256
370
0
  6
CONTINUOUS
100
AcDbCircle
 10
32.6499999999999631
 20
-0.0000000000000215
 30
0.0
 40
0.7000000000000101
100
AcDbArc
 50
269.9999999999997158
 51
90.0000000000002984
  0
LINE
  5
A5
100
AcDbEntity
100
AcDbLine
  8
Servo
 62
256
370
-1
  6
ByLayer
 10
33.3500000000001364
 20
-37.6999999999999957
 30
0.0
 11
33.3500000000001364
 21
-38.5999999999999872
 31
0.0
  0
LINE
  5
A6
100
AcDbEntity
100
AcDbLine
  8
Servo
 62
256
370
-1
  6
ByLayer
 10
36.5
 20
-38.5999999999999872
 30
0.0
 11
36.5
 21
-41.0999999999999872
 31
0.0
  0
LINE
  5
A7
100
AcDbEntity
100
AcDbLine
  8
Servo
 62
256
370
-1
  6
ByLayer
 10
36.5
 20
-41.0999999999999872
 30
0.0
 11
29.8499999999999943
 21
-41.0999999999999872
 31
0.0
  0
LINE
  5
A8
100
AcDbEntity
100
AcDbLine
  8
Servo
 62
256
370
-1
  6
ByLayer
 10
36.5
 20
-38.5999999999999872
 30
0.0
 11
29.8499999999999943
 21
-38.5999999999999872
 31
0.0
  0
LINE
  5
A9
100
AcDbEntity
100
AcDbLine
  8
Servo
 62
256
370
-1
  6
ByLayer
 10
33.3500000000001364
 20
-37.6999999999999957
 30
0.0
 11
29.8499999999999943
 21
-37.6999999999999957
 31
0.0
  0
LINE
  5
AA
100
AcDbEntity
100
AcDbLine
  8
Servo
 62
256
370
-1
  6
ByLayer
 10
31.6499999999999773
 20
-38.5999999999999872
 30
0.0
 11
31.6499999999999773
 21
-41.0999999999999872
 31
0.0
  0
LINE
  5
AB
100
AcDbEntity
100
AcDbLine
  8
Servo
 62
256
370
-1
  6
ByLayer
 10
17.5999999999999943
 20
-40.4999999999999929
 30
0.0
 11
17.5999999999999943
 21
-45.9999999999999929
 31
0.0
  0
LINE
  5
AC
100
AcDbEntity
100
AcDbLine
  8
Servo
 62
256
370
-1
  6
ByLayer
 10
24.0999999999999943
 20
-40.4999999999999929
 30
0.0
 11
24.0999999999999943
 21
-45.9999999999999929
 31
0.0
  0
LINE
  5
AD
100
AcDbEntity
100
AcDbLine
  8
Servo
 62
256
370
-1
  6
ByLayer
 10
24.0999999999999943
 20
-40.4999999999999929
 30
0.0
 11
17.5999999999999943
 21
-40.4999999999999929
 31
0.0
  0
LINE
  5
AE
100
AcDbEntity
100
AcDbLine
  8
Servo
 62
256
370
-1
  6
ByLayer
 10
-13.5500000000001481
 20
-37.7000000000000099
 30
0.0
 11
-13.5500000000001481
 21
-38.5999999999999872
 31
0.0
  0
LINE
  5
AF
100
AcDbEntity
100
AcDbLine
  8
Servo
 62
256
370
-1
  6
ByLayer
 10
-16.7000000000000099
 20
-38.6000000000000014
 30
0.0
 11
-16.7000000000000135
 21
-41.0999999999999801
 31
0.0
  0
LINE
  5
B0
100
AcDbEntity
100
AcDbLine
  8
Servo
 62
256
370
-1
  6
ByLayer
 10
-16.7000000000000135
 20
-41.0999999999999801
 30
0.0
 11
-10.050000000000006
 21
-41.0999999999999943
 31
0.0
  0
LINE
  5
B1
100
AcDbEntity
100
AcDbLine
  8
Servo
 62
256
370
-1
  6
ByLayer
 10
-16.7000000000000099
 20
-38.6000000000000014
 30
0.0
 11
-10.050000000000006
 21
-38.5999999999999872
 31
0.0
  0
LINE
  5
B2
100
AcDbEntity
100
AcDbLine
  8
Servo
 62
256
370
-1
  6
ByLayer
 10
-13.5500000000001481
 20
-37.7000000000000099
 30
0.0
 11
-10.050000000000006
 21
-37.6999999999999957
 31
0.0
  0
LINE
  5
B3
100
AcDbEntity
100
AcDbLine
  8
Servo
 62
256
370
-1
  6
ByLayer
 10
-11.849999999999989
 20
-38.5999999999999659
 30
0.0
 11
-11.849999999999989
 21
-41.0999999999999801
 31
0.0
  0
LINE
  5
B4
100
AcDbEntity
100
AcDbLine
  8
Servo
 62
256
370
-1
  6
ByLayer
 10
29.8499999999999943
 20
-45.9999999999999929
 30
0.0
 11
-10.050000000000006
 21
-45.9999999999999929
 31
0.0
  0
ARC
  5
B5
100
AcDbEntity
  8
Servo
 62
256
370
-1
  6
ByLayer
100
AcDbCircle
 10
-9.050000000000006
 20
-35.9999999999999929
 30
0.0
 40
1.0
100
AcDbArc
 50
89.9999999999995879
 51
180.0
  0
LINE
  5
B6
100
AcDbEntity
100
AcDbLine
  8
Servo
 62
256
370
-1
  6
ByLayer
 10
-10.050000000000006
 20
-35.9999999999999929
 30
0.0
 11
-10.050000000000006
 21
-70.0
 31
0.0
  0
ARC
  5
B7
100
AcDbEntity
  8
Servo
 62
256
370
-1
  6
ByLayer
100
AcDbCircle
 10
-9.050000000000006
 20
-70.0
 30
0.0
 40
1.0
100
AcDbArc
 50
180.0
 51
270.0000000000003979
  0
LINE
  5
B8
100
AcDbEntity
100
AcDbLine
  8
Servo
 62
256
370
-1
  6
ByLayer
 10
28.8499999999999943
 20
-71.0
 30
0.0
 11
-9.0499999999999989
 21
-71.0
 31
0.0
  0
ARC
  5
B9
100
AcDbEntity
  8
Servo
 62
256
370
-1
  6
ByLayer
100
AcDbCircle
 10
28.8499999999999943
 20
-70.0
 30
0.0
 40
1.0
100
AcDbArc
 50
270.0
 51
0.0
  0
LINE
  5
BA
100
AcDbEntity
100
AcDbLine
  8
Servo
 62
256
370
-1
  6
ByLayer
 10
5.0
 20
-30.0
 30
0.0
 11
-5.0
 21
-30.0
 31
0.0
  0
LINE
  5
BB
100
AcDbEntity
100
AcDbLine
  8
Servo
 62
256
370
-1
  6
ByLayer
 10
6.4500000000000028
 20
-30.5999999999999943
 30
0.0
 11
-6.4500000000000028
 21
-30.5999999999999943
 31
0.0
  0
LINE
  5
BC
100
AcDbEntity
100
AcDbLine
  8
Servo
 62
256
370
-1
  6
ByLayer
 10
-5.0
 20
-30.0
 30
0.0
 11
-5.0
 21
-30.5999999999999943
 31
0.0
  0
LINE
  5
BD
100
AcDbEntity
100
AcDbLine
  8
Servo
 62
256
370
-1
  6
ByLayer
 10
5.0
 20
-30.0
 30
0.0
 11
5.0
 21
-30.5999999999999943
 31
0.0
  0
LINE
  5
BE
100
AcDbEntity
100
AcDbLine
  8
Servo
 62
256
370
-1
  6
ByLayer
 10
-6.4500000000000028
 20
-30.5999999999999943
 30
0.0
 11
-6.4500000000000028
 21
-32.2000000000000028
 31
0.0
  0
LINE
  5
BF
100
AcDbEntity
100
AcDbLine
  8
Servo
 62
256
370
-1
  6
ByLayer
 10
6.4500000000000028
 20
-30.5999999999999943
 30
0.0
 11
6.4500000000000028
 21
-32.2000000000000028
 31
0.0
  0
LINE
  5
C0
100
AcDbEntity
100
AcDbLine
  8
Servo
 62
256
370
-1
  6
ByLayer
 10
-3.0
 20
-30.0
 30
0.0
 11
-3.0
 21
-32.2000000000000028
 31
0.0
  0
LINE
  5
C1
100
AcDbEntity
100
AcDbLine
  8
Servo
 62
256
370
-1
  6
ByLayer
 10
3.0
 20
-30.0
 30
0.0
 11
3.0
 21
-32.2000000000000028
 31
0.0
  0
LINE
  5
C2
100
AcDbEntity
100
AcDbLine
  8
Servo
 62
256
370
-1
  6
ByLayer
 10
-9.2500000000000018
 20
-32.1999999999999957
 30
0.0
 11
-9.2500000000000018
 21
-35.0
 31
0.0
  0
LINE
  5
C3
100
AcDbEntity
100
AcDbLine
  8
Ingranaggi
 62
256
370
-1
  6
ByLayer
 10
19.0999999999999979
 20
-36.5000000000000142
 30
0.0
 11
4.599999999999997
 21
-36.5
 31
0.0
  0
LINE
  5
C4
100
AcDbEntity
100
AcDbLine
  8
Ingranaggi
 62
256
370
-1
  6
ByLayer
 10
19.0999999999999979
 20
-36.5000000000000142
 30
0.0
 11
19.0999999999999979
 21
-34.6000000000000085
 31
0.0
  0
LINE
  5
C5
100
AcDbEntity
100
AcDbLine
  8
Ingranaggi
 62
256
370
-1
  6
ByLayer
 10
19.0999999999999979
 20
-34.6000000000000085
 30
0.0
 11
4.599999999999997
 21
-34.6000000000000085
 31
0.0
  0
LINE
  5
C6
100
AcDbEntity
100
AcDbLine
  8
Ingranaggi
 62
256
370
-1
  6
ByLayer
 10
4.599999999999997
 20
-36.5
 30
0.0
 11
4.599999999999997
 21
-34.6000000000000085
 31
0.0
  0
LINE
  5
C7
100
AcDbEntity
100
AcDbLine
  8
Ingranaggi
 62
256
370
-1
  6
ByLayer
 10
13.149999999999995
 20
-42.4000000000000057
 30
0.0
 11
13.149999999999995
 21
-41.2000000000000028
 31
0.0
  0
LINE
  5
C8
100
AcDbEntity
100
AcDbLine
  8
Ingranaggi
 62
256
370
-1
  6
ByLayer
 10
13.149999999999995
 20
-42.4000000000000057
 30
0.0
 11
28.5499999999999972
 21
-42.4000000000000057
 31
0.0
  0
LINE
  5
C9
100
AcDbEntity
100
AcDbLine
  8
Ingranaggi
 62
256
370
-1
  6
ByLayer
 10
13.149999999999995
 20
-41.2000000000000028
 30
0.0
 11
28.5499999999999972
 21
-41.2000000000000028
 31
0.0
  0
LINE
  5
CA
100
AcDbEntity
100
AcDbLine
  8
Ingranaggi
 62
256
370
-1
  6
ByLayer
 10
28.5499999999999972
 20
-42.4000000000000057
 30
0.0
 11
28.5499999999999972
 21
-41.2000000000000028
 31
0.0
  0
LINE
  5
CB
100
AcDbEntity
100
AcDbLine
  8
Ingranaggi
 62
256
370
-1
  6
ByLayer
 10
16.3499999999999943
 20
-37.6000000000000085
 30
0.0
 11
25.3499999999999943
 21
-37.6000000000000085
 31
0.0
  0
LINE
  5
CC
100
AcDbEntity
100
AcDbLine
  8
Ingranaggi
 62
256
370
-1
  6
ByLayer
 10
16.3499999999999943
 20
-41.2000000000000028
 30
0.0
 11
16.3499999999999943
 21
-37.6000000000000085
 31
0.0
  0
LINE
  5
CD
100
AcDbEntity
100
AcDbLine
  8
Ingranaggi
 62
256
370
-1
  6
ByLayer
 10
25.3499999999999943
 20
-41.2000000000000028
 30
0.0
 11
25.3499999999999943
 21
-37.6000000000000085
 31
0.0
  0
LINE
  5
CE
100
AcDbEntity
100
AcDbLine
  8
Ingranaggi
 62
256
370
-1
  6
ByLayer
 10
17.3499999999999943
 20
-38.4000000000000057
 30
0.0
 11
24.3499999999999943
 21
-38.4000000000000057
 31
0.0
  0
LINE
  5
CF
100
AcDbEntity
100
AcDbLine
  8
Ingranaggi
 62
256
370
-1
  6
ByLayer
 10
17.3499999999999943
 20
-42.4000000000000057
 30
0.0
 11
17.3499999999999943
 21
-38.4000000000000057
 31
0.0
  0
LINE
  5
D0
100
AcDbEntity
100
AcDbLine
  8
Ingranaggi
 62
256
370
-1
  6
ByLayer
 10
24.3499999999999943
 20
-42.4000000000000057
 30
0.0
 11
24.3499999999999943
 21
-38.4000000000000057
 31
0.0
  0
LINE
  5
D1
100
AcDbEntity
100
AcDbLine
  8
Ingranaggi
 62
256
370
-1
  6
ByLayer
 10
18.3499999999999943
 20
-37.6000000000000085
 30
0.0
 11
18.3499999999999943
 21
-34.6000000000000085
 31
0.0
  0
LINE
  5
D2
100
AcDbEntity
100
AcDbLine
  8
Ingranaggi
 62
256
370
-1
  6
ByLayer
 10
23.3499999999999943
 20
-37.6000000000000085
 30
0.0
 11
23.3499999999999943
 21
-34.6000000000000085
 31
0.0
  0
LINE
  5
D3
100
AcDbEntity
100
AcDbLine
  8
Ingranaggi
 62
256
370
-1
  6
ByLayer
 10
18.3499999999999943
 20
-34.6000000000000085
 30
0.0
 11
23.3499999999999943
 21
-34.6000000000000085
 31
0.0
  0
LINE
  5
D4
100
AcDbEntity
100
AcDbLine
  8
Ingranaggi
 62
256
370
-1
  6
ByLayer
 10
7.8499999999999979
 20
-36.5
 30
0.0
 11
7.8499999999999943
 21
-41.2000000000000028
 31
0.0
  0
LINE
  5
D5
100
AcDbEntity
100
AcDbLine
  8
Ingranaggi
 62
256
370
-1
  6
ByLayer
 10
15.8499999999999979
 20
-36.5000000000000142
 30
0.0
 11
15.8499999999999943
 21
-41.2000000000000028
 31
0.0
  0
LINE
  5
D6
100
AcDbEntity
100
AcDbLine
  8
Ingranaggi
 62
256
370
-1
  6
ByLayer
 10
15.8499999999999943
 20
-41.2000000000000028
 30
0.0
 11
7.8499999999999943
 21
-41.2000000000000028
 31
0.0
  0
LINE
  5
D7
100
AcDbEntity
100
AcDbLine
  8
Ingranaggi
 62
256
370
-1
  6
ByLayer
 10
4.2499999999999929
 20
-43.9000000000000057
 30
0.0
 11
4.2499999999999929
 21
-42.9000000000000057
 31
0.0
  0
LINE
  5
D8
100
AcDbEntity
100
AcDbLine
  8
Ingranaggi
 62
256
370
-1
  6
ByLayer
 10
4.2499999999999929
 20
-43.9000000000000057
 30
0.0
 11
19.4499999999999922
 21
-43.9000000000000057
 31
0.0
  0
LINE
  5
D9
100
AcDbEntity
100
AcDbLine
  8
Ingranaggi
 62
256
370
-1
  6
ByLayer
 10
4.2499999999999929
 20
-42.9000000000000057
 30
0.0
 11
19.4499999999999922
 21
-42.9000000000000057
 31
0.0
  0
LINE
  5
DA
100
AcDbEntity
100
AcDbLine
  8
Ingranaggi
 62
256
370
-1
  6
ByLayer
 10
19.4499999999999922
 20
-43.9000000000000057
 30
0.0
 11
19.4499999999999922
 21
-42.9000000000000057
 31
0.0
  0
LINE
  5
DB
100
AcDbEntity
100
AcDbLine
  8
Ingranaggi
 62
256
370
-1
  6
ByLayer
 10
9.9999999999999929
 20
-41.2000000000000028
 30
0.0
 11
13.699999999999994
 21
-41.2000000000000028
 31
0.0
  0
LINE
  5
DC
100
AcDbEntity
100
AcDbLine
  8
Ingranaggi
 62
256
370
-1
  6
ByLayer
 10
9.9999999999999929
 20
-42.9000000000000057
 30
0.0
 11
9.9999999999999929
 21
-41.2000000000000028
 31
0.0
  0
LINE
  5
DD
100
AcDbEntity
100
AcDbLine
  8
Ingranaggi
 62
256
370
-1
  6
ByLayer
 10
13.699999999999994
 20
-42.9000000000000057
 30
0.0
 11
13.699999999999994
 21
-41.2000000000000028
 31
0.0
  0
LINE
  5
DE
100
AcDbEntity
100
AcDbLine
  8
Servo
 62
256
370
-1
  6
ByLayer
 10
-3.050000000000006
 20
-41.9999999999999929
 30
0.0
 11
-3.050000000000006
 21
-45.9999999999999929
 31
0.0
  0
LINE
  5
DF
100
AcDbEntity
100
AcDbLine
  8
Servo
 62
256
370
-1
  6
ByLayer
 10
2.949999999999994
 20
-41.9999999999999929
 30
0.0
 11
-3.050000000000006
 21
-41.9999999999999929
 31
0.0
  0
LINE
  5
E0
100
AcDbEntity
100
AcDbLine
  8
Servo
 62
256
370
-1
  6
ByLayer
 10
2.949999999999994
 20
-41.9999999999999929
 30
0.0
 11
2.949999999999994
 21
-45.9999999999999929
 31
0.0
  0
LINE
  5
E1
100
AcDbEntity
100
AcDbLine
  8
Servo
 62
256
370
-1
  6
ByLayer
 10
10.9999999999999929
 20
-32.8000000000000114
 30
0.0
 11
10.9999999999999929
 21
-45.9999999999999929
 31
0.0
  0
LINE
  5
E2
100
AcDbEntity
100
AcDbLine
  8
Servo
 62
256
370
-1
  6
ByLayer
 10
12.6999999999999922
 20
-32.8000000000000114
 30
0.0
 11
12.6999999999999922
 21
-45.9999999999999929
 31
0.0
  0
LINE
  5
E3
100
AcDbEntity
100
AcDbLine
  8
Servo
 62
256
370
-1
  6
ByLayer
 10
12.6999999999999922
 20
-32.8000000000000114
 30
0.0
 11
10.9999999999999929
 21
-32.8000000000000114
 31
0.0
  0
LINE
  5
E4
100
AcDbEntity
100
AcDbLine
  8
Servo
 62
256
370
-1
  6
ByLayer
 10
19.9999999999999929
 20
-32.8000000000000114
 30
0.0
 11
19.9999999999999929
 21
-40.4999999999999929
 31
0.0
  0
LINE
  5
E5
100
AcDbEntity
100
AcDbLine
  8
Servo
 62
256
370
-1
  6
ByLayer
 10
21.6999999999999957
 20
-32.8000000000000114
 30
0.0
 11
21.6999999999999957
 21
-40.4999999999999929
 31
0.0
  0
LINE
  5
E6
100
AcDbEntity
100
AcDbLine
  8
Servo
 62
256
370
-1
  6
ByLayer
 10
19.9999999999999929
 20
-32.8000000000000114
 30
0.0
 11
21.6999999999999957
 21
-32.8000000000000114
 31
0.0
  0
LINE
  5
E7
100
AcDbEntity
100
AcDbLine
  8
Servo
 62
256
370
-1
  6
ByLayer
 10
29.8499999999999943
 20
-35.9999999999999929
 30
0.0
 11
29.8499999999999943
 21
-70.0
 31
0.0
  0
LINE
  5
E8
100
AcDbEntity
100
AcDbLine
  8
Servo
 62
256
370
-1
  6
ByLayer
 10
28.8499999999999943
 20
-34.9999999999999929
 30
0.0
 11
-9.0499999999999989
 21
-34.9999999999999929
 31
0.0
  0
ARC
  5
E9
100
AcDbEntity
  8
Servo
 62
256
370
-1
  6
ByLayer
100
AcDbCircle
 10
28.8499999999999943
 20
-35.9999999999999929
 30
0.0
 40
1.0
100
AcDbArc
 50
0.0
 51
90.0
  0
LINE
  5
EA
100
AcDbEntity
100
AcDbLine
  8
Servo
 62
256
370
-1
  6
ByLayer
 10
-7.050000000000006
 20
-45.9999999999999929
 30
0.0
 11
-7.050000000000006
 21
-70.0
 31
0.0
  0
LINE
  5
EB
100
AcDbEntity
100
AcDbLine
  8
Servo
 62
256
370
-1
  6
ByLayer
 10
-9.050000000000006
 20
-45.9999999999999929
 30
0.0
 11
-9.050000000000006
 21
-70.0
 31
0.0
  0
LINE
  5
EC
100
AcDbEntity
100
AcDbLine
  8
Servo
 62
256
370
-1
  6
ByLayer
 10
26.8499999999999943
 20
-45.9999999999999929
 30
0.0
 11
26.8499999999999943
 21
-70.0
 31
0.0
  0
LINE
  5
ED
100
AcDbEntity
100
AcDbLine
  8
Servo
 62
256
370
-1
  6
ByLayer
 10
28.8499999999999943
 20
-45.9999999999999929
 30
0.0
 11
28.8499999999999943
 21
-70.0
 31
0.0
  0
LINE
  5
EE
100
AcDbEntity
100
AcDbLine
  8
Servo
 62
256
370
-1
  6
ByLayer
 10
-9.050000000000006
 20
-45.9999999999999929
 30
0.0
 11
-9.050000000000006
 21
-70.0
 31
0.0
  0
LINE
  5
EF
100
AcDbEntity
100
AcDbLine
  8
Servo
 62
256
370
-1
  6
ByLayer
 10
-7.050000000000006
 20
-45.9999999999999929
 30
0.0
 11
-7.050000000000006
 21
-70.0
 31
0.0
  0
LINE
  5
F0
100
AcDbEntity
100
AcDbLine
  8
Servo
 62
256
370
-1
  6
ByLayer
 10
26.8499999999999943
 20
-45.9999999999999929
 30
0.0
 11
26.8499999999999943
 21
-70.0
 31
0.0
  0
LINE
  5
F1
100
AcDbEntity
100
AcDbLine
  8
Servo
 62
256
370
-1
  6
ByLayer
 10
28.8499999999999943
 20
-45.9999999999999929
 30
0.0
 11
28.8499999999999943
 21
-70.0
 31
0.0
  0
LINE
  5
F2
100
AcDbEntity
100
AcDbLine
  8
Servo
 62
256
370
-1
  6
ByLayer
 10
-9.050000000000006
 20
-70.0
 30
0.0
 11
-7.050000000000006
 21
-70.0
 31
0.0
  0
LINE
  5
F3
100
AcDbEntity
100
AcDbLine
  8
Servo
 62
256
370
-1
  6
ByLayer
 10
26.8499999999999943
 20
-70.0
 30
0.0
 11
28.8499999999999943
 21
-70.0
 31
0.0
  0
CIRCLE
  5
F4
100
AcDbEntity
100
AcDbCircle
  8
Servo
 62
256
370
-1
  6
ByLayer
 10
-8.0500000000000149
 20
7.9000000000000066
 30
0.0
 40
1.0
  0
CIRCLE
  5
F5
100
AcDbEntity
100
AcDbCircle
  8
Servo
 62
256
370
-1
  6
ByLayer
 10
-8.0500000000000149
 20
-7.9000000000000039
 30
0.0
 40
1.0
  0
CIRCLE
  5
F6
100
AcDbEntity
100
AcDbCircle
  8
Servo
 62
256
370
-1
  6
ByLayer
 10
27.8499999999999837
 20
-7.9000000000000057
 30
0.0
 40
1.0
  0
CIRCLE
  5
F7
100
AcDbEntity
100
AcDbCircle
  8
Servo
 62
256
370
-1
  6
ByLayer
 10
27.8499999999999837
 20
7.8999999999999941
 30
0.0
 40
1.0
  0
CIRCLE
  5
F8
100
AcDbEntity
100
AcDbCircle
  8
Servo
 62
256
370
-1
  6
ByLayer
 10
11.8499999999999925
 20
-0.0000000000000027
 30
0.0
 40
0.85
  0
CIRCLE
  5
F9
100
AcDbEntity
100
AcDbCircle
  8
Servo
 62
256
370
-1
  6
ByLayer
 10
20.8499999999999979
 20
-0.0000000000000027
 30
0.0
 40
0.85
  0
ARC
  5
FA
100
AcDbEntity
  8
Servo
 62
256
370
0
  6
CONTINUOUS
100
AcDbCircle
 10
20.4357954545454561
 20
-0.000000000000005
 30
0.0
 40
6.0142045454545388
100
AcDbArc
 50
309.3606261793806311
 51
50.6393738206193333
  0
LINE
  5
FB
100
AcDbEntity
100
AcDbLine
  8
Servo
 62
256
370
-1
  6
ByLayer
 10
11.8499999999999925
 20
-8.8500000000000139
 30
0.0
 11
11.8499999999999925
 21
8.8499999999999837
 31
0.0
  0
ARC
  5
FC
100
AcDbEntity
  8
Servo
 62
256
370
-1
  6
ByLayer
100
AcDbCircle
 10
11.8499999999999925
 20
-0.0000000000000028
 30
0.0
 40
2.1499999999999999
100
AcDbArc
 50
90.0
 51
270.0
  0
LINE
  5
FD
100
AcDbEntity
100
AcDbLine
  8
Servo
 62
256
370
-1
  6
ByLayer
 10
9.7000000000000011
 20
-31.7999999999999901
 30
0.0
 11
9.7000000000000011
 21
-32.1999999999999957
 31
0.0
  0
LINE
  5
FE
100
AcDbEntity
100
AcDbLine
  8
Servo
 62
256
370
-1
  6
ByLayer
 10
11.8500000000000068
 20
-31.7999999999999901
 30
0.0
 11
11.8500000000000068
 21
-32.1999999999999957
 31
0.0
  0
LINE
  5
FF
100
AcDbEntity
100
AcDbLine
  8
Servo
 62
256
370
-1
  6
ByLayer
 10
26.4499999999999957
 20
-32.4999999999999929
 30
0.0
 11
24.2500000000000071
 21
-32.4999999999999929
 31
0.0
  0
LINE
  5
100
100
AcDbEntity
100
AcDbLine
  8
Servo
 62
256
370
-1
  6
ByLayer
 10
26.4499999999999957
 20
-32.4999999999999929
 30
0.0
 11
26.4499999999999957
 21
-34.9999999999999929
 31
0.0
  0
LINE
  5
101
100
AcDbEntity
100
AcDbLine
  8
Servo
 62
256
370
-1
  6
ByLayer
 10
24.2500000000000071
 20
-31.7999999999999901
 30
0.0
 11
24.2500000000000071
 21
-34.9999999999999929
 31
0.0
  0
LINE
  5
102
100
AcDbEntity
100
AcDbLine
  8
Servo
 62
256
370
-1
  6
ByLayer
 10
24.2500000000000071
 20
-31.7999999999999901
 30
0.0
 11
9.7000000000000011
 21
-31.7999999999999901
 31
0.0
  0
LINE
  5
103
100
AcDbEntity
100
AcDbLine
  8
Servo
 62
256
370
-1
  6
ByLayer
 10
2.6907248094147596
 20
8.8499999999999943
 30
0.0
 11
24.2499999999999929
 21
8.8499999999999819
 31
0.0
  0
LINE
  5
104
100
AcDbEntity
100
AcDbLine
  8
Servo
 62
256
370
-1
  6
ByLayer
 10
2.6907248094147098
 20
-8.8500000000000103
 30
0.0
 11
24.2499999999999929
 21
-8.8500000000000156
 31
0.0
  0
LINE
  5
105
100
AcDbEntity
100
AcDbLine
  8
Servo
 62
256
370
-1
  6
ByLayer
 10
24.2499999999999929
 20
-8.8500000000000156
 30
0.0
 11
24.2499999999999929
 21
8.8499999999999819
 31
0.0
  0
LINE
  5
106
100
AcDbEntity
100
AcDbLine
  8
Servo
 62
256
370
-1
  6
ByLayer
 10
24.2500000000000071
 20
-32.1999999999999957
 30
0.0
 11
-9.2500000000000018
 21
-32.1999999999999957
 31
0.0
  0
CIRCLE
  5
107
100
AcDbEntity
100
AcDbCircle
  8
Ingranaggi
 62
256
370
-1
  6
ByLayer
 10
11.8499999999999925
 20
-0.0000000000000027
 30
0.0
 40
3.999999999999992
  0
CIRCLE
  5
108
100
AcDbEntity
100
AcDbCircle
  8
Ingranaggi
 62
256
370
-1
  6
ByLayer
 10
11.8499999999999925
 20
-0.0000000000000027
 30
0.0
 40
7.2499999999999929
  0
CIRCLE
  5
109
100
AcDbEntity
100
AcDbCircle
  8
Ingranaggi
 62
256
370
-1
  6
ByLayer
 10
11.8499999999999925
 20
-0.0000000000000027
 30
0.0
 40
1.8499999999999979
  0
CIRCLE
  5
10A
100
AcDbEntity
100
AcDbCircle
  8
Ingranaggi
 62
256
370
-1
  6
ByLayer
 10
11.8499999999999925
 20
-0.0000000000000027
 30
0.0
 40
7.5999999999999961
  0
CIRCLE
  5
10B
100
AcDbEntity
100
AcDbCircle
  8
Ingranaggi
 62
256
370
-1
  6
ByLayer
 10
20.8499999999999979
 20
-0.0000000000000027
 30
0.0
 40
2.5
  0
CIRCLE
  5
10C
100
AcDbEntity
100
AcDbCircle
  8
Ingranaggi
 62
256
370
-1
  6
ByLayer
 10
20.8499999999999979
 20
-0.0000000000000027
 30
0.0
 40
4.5
  0
CIRCLE
  5
10D
100
AcDbEntity
100
AcDbCircle
  8
Ingranaggi
 62
256
370
-1
  6
ByLayer
 10
20.8499999999999979
 20
-0.0000000000000027
 30
0.0
 40
7.7000000000000028
  0
CIRCLE
  5
10E
100
AcDbEntity
100
AcDbCircle
  8
Alluminio
 62
256
370
-1
  6
ByLayer
 10
6.8149564429192271
 20
-7.4500000000000002
 30
0.0
 40
1.0
  0
CIRCLE
  5
10F
100
AcDbEntity
100
AcDbCircle
  8
Alluminio
 62
256
370
-1
  6
ByLayer
 10
6.8149564429192271
 20
7.4500000000000002
 30
0.0
 40
1.0
  0
CIRCLE
  5
110
100
AcDbEntity
100
AcDbCircle
  8
Alluminio
 62
256
370
-1
  6
ByLayer
 10
6.8149564429192271
 20
-7.4500000000000002
 30
0.0
 40
1.5
  0
CIRCLE
  5
111
100
AcDbEntity
100
AcDbCircle
  8
Alluminio
 62
256
370
-1
  6
ByLayer
 10
6.8149564429192271
 20
7.4500000000000002
 30
0.0
 40
1.5
  0
CIRCLE
  5
112
100
AcDbEntity
100
AcDbCircle
  8
Alluminio
 62
256
370
-1
  6
ByLayer
 10
-8.0500000000000114
 20
-7.9000000000000057
 30
0.0
 40
1.0
  0
CIRCLE
  5
113
100
AcDbEntity
100
AcDbCircle
  8
Alluminio
 62
256
370
-1
  6
ByLayer
 10
-8.0500000000000114
 20
-7.9000000000000057
 30
0.0
 40
1.5
  0
CIRCLE
  5
114
100
AcDbEntity
100
AcDbCircle
  8
Alluminio
 62
256
370
-1
  6
ByLayer
 10
-8.0500000000000149
 20
7.9000000000000057
 30
0.0
 40
1.0
  0
CIRCLE
  5
115
100
AcDbEntity
100
AcDbCircle
  8
Alluminio
 62
256
370
-1
  6
ByLayer
 10
-8.0500000000000149
 20
7.9000000000000057
 30
0.0
 40
1.5
  0
LINE
  5
116
100
AcDbEntity
100
AcDbLine
  8
Alluminio
 62
256
370
-1
  6
ByLayer
 10
-9.5500000000000096
 20
-28.2999999999999972
 30
0.0
 11
-9.0500000000000167
 21
-28.7999999999999901
 31
0.0
  0
LINE
  5
117
100
AcDbEntity
100
AcDbLine
  8
Alluminio
 62
256
370
-1
  6
ByLayer
 10
-7.0500000000000167
 20
-28.8000000000000007
 30
0.0
 11
-6.5500000000000131
 21
-28.2999999999999972
 31
0.0
  0
LINE
  5
118
100
AcDbEntity
100
AcDbLine
  8
Alluminio
 62
256
370
-1
  6
ByLayer
 10
5.3149564429192262
 20
-28.2999999999999972
 30
0.0
 11
5.8149564429192262
 21
-28.7999999999999972
 31
0.0
  0
LINE
  5
119
100
AcDbEntity
100
AcDbLine
  8
Alluminio
 62
256
370
-1
  6
ByLayer
 10
7.8149564429192262
 20
-28.7999999999999972
 30
0.0
 11
8.3149564429192271
 21
-28.2999999999999972
 31
0.0
  0
LINE
  5
11A
100
AcDbEntity
100
AcDbLine
  8
Alluminio
 62
256
370
-1
  6
ByLayer
 10
5.8149564429192262
 20
-32.2000000000000028
 30
0.0
 11
5.8149564429192262
 21
-28.7999999999999972
 31
0.0
  0
LINE
  5
11B
100
AcDbEntity
100
AcDbLine
  8
Alluminio
 62
256
370
-1
  6
ByLayer
 10
7.8149564429192262
 20
-32.2000000000000028
 30
0.0
 11
7.8149564429192262
 21
-28.7999999999999972
 31
0.0
  0
LINE
  5
11C
100
AcDbEntity
100
AcDbLine
  8
Alluminio
 62
256
370
-1
  6
ByLayer
 10
-9.0500000000000167
 20
-32.2000000000000028
 30
0.0
 11
-9.0500000000000167
 21
-28.7999999999999901
 31
0.0
  0
LINE
  5
11D
100
AcDbEntity
100
AcDbLine
  8
Alluminio
 62
256
370
-1
  6
ByLayer
 10
-7.0500000000000167
 20
-32.2000000000000028
 30
0.0
 11
-7.0500000000000167
 21
-28.8000000000000007
 31
0.0
  0
CIRCLE
  5
11E
100
AcDbEntity
100
AcDbCircle
  8
Lego
 62
256
370
-1
  6
ByLayer
 10
0.0
 20
0.0
 30
0.0
 40
2.7999999999999998
  0
CIRCLE
  5
11F
100
AcDbEntity
100
AcDbCircle
  8
Lego
 62
256
370
-1
  6
ByLayer
 10
0.0
 20
0.0
 30
0.0
 40
3.7000000000000002
  0
LINE
  5
120
100
AcDbEntity
100
AcDbLine
  8
Lego
 62
256
370
-1
  6
ByLayer
 10
-0.8000000000000007
 20
0.8000000000000007
 30
0.0
 11
-0.8000000000000007
 21
2.1563858652847117
 31
0.0
  0
LINE
  5
121
100
AcDbEntity
100
AcDbLine
  8
Lego
 62
256
370
-1
  6
ByLayer
 10
0.8000000000000007
 20
0.8000000000000007
 30
0.0
 11
0.8000000000000007
 21
2.1563858652848182
 31
0.0
  0
LINE
  5
122
100
AcDbEntity
100
AcDbLine
  8
Lego
 62
256
370
-1
  6
ByLayer
 10
-2.1563858652847827
 20
0.8000000000000007
 30
0.0
 11
-0.8000000000000007
 21
0.8000000000000007
 31
0.0
  0
ARC
  5
123
100
AcDbEntity
  8
Lego
 62
3
370
0
  6
CONTINUOUS
100
AcDbCircle
 10
0.0
 20
0.0
 30
0.0
 40
2.2999999999999998
100
AcDbArc
 50
159.6455936017627835
 51
200.3544063982372165
  0
LINE
  5
124
100
AcDbEntity
100
AcDbLine
  8
Lego
 62
256
370
-1
  6
ByLayer
 10
-2.1563858652847827
 20
-0.8000000000000007
 30
0.0
 11
-0.8000000000000007
 21
-0.8000000000000007
 31
0.0
  0
LINE
  5
125
100
AcDbEntity
100
AcDbLine
  8
Lego
 62
256
370
-1
  6
ByLayer
 10
-0.8000000000000007
 20
-2.1563858652847827
 30
0.0
 11
-0.8000000000000007
 21
-0.8000000000000007
 31
0.0
  0
LINE
  5
126
100
AcDbEntity
100
AcDbLine
  8
Lego
 62
256
370
-1
  6
ByLayer
 10
0.8000000000000007
 20
-2.1563858652847827
 30
0.0
 11
0.8000000000000007
 21
-0.8000000000000007
 31
0.0
  0
ARC
  5
127
100
AcDbEntity
  8
Lego
 62
3
370
0
  6
CONTINUOUS
100
AcDbCircle
 10
0.0
 20
0.0
 30
0.0
 40
2.2999999999999998
100
AcDbArc
 50
249.6455936017627835
 51
290.354406398237245
  0
LINE
  5
128
100
AcDbEntity
100
AcDbLine
  8
Lego
 62
256
370
-1
  6
ByLayer
 10
0.8000000000000007
 20
-0.8000000000000007
 30
0.0
 11
2.1563858652847827
 21
-0.8000000000000007
 31
0.0
  0
ARC
  5
129
100
AcDbEntity
  8
Lego
 62
3
370
0
  6
CONTINUOUS
100
AcDbCircle
 10
0.0
 20
0.0
 30
0.0
 40
2.2999999999999998
100
AcDbArc
 50
69.6455936017627835
 51
110.3544063982372307
  0
ARC
  5
12A
100
AcDbEntity
  8
Lego
 62
3
370
0
  6
CONTINUOUS
100
AcDbCircle
 10
0.0
 20
0.0
 30
0.0
 40
2.2999999999999998
100
AcDbArc
 50
339.645593601762755
 51
20.3544063982372343
  0
LINE
  5
12B
100
AcDbEntity
100
AcDbLine
  8
Lego
 62
256
370
-1
  6
ByLayer
 10
0.8000000000000007
 20
0.8000000000000007
 30
0.0
 11
2.1563858652847827
 21
0.8000000000000007
 31
0.0
  0
CIRCLE
  5
12C
100
AcDbEntity
100
AcDbCircle
  8
Alluminio
 62
256
370
-1
  6
ByLayer
 10
0.0
 20
0.0
 30
0.0
 40
3.75
  0
LINE
  5
12D
100
AcDbEntity
100
AcDbLine
  8
Alluminio
 62
256
370
-1
  6
ByLayer
 10
-3.7500000000000093
 20
-32.2000000000000028
 30
0.0
 11
-3.7500000000000089
 21
-28.2999999999999972
 31
0.0
  0
LINE
  5
12E
100
AcDbEntity
100
AcDbLine
  8
Alluminio
 62
256
370
-1
  6
ByLayer
 10
3.7499999999999978
 20
-32.2000000000000028
 30
0.0
 11
3.7499999999999982
 21
-28.2999999999999972
 31
0.0
  0
LINE
  5
12F
100
AcDbEntity
100
AcDbLine
  8
Lego
 62
256
370
-1
  6
ByLayer
 10
-3.7000000000000042
 20
-36.1999999999999957
 30
0.0
 11
3.7000000000000015
 21
-36.1999999999999957
 31
0.0
  0
LINE
  5
130
100
AcDbEntity
100
AcDbLine
  8
Lego
 62
256
370
-1
  6
ByLayer
 10
-3.7000000000000037
 20
-28.2999999999999972
 30
0.0
 11
3.700000000000002
 21
-28.2999999999999972
 31
0.0
  0
LINE
  5
131
100
AcDbEntity
100
AcDbLine
  8
Lego
 62
256
370
-1
  6
ByLayer
 10
2.7999999999999958
 20
-34.6999999999999957
 30
0.0
 11
2.7999999999999963
 21
-29.7999999999999972
 31
0.0
  0
LINE
  5
132
100
AcDbEntity
100
AcDbLine
  8
Lego
 62
256
370
-1
  6
ByLayer
 10
-2.8000000000000056
 20
-34.6999999999999957
 30
0.0
 11
-2.8000000000000052
 21
-29.7999999999999972
 31
0.0
  0
LINE
  5
133
100
AcDbEntity
100
AcDbLine
  8
Lego
 62
256
370
-1
  6
ByLayer
 10
-3.7000000000000037
 20
-29.7999999999999972
 30
0.0
 11
3.700000000000002
 21
-29.7999999999999972
 31
0.0
  0
LINE
  5
134
100
AcDbEntity
100
AcDbLine
  8
Lego
 62
256
370
-1
  6
ByLayer
 10
-3.7000000000000037
 20
-29.7999999999999972
 30
0.0
 11
-3.7000000000000037
 21
-28.2999999999999972
 31
0.0
  0
LINE
  5
135
100
AcDbEntity
100
AcDbLine
  8
Lego
 62
256
370
-1
  6
ByLayer
 10
3.700000000000002
 20
-29.7999999999999972
 30
0.0
 11
3.700000000000002
 21
-28.2999999999999972
 31
0.0
  0
LINE
  5
136
100
AcDbEntity
100
AcDbLine
  8
Lego
 62
256
370
-1
  6
ByLayer
 10
-3.7000000000000042
 20
-36.1999999999999957
 30
0.0
 11
-3.7000000000000042
 21
-34.6999999999999957
 31
0.0
  0
LINE
  5
137
100
AcDbEntity
100
AcDbLine
  8
Lego
 62
256
370
-1
  6
ByLayer
 10
3.7000000000000015
 20
-36.1999999999999957
 30
0.0
 11
3.7000000000000015
 21
-34.6999999999999957
 31
0.0
  0
LINE
  5
138
100
AcDbEntity
100
AcDbLine
  8
Lego
 62
256
370
-1
  6
ByLayer
 10
-3.7000000000000042
 20
-34.6999999999999957
 30
0.0
 11
3.7000000000000015
 21
-34.6999999999999957
 31
0.0
  0
ENDSEC
  0
SECTION
  2
OBJECTS
  0
DICTIONARY
  5
C
100
AcDbDictionary
280
0
281
1
  3
ACAD_GROUP
350
D
  3
ACAD_LAYOUT
350
1A
  3
ACAD_MLINESTYLE
350
17
  3
ACAD_PLOTSETTINGS
350
19
  3
ACAD_PLOTSTYLENAME
350
E
  3
AcDbVariableDictionary
350
139
  0
DICTIONARY
  5
D
100
AcDbDictionary
280
0
281
1
  0
ACDBDICTIONARYWDFLT
  5
E
100
AcDbDictionary
281
1
  3
Normal
350
F
100
AcDbDictionaryWithDefault
340
F
  0
ACDBPLACEHOLDER
  5
F
  0
DICTIONARY
  5
17
100
AcDbDictionary
280
0
281
1
  3
Standard
350
18
  0
MLINESTYLE
  5
18
100
AcDbMlineStyle
  2
STANDARD
 70
0
  3

 62
256
 51
90.0
 52
90.0
 71
2
 49
0.5
 62
256
  6
BYLAYER
 49
-0.5
 62
256
  6
BYLAYER
  0
DICTIONARY
  5
19
100
AcDbDictionary
280
0
281
1
  0
DICTIONARY
  5
1A
100
AcDbDictionary
281
1
  3
Layout1
350
1E
  3
Layout2
350
26
  3
Model
350
22
  0
LAYOUT
  5
1E
100
AcDbPlotSettings
  1

  2
C:\Program Files\AutoCAD 2002\plotters\DWF ePlot (optimized for plotting).pc3
  4

  6

 40
0.0
 41
0.0
 42
0.0
 43
0.0
 44
0.0
 45
0.0
 46
0.0
 47
0.0
 48
0.0
 49
0.0
140
0.0
141
0.0
142
1.0
143
1.0
 70
688
 72
0
 73
0
 74
5
  7

 75
16
147
1.0
148
0.0
149
0.0
100
AcDbLayout
  1
Layout1
 70
1
 71
1
 10
0.0
 20
0.0
 11
420.0
 21
297.0
 12
0.0
 22
0.0
 32
0.0
 14
100000000000000000000.0
 24
100000000000000000000.0
 34
100000000000000000000.0
 15
-100000000000000000000.0
 25
-100000000000000000000.0
 35
-100000000000000000000.0
146
0.0
 13
0.0
 23
0.0
 33
0.0
 16
1.0
 26
0.0
 36
0.0
 17
0.0
 27
1.0
 37
0.0
 76
0
330
1B
  0
LAYOUT
  5
22
100
AcDbPlotSettings
  1

  2
C:\Program Files\AutoCAD 2002\plotters\DWF ePlot (optimized for plotting).pc3
  4

  6

 40
0.0
 41
0.0
 42
0.0
 43
0.0
 44
0.0
 45
0.0
 46
0.0
 47
0.0
 48
0.0
 49
0.0
140
0.0
141
0.0
142
1.0
143
1.0
 70
1712
 72
0
 73
0
 74
0
  7

 75
0
147
1.0
148
0.0
149
0.0
100
AcDbLayout
  1
Model
 70
1
 71
0
 10
0.0
 20
0.0
 11
12.0
 21
9.0
 12
0.0
 22
0.0
 32
0.0
 14
0.0
 24
0.0
 34
0.0
 15
0.0
 25
0.0
 35
0.0
146
0.0
 13
0.0
 23
0.0
 33
0.0
 16
1.0
 26
0.0
 36
0.0
 17
0.0
 27
1.0
 37
0.0
 76
0
330
1F
  0
LAYOUT
  5
26
100
AcDbPlotSettings
  1

  2
C:\Program Files\AutoCAD 2002\plotters\DWF ePlot (optimized for plotting).pc3
  4

  6

 40
0.0
 41
0.0
 42
0.0
 43
0.0
 44
0.0
 45
0.0
 46
0.0
 47
0.0
 48
0.0
 49
0.0
140
0.0
141
0.0
142
1.0
143
1.0
 70
688
 72
0
 73
0
 74
5
  7

 75
16
147
1.0
148
0.0
149
0.0
100
AcDbLayout
  1
Layout2
 70
1
 71
2
 10
0.0
 20
0.0
 11
12.0
 21
9.0
 12
0.0
 22
0.0
 32
0.0
 14
0.0
 24
0.0
 34
0.0
 15
0.0
 25
0.0
 35
0.0
146
0.0
 13
0.0
 23
0.0
 33
0.0
 16
1.0
 26
0.0
 36
0.0
 17
0.0
 27
1.0
 37
0.0
 76
0
330
23
  0
DICTIONARY
  5
139
100
AcDbDictionary
281
1
  3
DIMASSOC
350
13B
  3
HIDETEXT
350
13A
  0
DICTIONARYVAR
  5
13A
100
DictionaryVariables
280
0
  1
2
  0
DICTIONARYVAR
  5
13B
100
DictionaryVariables
280
0
  1
1
  0
ENDSEC
  0
EOF
