  0
SECTION
  2
HEADER
  9
$ACADVER
  1
AC1015
  9
$ACADMAINTVER
 70
     6
  9
$DWGCODEPAGE
  3
DOS850
  9
$INSBASE
 10
0.0
 20
0.0
 30
0.0
  9
$EXTMIN
 10
-7.06199
 20
-11.14335
 30
1.000000E+20
  9
$EXTMAX
 10
7.07691
 20
11.14241
 30
-1.000000E+20
  9
$LIMMIN
 10
0.0
 20
0.0
  9
$LIMMAX
 10
0.0
 20
0.0
  9
$ORTHOMODE
 70
     0
  9
$REGENMODE
 70
     1
  9
$FILLMODE
 70
     1
  9
$QTEXTMODE
 70
     0
  9
$MIRRTEXT
 70
     1
  9
$LTSCALE
 40
1.0
  9
$ATTMODE
 70
     1
  9
$TEXTSIZE
 40
0.2
  9
$TRACEWID
 40
0.05
  9
$TEXTSTYLE
  7
Standard
  9
$CLAYER
  8
0
  9
$CELTYPE
  6
Continuous
  9
$CECOLOR
 62
   256
  9
$CELTSCALE
 40
1.0
  9
$DISPSILH
 70
     0
  9
$DIMSCALE
 40
1.0
  9
$DIMASZ
 40
0.18
  9
$DIMEXO
 40
0.0625
  9
$DIMDLI
 40
0.38
  9
$DIMRND
 40
0.0
  9
$DIMDLE
 40
0.0
  9
$DIMEXE
 40
0.18
  9
$DIMTP
 40
0.0
  9
$DIMTM
 40
0.0
  9
$DIMTXT
 40
0.18
  9
$DIMCEN
 40
0.09
  9
$DIMTSZ
 40
0.0
  9
$DIMTOL
 70
     0
  9
$DIMLIM
 70
     0
  9
$DIMTIH
 70
     1
  9
$DIMTOH
 70
     1
  9
$DIMSE1
 70
     0
  9
$DIMSE2
 70
     0
  9
$DIMTAD
 70
     0
  9
$DIMZIN
 70
     0
  9
$DIMBLK
  1

  9
$DIMASO
 70
     1
  9
$DIMSHO
 70
     1
  9
$DIMPOST
  1

  9
$DIMAPOST
  1

  9
$DIMALT
 70
     0
  9
$DIMALTD
 70
     2
  9
$DIMALTF
 40
25.4
  9
$DIMLFAC
 40
1.0
  9
$DIMTOFL
 70
     0
  9
$DIMTVP
 40
0.0
  9
$DIMTIX
 70
     0
  9
$DIMSOXD
 70
     0
  9
$DIMSAH
 70
     0
  9
$DIMBLK1
  1

  9
$DIMBLK2
  1

  9
$DIMSTYLE
  2
Standard
  9
$DIMCLRD
 70
     0
  9
$DIMCLRE
 70
     0
  9
$DIMCLRT
 70
     0
  9
$DIMTFAC
 40
1.0
  9
$DIMGAP
 40
0.09
  9
$DIMJUST
 70
     0
  9
$DIMSD1
 70
     0
  9
$DIMSD2
 70
     0
  9
$DIMTOLJ
 70
     1
  9
$DIMTZIN
 70
     0
  9
$DIMALTZ
 70
     0
  9
$DIMALTTZ
 70
     0
  9
$DIMUPT
 70
     0
  9
$DIMDEC
 70
     4
  9
$DIMTDEC
 70
     4
  9
$DIMALTU
 70
     2
  9
$DIMALTTD
 70
     2
  9
$DIMTXSTY
  7
Standard
  9
$DIMAUNIT
 70
     0
  9
$DIMADEC
 70
     0
  9
$DIMALTRND
 40
0.0
  9
$DIMAZIN
 70
     0
  9
$DIMDSEP
 70
     0
  9
$DIMATFIT
 70
     3
  9
$DIMFRAC
 70
     0
  9
$DIMLDRBLK
  1

  9
$DIMLUNIT
 70
     2
  9
$DIMLWD
 70
     0
  9
$DIMLWE
 70
     0
  9
$DIMTMOVE
 70
     0
  9
$LUNITS
 70
     2
  9
$LUPREC
 70
     4
  9
$SKETCHINC
 40
0.1
  9
$FILLETRAD
 40
0.0
  9
$AUNITS
 70
     0
  9
$AUPREC
 70
     0
  9
$MENU
  1
acad
  9
$ELEVATION
 40
0.0
  9
$PELEVATION
 40
0.0
  9
$THICKNESS
 40
0.0
  9
$LIMCHECK
 70
     0
  9
$CHAMFERA
 40
0.0
  9
$CHAMFERB
 40
0.0
  9
$CHAMFERC
 40
0.0
  9
$CHAMFERD
 40
0.0
  9
$SKPOLY
 70
     0
  9
$TDCREATE
 40
0.000000000
  9
$TDUCREATE
 40
0.000000000
  9
$TDUPDATE
 40
0.000000000
  9
$TDUUPDATE
 40
0.000000000
  9
$TDINDWG
 40
0.0000000000
  9
$TDUSRTIMER
 40
0.0000000000
  9
$USRTIMER
 70
     1
  9
$ANGBASE
 50
0.0
  9
$ANGDIR
 70
     0
  9
$PDMODE
 70
     0
  9
$PDSIZE
 40
0.0
  9
$PLINEWID
 40
0.0
  9
$SPLFRAME
 70
     0
  9
$SPLINETYPE
 70
     6
  9
$SPLINESEGS
 70
     8
  9
$HANDSEED
  5
49
  9
$SURFTAB1
 70
     6
  9
$SURFTAB2
 70
     6
  9
$SURFTYPE
 70
     6
  9
$SURFU
 70
     6
  9
$SURFV
 70
     6
  9
$UCSBASE
  2

  9
$UCSNAME
  2

  9
$UCSORG
 10
0.0
 20
0.0
 30
0.0
  9
$UCSXDIR
 10
1.0
 20
0.0
 30
0.0
  9
$UCSYDIR
 10
0.0
 20
1.0
 30
0.0
  9
$UCSORTHOREF
  2

  9
$UCSORTHOVIEW
 70
     0
  9
$UCSORGTOP
 10
0.0
 20
0.0
 30
0.0
  9
$UCSORGBOTTOM
 10
0.0
 20
0.0
 30
0.0
  9
$UCSORGLEFT
 10
0.0
 20
0.0
 30
0.0
  9
$UCSORGRIGHT
 10
0.0
 20
0.0
 30
0.0
  9
$UCSORGFRONT
 10
0.0
 20
0.0
 30
0.0
  9
$UCSORGBACK
 10
0.0
 20
0.0
 30
0.0
  9
$PUCSBASE
  2

  9
$PUCSNAME
  2

  9
$PUCSORG
 10
0.0
 20
0.0
 30
0.0
  9
$PUCSXDIR
 10
1.0
 20
0.0
 30
0.0
  9
$PUCSYDIR
 10
0.0
 20
1.0
 30
0.0
  9
$PUCSORTHOREF
  2

  9
$PUCSORTHOVIEW
 70
     0
  9
$PUCSORGTOP
 10
0.0
 20
0.0
 30
0.0
  9
$PUCSORGBOTTOM
 10
0.0
 20
0.0
 30
0.0
  9
$PUCSORGLEFT
 10
0.0
 20
0.0
 30
0.0
  9
$PUCSORGRIGHT
 10
0.0
 20
0.0
 30
0.0
  9
$PUCSORGFRONT
 10
0.0
 20
0.0
 30
0.0
  9
$PUCSORGBACK
 10
0.0
 20
0.0
 30
0.0
  9
$USERI1
 70
     0
  9
$USERI2
 70
     0
  9
$USERI3
 70
     0
  9
$USERI4
 70
     0
  9
$USERI5
 70
     0
  9
$USERR1
 40
0.0
  9
$USERR2
 40
0.0
  9
$USERR3
 40
0.0
  9
$USERR4
 40
0.0
  9
$USERR5
 40
0.0
  9
$WORLDVIEW
 70
     1
  9
$SHADEDGE
 70
     3
  9
$SHADEDIF
 70
    70
  9
$TILEMODE
 70
     1
  9
$MAXACTVP
 70
    16
  9
$PINSBASE
 10
0.0
 20
0.0
 30
0.0
  9
$PLIMCHECK
 70
     0
  9
$PEXTMIN
 10
1.000000E+20
 20
1.000000E+20
 30
1.000000E+20
  9
$PEXTMAX
 10
-1.000000E+20
 20
-1.000000E+20
 30
-1.000000E+20
  9
$PLIMMIN
 10
0.0
 20
0.0
  9
$PLIMMAX
 10
12.0
 20
9.0
  9
$UNITMODE
 70
     0
  9
$VISRETAIN
 70
     0
  9
$PLINEGEN
 70
     1
  9
$PSLTSCALE
 70
     0
  9
$TREEDEPTH
 70
  3020
  9
$CMLSTYLE
  2
Standard
  9
$CMLJUST
 70
     0
  9
$CMLSCALE
 40
1.0
  9
$PROXYGRAPHICS
 70
     0
  9
$MEASUREMENT
 70
     0
  9
$CELWEIGHT
370
     0
  9
$ENDCAPS
280
     0
  9
$JOINSTYLE
280
     0
  9
$LWDISPLAY
290
     0
  9
$INSUNITS
 70
     5
  9
$HYPERLINKBASE
  1

  9
$XEDIT
290
     1
  9
$CEPSNTYPE
380
     0
  9
$PSTYLEMODE
290
     1
  9
$FINGERPRINTGUID
  2

  9
$VERSIONGUID
  2

  9
$EXTNAMES
290
     1
  9
$PSVPSCALE
 40
0.0
  0
ENDSEC
  0
SECTION
  2
CLASSES
  0
CLASS
  1
LWPOLYLINE
  2
AcDbPolyline
  3
AutoCAD 2000
 90
    32768
280
     0
281
     1
  0
CLASS
  1
IMAGE
  2
AcDbRasterImage
  3
ISM
 90
    32895
280
     0
281
     1
  0
CLASS
  1
OLE2FRAME
  2
AcDbOle2Frame
  3
AutoCAD 2000
 90
    32768
280
     0
281
     1
  0
CLASS
  1
HATCH
  2
AcDbHatch
  3
AutoCAD 2000
 90
    32768
280
     0
281
     1
  0
CLASS
  1
DICTIONARYVAR
  2
AcDbDictionaryVar
  3
AutoCAD 2000
 90
    32768
280
     0
281
     0
  0
CLASS
  1
RASTERVARIABLES
  2
AcDbRasterVariables
  3
ISM
 90
    32768
280
     0
281
     0
  0
CLASS
  1
IMAGEDEF
  2
AcDbRasterImageDef
  3
ISM
 90
    32768
280
     0
281
     0
  0
CLASS
  1
IMAGEDEF_REACTOR
  2
AcDbRasterImageDefReactor
  3
ISM
 90
    32769
280
     0
281
     0
  0
CLASS
  1
IDBUFFER
  2
AcDbIdBuffer
  3
AutoCAD 2000
 90
    32768
280
     0
281
     0
  0
CLASS
  1
SPATIAL_FILTER
  2
AcDbSpatialFilter
  3
AutoCAD 2000
 90
    32768
280
     0
281
     0
  0
CLASS
  1
XRECORD
  2
AcDbXrecord
  3
AutoCAD 2000
 90
    32768
280
     0
281
     0
  0
CLASS
  1
SORTENTSTABLE
  2
AcDbSortentsTable
  3
AutoCAD 2000
 90
    32768
280
     0
281
     0
  0
CLASS
  1
LAYER_INDEX
  2
AcDbLayerIndex
  3
AutoCAD 2000
 90
    32768
280
     0
281
     0
  0
CLASS
  1
SPATIAL_INDEX
  2
AcDbSpatialIndex
  3
AutoCAD 2000
 90
    32768
280
     0
281
     0
  0
CLASS
  1
OBJECT_PTR
  2
CAseDLPNTableRecord
  3
"ASE-LPNTableRecord"
 90
    32769
280
     0
281
     0
  0
CLASS
  1
LAYOUT
  2
AcDbLayout
  3
AutoCAD 2000
 90
        0
280
     0
281
     0
  0
CLASS
  1
PLOTSETTINGS
  2
AcDbPlotSettings
  3
AutoCAD 2000
 90
    32768
280
     0
281
     0
  0
CLASS
  1
ACDBDICTIONARYWDFLT
  2
AcDbDictionaryWithDefault
  3
AutoCAD 2000
 90
        0
280
     0
281
     0
  0
CLASS
  1
ACDBPLACEHOLDER
  2
AcDbPlaceHolder
  3
AutoCAD 2000
 90
        0
280
     0
281
     0
  0
CLASS
  1
VBA_PROJECT
  2
AcDbVbaProject
  3
acadvba
 90
    32768
280
     0
281
     0
  0
CLASS
  1
WIPEOUT
  2
AcDbWipeout
  3
WipeOut|AutoCAD Express Tool|expresstools@autodesk.com
 90
    32895
280
     0
281
     1
  0
CLASS
  1
WIPEOUTVARIABLES
  2
AcDbWipeoutVariables
  3
WipeOut|AutoCAD Express Tool|expresstools@autodesk.com
 90
        0
280
     0
281
     0
  0
CLASS
  1
RTEXT
  2
RText
  3
RText|AutoCAD Express Tool|expresstools@autodesk.com
 90
    32768
280
     0
281
     1
  0
CLASS
  1
ARCALIGNEDTEXT
  2
AcDbArcAlignedText
  3
ATEXT|AutoCAD Express Tool|expresstools@autodesk.com
 90
    32768
280
     0
281
     1
  0
ENDSEC
  0
SECTION
  2
TABLES
  0
TABLE
  2
VPORT
  5
7
100
AcDbSymbolTable
 70
     1
  0
VPORT
  5
15
100
AcDbSymbolTableRecord
100
AcDbViewportTableRecord
  2
*ACTIVE
 70
     0
 10
0.0
 20
0.0
 11
1.0
 21
1.0
 12
6.591288
 22
4.579184
 13
0.0
 23
0.0
 14
1.0
 24
1.0
 15
0.0
 25
0.0
 16
0.0
 26
0.0
 36
1.0
 17
0.0
 27
0.0
 37
0.0
 40
9.158369
 41
0.688564
 42
50.0
 43
0.0
 44
0.0
 50
0.0
 51
0.0
 71
     0
 72
   100
 73
     1
 74
     1
 75
     0
 76
     0
 77
     0
 78
     0
281
     0
 65
     0
110
0.0
120
0.0
130
0.0
111
1.0
121
0.0
131
0.0
112
0.0
122
1.0
132
0.0
345
0
346
0
 79
     0
146
0.0
  0
ENDTAB
  0
TABLE
  2
LTYPE
  5
4
100
AcDbSymbolTable
 70
     3
  0
LTYPE
  5
11
100
AcDbSymbolTableRecord
100
AcDbLinetypeTableRecord
  2
ByBlock
 70
    64
  3

 72
    65
 73
     0
 40
0.0
  0
LTYPE
  5
12
100
AcDbSymbolTableRecord
100
AcDbLinetypeTableRecord
  2
ByLayer
 70
    64
  3

 72
    65
 73
     0
 40
0.0
  0
LTYPE
  5
13
100
AcDbSymbolTableRecord
100
AcDbLinetypeTableRecord
  2
Continuous
 70
    64
  3
Solid line
 72
    65
 73
     0
 40
0.0
  0
ENDTAB
  0
TABLE
  2
LAYER
  5
2
100
AcDbSymbolTable
 70
     2
  0
LAYER
  5
14
100
AcDbSymbolTableRecord
100
AcDbLayerTableRecord
  2
0
 70
     0
 62
     7
  6
Continuous
290
     1
370
    -3
390
1D
  0
LAYER
  5
24
100
AcDbSymbolTableRecord
100
AcDbLayerTableRecord
  2
Ebene 1
 70
     0
 62
     7
  6
Continuous
290
     1
370
    -3
390
1F
  0
ENDTAB
  0
TABLE
  2
STYLE
  5
3
100
AcDbSymbolTable
 70
     1
  0
STYLE
  5
17
100
AcDbSymbolTableRecord
100
AcDbTextStyleTableRecord
  2
Standard
 70
     0
 40
0.0
 41
1.0
 50
0.0
 71
     0
 42
0.0
  3
txt
  4

  0
ENDTAB
  0
TABLE
  2
VIEW
  5
5
100
AcDbSymbolTable
 70
     0
  0
ENDTAB
  0
TABLE
  2
UCS
  5
6
100
AcDbSymbolTable
 70
     0
  0
ENDTAB
  0
TABLE
  2
APPID
  5
8
100
AcDbSymbolTable
 70
     1
  0
APPID
  5
16
100
AcDbSymbolTableRecord
100
AcDbRegAppTableRecord
  2
ACAD
 70
     0
  0
ENDTAB
  0
TABLE
  2
DIMSTYLE
  5
9
100
AcDbSymbolTable
 70
     1
100
AcDbDimStyleTable
 71
     0
  0
DIMSTYLE
105
18
100
AcDbSymbolTableRecord
100
AcDbDimStyleTableRecord
  2
Standard
 70
     0
  3

  4

 40
1.0
 41
0.18
 42
0.0625
 43
0.38
 44
0.18
 45
0.0
 46
0.0
 47
0.0
 48
0.0
 71
     0
 72
     0
 73
     1
 74
     1
 75
     0
 76
     0
 77
     0
 78
     0
 79
     0
140
0.18
141
0.09
142
0.0
143
25.4
144
1.0
145
0.0
146
1.0
147
0.09
148
0.0
170
     0
171
     2
172
     0
173
     0
174
     0
175
     0
176
     0
177
     0
178
     0
179
     0
271
     4
272
     4
273
     2
274
     2
275
     0
276
     0
277
     2
278
    46
279
     0
280
     0
281
     0
282
     0
283
     1
284
     0
285
     0
286
     0
288
     0
340
17
341
0
342
0
343
0
344
0
371
    -2
372
    -2
  0
ENDTAB
  0
TABLE
  2
BLOCK_RECORD
  5
1
100
AcDbSymbolTable
 70
     0
  0
BLOCK_RECORD
  5
A
100
AcDbSymbolTableRecord
100
AcDbBlockTableRecord
  2
*MODEL_SPACE
340
20
  0
BLOCK_RECORD
  5
B
100
AcDbSymbolTableRecord
100
AcDbBlockTableRecord
  2
*PAPER_SPACE
340
21
  0
ENDTAB
  0
ENDSEC
  0
SECTION
  2
BLOCKS
  0
BLOCK
  5
D
100
AcDbEntity
  8
0
100
AcDbBlockBegin
  2
*MODEL_SPACE
 70
     0
 10
0.0
 20
0.0
 30
0.0
  3
*MODEL_SPACE
  1

  0
ENDBLK
  5
E
100
AcDbEntity
  8
0
100
AcDbBlockEnd
  0
BLOCK
  5
F
100
AcDbEntity
 67
     1
  8
0
100
AcDbBlockBegin
  2
*PAPER_SPACE
 70
     0
 10
0.0
 20
0.0
 30
0.0
  3
*PAPER_SPACE
  1

  0
ENDBLK
  5
10
100
AcDbEntity
 67
     1
  8
0
100
AcDbBlockEnd
  0
ENDSEC
  0
SECTION
  2
ENTITIES
  0
SPLINE
  5
25
100
AcDbEntity
  8
Ebene 1
 62
     1
100
AcDbSpline
210
0.0
220
0.0
230
1.0
 70
     1
 71
     3
 72
    84
 73
    80
 74
     0
 42
0.0000000001
 43
0.0000000001
 40
0.0
 40
0.0
 40
0.0
 40
0.0
 40
0.05
 40
0.05
 40
0.05
 40
0.05
 40
0.1
 40
0.1
 40
0.1
 40
0.1
 40
0.15
 40
0.15
 40
0.15
 40
0.15
 40
0.2
 40
0.2
 40
0.2
 40
0.2
 40
0.25
 40
0.25
 40
0.25
 40
0.25
 40
0.3
 40
0.3
 40
0.3
 40
0.3
 40
0.35
 40
0.35
 40
0.35
 40
0.35
 40
0.4
 40
0.4
 40
0.4
 40
0.4
 40
0.45
 40
0.45
 40
0.45
 40
0.45
 40
0.4999999999999999
 40
0.4999999999999999
 40
0.4999999999999999
 40
0.4999999999999999
 40
0.5499999999999999
 40
0.5499999999999999
 40
0.5499999999999999
 40
0.5499999999999999
 40
0.6
 40
0.6
 40
0.6
 40
0.6
 40
0.65
 40
0.65
 40
0.65
 40
0.65
 40
0.7000000000000001
 40
0.7000000000000001
 40
0.7000000000000001
 40
0.7000000000000001
 40
0.7500000000000001
 40
0.7500000000000001
 40
0.7500000000000001
 40
0.7500000000000001
 40
0.8000000000000002
 40
0.8000000000000002
 40
0.8000000000000002
 40
0.8000000000000002
 40
0.8500000000000002
 40
0.8500000000000002
 40
0.8500000000000002
 40
0.8500000000000002
 40
0.9000000000000002
 40
0.9000000000000002
 40
0.9000000000000002
 40
0.9000000000000002
 40
0.9500000000000003
 40
0.9500000000000003
 40
0.9500000000000003
 40
0.9500000000000003
 40
1.0
 40
1.0
 40
1.0
 40
1.0
 10
2.3217000000000003
 20
-1.33406
 30
0.0
 10
2.6950800000000004
 20
-2.0173200000000002
 30
0.0
 10
3.01004
 20
-2.3805400000000003
 30
0.0
 10
3.3173800000000004
 20
-2.7539200000000004
 30
0.0
 10
3.3173800000000004
 20
-2.7539200000000004
 30
0.0
 10
3.5459800000000001
 20
-3.0282400000000003
 30
0.0
 10
3.7339400000000005
 20
-3.4219400000000002
 30
0.0
 10
3.8838000000000004
 20
-3.8613600000000003
 30
0.0
 10
3.8838000000000004
 20
-3.8613600000000003
 30
0.0
 10
4.5594400000000004
 20
-4.5471600000000008
 30
0.0
 10
4.7804200000000003
 20
-5.0119800000000003
 30
0.0
 10
4.8998000000000008
 20
-5.9340000000000002
 30
0.0
 10
4.8998000000000008
 20
-5.9340000000000002
 30
0.0
 10
4.8998000000000008
 20
-5.9441600000000001
 30
0.0
 10
4.9175800000000001
 20
-5.9441600000000001
 30
0.0
 10
4.9175800000000001
 20
-5.9340000000000002
 30
0.0
 10
4.9175800000000001
 20
-5.9340000000000002
 30
0.0
 10
4.9353600000000002
 20
-5.6292000000000009
 30
0.0
 10
4.9252000000000002
 20
-5.3142400000000007
 30
0.0
 10
4.84138
 20
-4.9992800000000006
 30
0.0
 10
4.84138
 20
-4.9992800000000006
 30
0.0
 10
4.7143800000000002
 20
-4.5293800000000006
 30
0.0
 10
4.4248200000000004
 20
-4.0264600000000002
 30
0.0
 10
4.0692200000000005
 20
-3.5006800000000005
 30
0.0
 10
4.0692200000000005
 20
-3.5006800000000005
 30
0.0
 10
3.7085400000000002
 20
-2.9774400000000001
 30
0.0
 10
3.2869000000000002
 20
-2.4110200000000002
 30
0.0
 10
2.9160600000000003
 20
-1.8141200000000002
 30
0.0
 10
2.9160600000000003
 20
-1.8141200000000002
 30
0.0
 10
2.0829400000000002
 20
-0.5238
 30
0.0
 10
2.7585800000000003
 20
-0.4222
 30
0.0
 10
3.5383600000000004
 20
-1.7023600000000001
 30
0.0
 10
3.5383600000000004
 20
-1.7023600000000001
 30
0.0
 10
3.7542600000000004
 20
-2.0782800000000003
 30
0.0
 10
3.9422200000000003
 20
-2.4770600000000003
 30
0.0
 10
4.1886000000000001
 20
-2.9215600000000004
 30
0.0
 10
4.1886000000000001
 20
-2.9215600000000004
 30
0.0
 10
4.4146600000000005
 20
-3.3305000000000002
 30
0.0
 10
4.6610400000000007
 20
-3.7775400000000001
 30
0.0
 10
4.9861600000000008
 20
-4.2626800000000005
 30
0.0
 10
4.9861600000000008
 20
-4.2626800000000005
 30
0.0
 10
4.9887000000000006
 20
-4.2703000000000007
 30
0.0
 10
5.0064800000000007
 20
-4.2626800000000005
 30
0.0
 10
5.0039400000000001
 20
-4.2525200000000005
 30
0.0
 10
5.0039400000000001
 20
-4.2525200000000005
 30
0.0
 10
4.6712000000000007
 20
-3.5845000000000002
 30
0.0
 10
4.4273600000000002
 20
-3.0612600000000003
 30
0.0
 10
4.2546400000000002
 20
-2.65232
 30
0.0
 10
4.2546400000000002
 20
-2.65232
 30
0.0
 10
4.0565199999999999
 20
-2.2230600000000003
 30
0.0
 10
3.9600000000000004
 20
-1.9131800000000001
 30
0.0
 10
3.9396800000000005
 20
-1.7074400000000001
 30
0.0
 10
3.9396800000000005
 20
-1.7074400000000001
 30
0.0
 10
3.9396800000000005
 20
-1.7023600000000001
 30
0.0
 10
3.9396800000000005
 20
-1.7023600000000001
 30
0.0
 10
3.9346000000000005
 20
-1.6998200000000001
 30
0.0
 10
3.9346000000000005
 20
-1.6998200000000001
 30
0.0
 10
3.6145600000000004
 20
-1.37978
 30
0.0
 10
3.4748600000000005
 20
-1.1080000000000001
 30
0.0
 10
3.2157800000000001
 20
-0.78288
 30
0.0
 10
3.2157800000000001
 20
-0.78288
 30
0.0
 10
2.9643200000000003
 20
-0.4780800000000001
 30
0.0
 10
2.63666
 20
-0.23424
 30
0.0
 10
2.2836000000000003
 20
-0.03104
 30
0.0
 10
2.2836000000000003
 20
-0.03104
 30
0.0
 10
1.9330800000000001
 20
0.16453
 30
0.0
 10
1.4149200000000002
 20
0.5277500000000001
 30
0.0
 10
1.0136000000000001
 20
0.7106300000000001
 30
0.0
 10
1.0136000000000001
 20
0.7106300000000001
 30
0.0
 10
1.0059800000000001
 20
0.7131700000000001
 30
0.0
 10
0.9932800000000001
 20
0.70047
 30
0.0
 10
1.0059800000000001
 20
0.6979300000000001
 30
0.0
 10
1.0059800000000001
 20
0.6979300000000001
 30
0.0
 10
1.4479400000000002
 20
0.35249
 30
0.0
 10
1.7578200000000002
 20
-0.11486
 30
0.0
 10
1.8899000000000001
 20
-0.3739400000000001
 30
0.0
 10
1.8899000000000001
 20
-0.3739400000000001
 30
0.0
 10
2.0143600000000004
 20
-0.6508000000000001
 30
0.0
 10
2.1007200000000004
 20
-0.9327400000000001
 30
0.0
 10
2.3217000000000003
 20
-1.33406
 30
0.0
  0
SPLINE
  5
26
100
AcDbEntity
  8
Ebene 1
 62
     1
100
AcDbSpline
210
0.0
220
0.0
230
1.0
 70
     1
 71
     3
 72
   216
 73
   212
 74
     0
 42
0.0000000001
 43
0.0000000001
 40
0.0
 40
0.0
 40
0.0
 40
0.0
 40
0.0188679245283019
 40
0.0188679245283019
 40
0.0188679245283019
 40
0.0188679245283019
 40
0.0377358490566038
 40
0.0377358490566038
 40
0.0377358490566038
 40
0.0377358490566038
 40
0.0566037735849057
 40
0.0566037735849057
 40
0.0566037735849057
 40
0.0566037735849057
 40
0.0754716981132075
 40
0.0754716981132075
 40
0.0754716981132075
 40
0.0754716981132075
 40
0.0943396226415094
 40
0.0943396226415094
 40
0.0943396226415094
 40
0.0943396226415094
 40
0.1132075471698113
 40
0.1132075471698113
 40
0.1132075471698113
 40
0.1132075471698113
 40
0.1320754716981132
 40
0.1320754716981132
 40
0.1320754716981132
 40
0.1320754716981132
 40
0.1509433962264151
 40
0.1509433962264151
 40
0.1509433962264151
 40
0.1509433962264151
 40
0.169811320754717
 40
0.169811320754717
 40
0.169811320754717
 40
0.169811320754717
 40
0.1886792452830189
 40
0.1886792452830189
 40
0.1886792452830189
 40
0.1886792452830189
 40
0.2075471698113207
 40
0.2075471698113207
 40
0.2075471698113207
 40
0.2075471698113207
 40
0.2264150943396226
 40
0.2264150943396226
 40
0.2264150943396226
 40
0.2264150943396226
 40
0.2452830188679245
 40
0.2452830188679245
 40
0.2452830188679245
 40
0.2452830188679245
 40
0.2641509433962264
 40
0.2641509433962264
 40
0.2641509433962264
 40
0.2641509433962264
 40
0.2830188679245283
 40
0.2830188679245283
 40
0.2830188679245283
 40
0.2830188679245283
 40
0.3018867924528302
 40
0.3018867924528302
 40
0.3018867924528302
 40
0.3018867924528302
 40
0.3207547169811321
 40
0.3207547169811321
 40
0.3207547169811321
 40
0.3207547169811321
 40
0.3396226415094339
 40
0.3396226415094339
 40
0.3396226415094339
 40
0.3396226415094339
 40
0.3584905660377358
 40
0.3584905660377358
 40
0.3584905660377358
 40
0.3584905660377358
 40
0.3773584905660377
 40
0.3773584905660377
 40
0.3773584905660377
 40
0.3773584905660377
 40
0.3962264150943396
 40
0.3962264150943396
 40
0.3962264150943396
 40
0.3962264150943396
 40
0.4150943396226415
 40
0.4150943396226415
 40
0.4150943396226415
 40
0.4150943396226415
 40
0.4339622641509434
 40
0.4339622641509434
 40
0.4339622641509434
 40
0.4339622641509434
 40
0.4528301886792452
 40
0.4528301886792452
 40
0.4528301886792452
 40
0.4528301886792452
 40
0.4716981132075471
 40
0.4716981132075471
 40
0.4716981132075471
 40
0.4716981132075471
 40
0.490566037735849
 40
0.490566037735849
 40
0.490566037735849
 40
0.490566037735849
 40
0.5094339622641509
 40
0.5094339622641509
 40
0.5094339622641509
 40
0.5094339622641509
 40
0.5283018867924528
 40
0.5283018867924528
 40
0.5283018867924528
 40
0.5283018867924528
 40
0.5471698113207547
 40
0.5471698113207547
 40
0.5471698113207547
 40
0.5471698113207547
 40
0.5660377358490566
 40
0.5660377358490566
 40
0.5660377358490566
 40
0.5660377358490566
 40
0.5849056603773585
 40
0.5849056603773585
 40
0.5849056603773585
 40
0.5849056603773585
 40
0.6037735849056604
 40
0.6037735849056604
 40
0.6037735849056604
 40
0.6037735849056604
 40
0.6226415094339622
 40
0.6226415094339622
 40
0.6226415094339622
 40
0.6226415094339622
 40
0.6415094339622641
 40
0.6415094339622641
 40
0.6415094339622641
 40
0.6415094339622641
 40
0.660377358490566
 40
0.660377358490566
 40
0.660377358490566
 40
0.660377358490566
 40
0.6792452830188679
 40
0.6792452830188679
 40
0.6792452830188679
 40
0.6792452830188679
 40
0.6981132075471698
 40
0.6981132075471698
 40
0.6981132075471698
 40
0.6981132075471698
 40
0.7169811320754717
 40
0.7169811320754717
 40
0.7169811320754717
 40
0.7169811320754717
 40
0.7358490566037735
 40
0.7358490566037735
 40
0.7358490566037735
 40
0.7358490566037735
 40
0.7547169811320754
 40
0.7547169811320754
 40
0.7547169811320754
 40
0.7547169811320754
 40
0.7735849056603773
 40
0.7735849056603773
 40
0.7735849056603773
 40
0.7735849056603773
 40
0.7924528301886792
 40
0.7924528301886792
 40
0.7924528301886792
 40
0.7924528301886792
 40
0.8113207547169811
 40
0.8113207547169811
 40
0.8113207547169811
 40
0.8113207547169811
 40
0.830188679245283
 40
0.830188679245283
 40
0.830188679245283
 40
0.830188679245283
 40
0.8490566037735848
 40
0.8490566037735848
 40
0.8490566037735848
 40
0.8490566037735848
 40
0.8679245283018867
 40
0.8679245283018867
 40
0.8679245283018867
 40
0.8679245283018867
 40
0.8867924528301886
 40
0.8867924528301886
 40
0.8867924528301886
 40
0.8867924528301886
 40
0.9056603773584905
 40
0.9056603773584905
 40
0.9056603773584905
 40
0.9056603773584905
 40
0.9245283018867924
 40
0.9245283018867924
 40
0.9245283018867924
 40
0.9245283018867924
 40
0.9433962264150942
 40
0.9433962264150942
 40
0.9433962264150942
 40
0.9433962264150942
 40
0.9622641509433961
 40
0.9622641509433961
 40
0.9622641509433961
 40
0.9622641509433961
 40
0.981132075471698
 40
0.981132075471698
 40
0.981132075471698
 40
0.981132075471698
 40
1.0
 40
1.0
 40
1.0
 40
1.0
 10
4.1378000000000004
 20
-6.2743600000000006
 30
0.0
 10
4.1428799999999999
 20
-6.2794400000000001
 30
0.0
 10
4.1352600000000006
 20
-6.2921400000000007
 30
0.0
 10
4.1251000000000007
 20
-6.2870600000000003
 30
0.0
 10
4.1251000000000007
 20
-6.2870600000000003
 30
0.0
 10
4.0920800000000002
 20
-6.2667400000000004
 30
0.0
 10
4.0565199999999999
 20
-6.2489600000000003
 30
0.0
 10
4.0285800000000007
 20
-6.2286400000000004
 30
0.0
 10
4.0285800000000007
 20
-6.2286400000000004
 30
0.0
 10
4.0235000000000003
 20
-6.2235600000000009
 30
0.0
 10
4.0235000000000003
 20
-6.2235600000000009
 30
0.0
 10
4.0235000000000003
 20
-6.2235600000000009
 30
0.0
 10
4.0235000000000003
 20
-6.2235600000000009
 30
0.0
 10
3.7466400000000002
 20
-5.6876200000000008
 30
0.0
 10
3.0837000000000003
 20
-5.2482000000000006
 30
0.0
 10
3.1116400000000004
 20
-5.6571400000000001
 30
0.0
 10
3.1116400000000004
 20
-5.6571400000000001
 30
0.0
 10
3.1218000000000004
 20
-5.7485800000000005
 30
0.0
 10
3.1599000000000004
 20
-5.8882800000000008
 30
0.0
 10
3.2411800000000004
 20
-6.0838600000000005
 30
0.0
 10
3.2411800000000004
 20
-6.0838600000000005
 30
0.0
 10
3.3631000000000002
 20
-6.3810400000000005
 30
0.0
 10
3.5586800000000003
 20
-6.7569600000000003
 30
0.0
 10
3.7415600000000002
 20
-7.0338200000000004
 30
0.0
 10
3.7415600000000002
 20
-7.0338200000000004
 30
0.0
 10
4.1860600000000003
 20
-7.727240000000001
 30
0.0
 10
4.45784
 20
-8.3495400000000011
 30
0.0
 10
4.5442
 20
-8.8219799999999999
 30
0.0
 10
4.5442
 20
-8.8219799999999999
 30
0.0
 10
4.5442
 20
-8.8346800000000005
 30
0.0
 10
4.5264200000000008
 20
-8.8372200000000003
 30
0.0
 10
4.5264200000000008
 20
-8.8245200000000015
 30
0.0
 10
4.5264200000000008
 20
-8.8245200000000015
 30
0.0
 10
4.25718
 20
-8.062520000000001
 30
0.0
 10
3.8787200000000004
 20
-7.4884800000000009
 30
0.0
 10
3.5561400000000001
 20
-7.3360800000000008
 30
0.0
 10
3.5561400000000001
 20
-7.3360800000000008
 30
0.0
 10
3.5561400000000001
 20
-7.3310000000000004
 30
0.0
 10
3.5510600000000001
 20
-7.3310000000000004
 30
0.0
 10
3.5510600000000001
 20
-7.3259200000000009
 30
0.0
 10
3.5510600000000001
 20
-7.3259200000000009
 30
0.0
 10
3.4443800000000002
 20
-6.8763400000000008
 30
0.0
 10
3.30722
 20
-6.5994800000000007
 30
0.0
 10
3.0659200000000002
 20
-6.2108600000000003
 30
0.0
 10
3.0659200000000002
 20
-6.2108600000000003
 30
0.0
 10
2.5325200000000003
 20
-5.3904400000000008
 30
0.0
 10
2.59348
 20
-4.8494200000000003
 30
0.0
 10
2.8627200000000004
 20
-4.6716200000000008
 30
0.0
 10
2.8627200000000004
 20
-4.6716200000000008
 30
0.0
 10
2.97194
 20
-4.60304
 30
0.0
 10
3.1116400000000004
 20
-4.5928800000000001
 30
0.0
 10
3.2411800000000004
 20
-4.6614600000000008
 30
0.0
 10
3.2411800000000004
 20
-4.6614600000000008
 30
0.0
 10
3.2437200000000002
 20
-4.6716200000000008
 30
0.0
 10
3.2564200000000003
 20
-4.6614600000000008
 30
0.0
 10
3.2538800000000001
 20
-4.6538400000000006
 30
0.0
 10
3.2538800000000001
 20
-4.6538400000000006
 30
0.0
 10
2.8957400000000004
 20
-3.8232600000000003
 30
0.0
 10
2.5325200000000003
 20
-2.7920200000000004
 30
0.0
 10
1.8111600000000001
 20
-1.8725400000000001
 30
0.0
 10
1.8111600000000001
 20
-1.8725400000000001
 30
0.0
 10
0.9628000000000001
 20
-0.8565400000000001
 30
0.0
 10
0.08904
 20
-0.8184400000000001
 30
0.0
 10
1.3844400000000001
 20
-2.2433800000000002
 30
0.0
 10
1.3844400000000001
 20
-2.2433800000000002
 30
0.0
 10
1.9280000000000002
 20
-2.8910800000000001
 30
0.0
 10
2.0956400000000004
 20
-3.3584400000000003
 30
0.0
 10
2.4563200000000003
 20
-4.4836600000000004
 30
0.0
 10
2.4563200000000003
 20
-4.4836600000000004
 30
0.0
 10
2.4563200000000003
 20
-4.4963600000000001
 30
0.0
 10
2.4436200000000001
 20
-4.4989000000000008
 30
0.0
 10
2.4410800000000004
 20
-4.4912800000000006
 30
0.0
 10
2.4410800000000004
 20
-4.4912800000000006
 30
0.0
 10
1.8060800000000001
 20
-3.1196800000000002
 30
0.0
 10
1.5724
 20
-2.7717000000000001
 30
0.0
 10
1.1660000000000001
 20
-2.5126200000000001
 30
0.0
 10
1.1660000000000001
 20
-2.5126200000000001
 30
0.0
 10
1.1660000000000001
 20
-2.5126200000000001
 30
0.0
 10
1.1660000000000001
 20
-2.5126200000000001
 30
0.0
 10
1.1660000000000001
 20
-2.5075400000000001
 30
0.0
 10
1.1660000000000001
 20
-2.5075400000000001
 30
0.0
 10
0.9932800000000001
 20
-2.1341600000000001
 30
0.0
 10
0.76214
 20
-1.9081000000000001
 30
0.0
 10
0.50814
 20
-1.5931400000000002
 30
0.0
 10
0.50814
 20
-1.5931400000000002
 30
0.0
 10
0.023
 20
-1.0089400000000002
 30
0.0
 10
0.18302
 20
-0.50348
 30
0.0
 10
-0.28687
 20
-0.03104
 30
0.0
 10
-0.28687
 20
-0.03104
 30
0.0
 10
-1.1352300000000002
 20
0.7741300000000001
 30
0.0
 10
-2.3239500000000004
 20
1.0332100000000002
 30
0.0
 10
-3.1951700000000001
 20
1.22879
 30
0.0
 10
-3.1951700000000001
 20
1.22879
 30
0.0
 10
-3.4339300000000001
 20
1.27959
 30
0.0
 10
-3.6625300000000003
 20
1.31515
 30
0.0
 10
-3.8860500000000004
 20
1.3532500000000001
 30
0.0
 10
-3.8860500000000004
 20
1.3532500000000001
 30
0.0
 10
-3.8987500000000002
 20
1.3557900000000001
 30
0.0
 10
-3.9012900000000004
 20
1.3430900000000001
 30
0.0
 10
-3.8936700000000002
 20
1.3354700000000002
 30
0.0
 10
-3.8936700000000002
 20
1.3354700000000002
 30
0.0
 10
-3.8301700000000003
 20
1.3024500000000001
 30
0.0
 10
-3.7666700000000004
 20
1.2541900000000001
 30
0.0
 10
-3.6930100000000001
 20
1.2033900000000002
 30
0.0
 10
-3.6930100000000001
 20
1.2033900000000002
 30
0.0
 10
-2.9945100000000004
 20
0.6979300000000001
 30
0.0
 10
-2.73543
 20
0.30931
 30
0.0
 10
-2.48143
 20
-0.07676
 30
0.0
 10
-2.48143
 20
-0.07676
 30
0.0
 10
-2.2934700000000001
 20
-0.3587
 30
0.0
 10
-1.9937500000000001
 20
-0.69906
 30
0.0
 10
-1.6406900000000002
 20
-1.0470400000000002
 30
0.0
 10
-1.6406900000000002
 20
-1.0470400000000002
 30
0.0
 10
-1.6406900000000002
 20
-1.0521200000000002
 30
0.0
 10
-1.6381500000000002
 20
-1.0521200000000002
 30
0.0
 10
-1.6381500000000002
 20
-1.0521200000000002
 30
0.0
 10
-1.6381500000000002
 20
-1.0521200000000002
 30
0.0
 10
-1.5568700000000002
 20
-1.3670800000000001
 30
0.0
 10
-1.5644900000000002
 20
-1.8725400000000001
 30
0.0
 10
-0.67549
 20
-3.1374600000000004
 30
0.0
 10
-0.67549
 20
-3.1374600000000004
 30
0.0
 10
-0.6704100000000001
 20
-3.1476200000000003
 30
0.0
 10
-0.6831100000000001
 20
-3.15524
 30
0.0
 10
-0.6932700000000001
 20
-3.1476200000000003
 30
0.0
 10
-0.6932700000000001
 20
-3.1476200000000003
 30
0.0
 10
-0.8837700000000001
 20
-2.9368000000000003
 30
0.0
 10
-1.0666500000000001
 20
-2.7082000000000002
 30
0.0
 10
-1.2444500000000001
 20
-2.4567400000000004
 30
0.0
 10
-1.2444500000000001
 20
-2.4567400000000004
 30
0.0
 10
-1.9810500000000002
 20
-1.4001000000000001
 30
0.0
 10
-2.4509500000000002
 20
-0.11232
 30
0.0
 10
-3.4847300000000003
 20
0.7131700000000001
 30
0.0
 10
-3.4847300000000003
 20
0.7131700000000001
 30
0.0
 10
-4.4931100000000006
 20
1.53105
 30
0.0
 10
-5.3846500000000006
 20
1.4497700000000002
 30
0.0
 10
-3.8200100000000003
 20
0.25089
 30
0.0
 10
-3.8200100000000003
 20
0.25089
 30
0.0
 10
-3.8200100000000003
 20
0.25089
 30
0.0
 10
-3.8200100000000003
 20
0.24581
 30
0.0
 10
-3.8200100000000003
 20
0.24581
 30
0.0
 10
-3.8200100000000003
 20
0.24581
 30
0.0
 10
-3.1265900000000002
 20
-0.34092
 30
0.0
 10
-2.3874500000000003
 20
-1.0191000000000001
 30
0.0
 10
-1.8921500000000002
 20
-2.1748000000000003
 30
0.0
 10
-1.8921500000000002
 20
-2.1748000000000003
 30
0.0
 10
-1.8845300000000003
 20
-2.19258
 30
0.0
 10
-1.8845300000000003
 20
-2.2103600000000001
 30
0.0
 10
-1.9023100000000002
 20
-2.1875
 30
0.0
 10
-1.9023100000000002
 20
-2.1875
 30
0.0
 10
-2.7557500000000004
 20
-0.82098
 30
0.0
 10
-3.5533100000000002
 20
-0.23424
 30
0.0
 10
-4.0308299999999999
 20
-0.01834
 30
0.0
 10
-4.0308299999999999
 20
-0.01834
 30
0.0
 10
-4.0333700000000006
 20
-0.01834
 30
0.0
 10
-4.0333700000000006
 20
-0.01326
 30
0.0
 10
-4.0333700000000006
 20
-0.01326
 30
0.0
 10
-4.0333700000000006
 20
-0.01326
 30
0.0
 10
-4.2670500000000002
 20
0.3270900000000001
 30
0.0
 10
-4.5489900000000008
 20
0.53029
 30
0.0
 10
-4.8715700000000002
 20
0.8020700000000001
 30
0.0
 10
-4.8715700000000002
 20
0.8020700000000001
 30
0.0
 10
-5.3998900000000001
 20
1.2414900000000002
 30
0.0
 10
-5.6335700000000006
 20
1.7063100000000002
 30
0.0
 10
-5.8596300000000001
 20
2.16859
 30
0.0
 10
-5.8596300000000001
 20
2.16859
 30
0.0
 10
-5.8647100000000005
 20
2.16859
 30
0.0
 10
-5.8647100000000005
 20
2.16859
 30
0.0
 10
-5.8647100000000005
 20
2.16859
 30
0.0
 10
-5.8647100000000005
 20
2.16859
 30
0.0
 10
-6.0780700000000003
 20
2.4124300000000001
 30
0.0
 10
-6.4692300000000005
 20
3.2176100000000001
 30
0.0
 10
-6.1745900000000002
 20
3.5274900000000002
 30
0.0
 10
-6.1745900000000002
 20
3.5274900000000002
 30
0.0
 10
-6.1720500000000005
 20
3.5351100000000004
 30
0.0
 10
-6.1618900000000005
 20
3.5325700000000002
 30
0.0
 10
-6.1618900000000005
 20
3.5224100000000003
 30
0.0
 10
-6.1618900000000005
 20
3.5224100000000003
 30
0.0
 10
-6.1618900000000005
 20
3.3446100000000003
 30
0.0
 10
-6.0933100000000007
 20
2.16859
 30
0.0
 10
-4.0816300000000005
 20
1.6758300000000002
 30
0.0
 10
-4.0816300000000005
 20
1.6758300000000002
 30
0.0
 10
-3.1519900000000001
 20
1.39897
 30
0.0
 10
-2.2426700000000004
 20
1.22879
 30
0.0
 10
-1.3104900000000002
 20
0.8376300000000001
 30
0.0
 10
-1.3104900000000002
 20
0.8376300000000001
 30
0.0
 10
-0.39101
 20
0.44901
 30
0.0
 10
0.5462400000000001
 20
-0.15042
 30
0.0
 10
1.5597000000000001
 20
-1.2299200000000001
 30
0.0
 10
1.5597000000000001
 20
-1.2299200000000001
 30
0.0
 10
1.56732
 20
-1.2400800000000001
 30
0.0
 10
1.56732
 20
-1.2400800000000001
 30
0.0
 10
1.5800200000000002
 20
-1.2477
 30
0.0
 10
1.5800200000000002
 20
-1.2477
 30
0.0
 10
1.5851000000000002
 20
-1.2477
 30
0.0
 10
1.5851000000000002
 20
-1.2477
 30
0.0
 10
1.5851000000000002
 20
-1.2477
 30
0.0
 10
1.5851000000000002
 20
-1.2477
 30
0.0
 10
2.0397600000000002
 20
-1.7150600000000003
 30
0.0
 10
2.3039200000000002
 20
-2.1036800000000002
 30
0.0
 10
2.5630000000000002
 20
-2.6701000000000001
 30
0.0
 10
2.5630000000000002
 20
-2.6701000000000001
 30
0.0
 10
2.71286
 20
-2.9774400000000001
 30
0.0
 10
2.9541600000000003
 20
-3.3330400000000004
 30
0.0
 10
3.2538800000000001
 20
-3.7165800000000004
 30
0.0
 10
3.2538800000000001
 20
-3.7165800000000004
 30
0.0
 10
3.2538800000000001
 20
-3.7216600000000004
 30
0.0
 10
3.2538800000000001
 20
-3.7216600000000004
 30
0.0
 10
3.2564200000000003
 20
-3.7216600000000004
 30
0.0
 10
3.2564200000000003
 20
-3.7216600000000004
 30
0.0
 10
3.4494600000000002
 20
-4.9256200000000003
 30
0.0
 10
3.7593400000000003
 20
-5.7181000000000006
 30
0.0
 10
4.1378000000000004
 20
-6.2743600000000006
 30
0.0
  0
SPLINE
  5
27
100
AcDbEntity
  8
Ebene 1
 62
     1
100
AcDbSpline
210
0.0
220
0.0
230
1.0
 70
     1
 71
     3
 72
    28
 73
    24
 74
     0
 42
0.0000000001
 43
0.0000000001
 40
0.0
 40
0.0
 40
0.0
 40
0.0
 40
0.1666666666666667
 40
0.1666666666666667
 40
0.1666666666666667
 40
0.1666666666666667
 40
0.3333333333333333
 40
0.3333333333333333
 40
0.3333333333333333
 40
0.3333333333333333
 40
0.5
 40
0.5
 40
0.5
 40
0.5
 40
0.6666666666666666
 40
0.6666666666666666
 40
0.6666666666666666
 40
0.6666666666666666
 40
0.8333333333333333
 40
0.8333333333333333
 40
0.8333333333333333
 40
0.8333333333333333
 40
1.0
 40
1.0
 40
1.0
 40
1.0
 10
5.1690400000000007
 20
-2.2281400000000002
 30
0.0
 10
5.0496600000000003
 20
-2.1544800000000004
 30
0.0
 10
4.8998000000000008
 20
-2.1468600000000002
 30
0.0
 10
4.79312
 20
-2.2433800000000002
 30
0.0
 10
4.79312
 20
-2.2433800000000002
 30
0.0
 10
4.7905800000000003
 20
-2.2484600000000001
 30
0.0
 10
4.7804200000000003
 20
-2.2433800000000002
 30
0.0
 10
4.7804200000000003
 20
-2.2408400000000004
 30
0.0
 10
4.7804200000000003
 20
-2.2408400000000004
 30
0.0
 10
4.4070400000000003
 20
-1.2096
 30
0.0
 10
3.8584000000000005
 20
-0.53396
 30
0.0
 10
3.3427800000000003
 20
0.05785
 30
0.0
 10
3.3427800000000003
 20
0.05785
 30
0.0
 10
2.05246
 20
1.4980300000000002
 30
0.0
 10
2.9414600000000002
 20
1.4624700000000002
 30
0.0
 10
3.7720400000000005
 20
0.43631
 30
0.0
 10
3.7720400000000005
 20
0.43631
 30
0.0
 10
4.4629200000000004
 20
-0.44252
 30
0.0
 10
4.8236000000000008
 20
-1.41788
 30
0.0
 10
5.1817400000000005
 20
-2.2179800000000003
 30
0.0
 10
5.1817400000000005
 20
-2.2179800000000003
 30
0.0
 10
5.18682
 20
-2.2230600000000003
 30
0.0
 10
5.17666
 20
-2.23068
 30
0.0
 10
5.1690400000000007
 20
-2.2281400000000002
 30
0.0
  0
SPLINE
  5
28
100
AcDbEntity
  8
Ebene 1
 62
     1
100
AcDbSpline
210
0.0
220
0.0
230
1.0
 70
     1
 71
     3
 72
    36
 73
    32
 74
     0
 42
0.0000000001
 43
0.0000000001
 40
0.0
 40
0.0
 40
0.0
 40
0.0
 40
0.125
 40
0.125
 40
0.125
 40
0.125
 40
0.25
 40
0.25
 40
0.25
 40
0.25
 40
0.375
 40
0.375
 40
0.375
 40
0.375
 40
0.5
 40
0.5
 40
0.5
 40
0.5
 40
0.625
 40
0.625
 40
0.625
 40
0.625
 40
0.75
 40
0.75
 40
0.75
 40
0.75
 40
0.875
 40
0.875
 40
0.875
 40
0.875
 40
1.0
 40
1.0
 40
1.0
 40
1.0
 10
-3.1316700000000002
 20
1.9958700000000003
 30
0.0
 10
-2.4280900000000001
 20
1.6453500000000001
 30
0.0
 10
-1.20635
 20
1.4116700000000002
 30
0.0
 10
-0.56881
 20
1.2592700000000001
 30
0.0
 10
-0.56881
 20
1.2592700000000001
 30
0.0
 10
0.08142
 20
1.0916300000000001
 30
0.0
 10
0.9424800000000001
 20
0.7106300000000001
 30
0.0
 10
1.0390000000000001
 20
0.11881
 30
0.0
 10
1.0390000000000001
 20
0.11881
 30
0.0
 10
1.0440800000000001
 20
0.10865
 30
0.0
 10
1.0313800000000002
 20
0.10611
 30
0.0
 10
1.0263
 20
0.11373
 30
0.0
 10
1.0263
 20
0.11373
 30
0.0
 10
0.7367400000000001
 20
0.63697
 30
0.0
 10
-0.5434100000000001
 20
1.0967100000000001
 30
0.0
 10
-1.1555500000000001
 20
1.02559
 30
0.0
 10
-1.1555500000000001
 20
1.02559
 30
0.0
 10
-1.1606300000000001
 20
1.02559
 30
0.0
 10
-1.1606300000000001
 20
1.02559
 30
0.0
 10
-1.16571
 20
1.02813
 30
0.0
 10
-1.16571
 20
1.02813
 30
0.0
 10
-1.50607
 20
1.3938900000000001
 30
0.0
 10
-2.5449300000000004
 20
1.4980300000000002
 30
0.0
 10
-3.1392900000000004
 20
1.9780900000000001
 30
0.0
 10
-3.1392900000000004
 20
1.9780900000000001
 30
0.0
 10
-3.1443700000000003
 20
1.9831700000000001
 30
0.0
 10
-3.1443700000000003
 20
1.9857100000000001
 30
0.0
 10
-3.1443700000000003
 20
1.9907900000000001
 30
0.0
 10
-3.1443700000000003
 20
1.9907900000000001
 30
0.0
 10
-3.1392900000000004
 20
1.9958700000000003
 30
0.0
 10
-3.1367500000000001
 20
1.9958700000000003
 30
0.0
 10
-3.1316700000000002
 20
1.9958700000000003
 30
0.0
  0
SPLINE
  5
29
100
AcDbEntity
  8
Ebene 1
 62
     1
100
AcDbSpline
210
0.0
220
0.0
230
1.0
 70
     1
 71
     3
 72
    68
 73
    64
 74
     0
 42
0.0000000001
 43
0.0000000001
 40
0.0
 40
0.0
 40
0.0
 40
0.0
 40
0.0625
 40
0.0625
 40
0.0625
 40
0.0625
 40
0.125
 40
0.125
 40
0.125
 40
0.125
 40
0.1875
 40
0.1875
 40
0.1875
 40
0.1875
 40
0.25
 40
0.25
 40
0.25
 40
0.25
 40
0.3125
 40
0.3125
 40
0.3125
 40
0.3125
 40
0.375
 40
0.375
 40
0.375
 40
0.375
 40
0.4375
 40
0.4375
 40
0.4375
 40
0.4375
 40
0.5
 40
0.5
 40
0.5
 40
0.5
 40
0.5625
 40
0.5625
 40
0.5625
 40
0.5625
 40
0.625
 40
0.625
 40
0.625
 40
0.625
 40
0.6875
 40
0.6875
 40
0.6875
 40
0.6875
 40
0.75
 40
0.75
 40
0.75
 40
0.75
 40
0.8125
 40
0.8125
 40
0.8125
 40
0.8125
 40
0.875
 40
0.875
 40
0.875
 40
0.875
 40
0.9375
 40
0.9375
 40
0.9375
 40
0.9375
 40
1.0
 40
1.0
 40
1.0
 40
1.0
 10
0.57672
 20
-2.7005800000000004
 30
0.0
 10
1.1583800000000002
 20
-3.2822400000000003
 30
0.0
 10
1.3539600000000001
 20
-3.7038800000000003
 30
0.0
 10
1.5597000000000001
 20
-4.1204400000000003
 30
0.0
 10
1.5597000000000001
 20
-4.1204400000000003
 30
0.0
 10
1.6994000000000002
 20
-4.4328600000000007
 30
0.0
 10
1.9407000000000001
 20
-4.8011600000000003
 30
0.0
 10
2.2226400000000002
 20
-5.1847000000000003
 30
0.0
 10
2.2226400000000002
 20
-5.1847000000000003
 30
0.0
 10
2.2277200000000001
 20
-5.1847000000000003
 30
0.0
 10
2.2277200000000001
 20
-5.1897800000000007
 30
0.0
 10
2.2277200000000001
 20
-5.1897800000000007
 30
0.0
 10
2.2277200000000001
 20
-5.1897800000000007
 30
0.0
 10
2.2785200000000003
 20
-5.5250600000000007
 30
0.0
 10
2.2175600000000002
 20
-6.0635400000000006
 30
0.0
 10
2.8881200000000002
 20
-7.4376800000000003
 30
0.0
 10
2.8881200000000002
 20
-7.4376800000000003
 30
0.0
 10
2.8906600000000005
 20
-7.4453000000000005
 30
0.0
 10
2.8779600000000003
 20
-7.4554600000000004
 30
0.0
 10
2.8703400000000001
 20
-7.4427600000000007
 30
0.0
 10
2.8703400000000001
 20
-7.4427600000000007
 30
0.0
 10
2.71794
 20
-7.2116200000000008
 30
0.0
 10
2.5757000000000003
 20
-6.9728600000000007
 30
0.0
 10
2.4436200000000001
 20
-6.6960000000000006
 30
0.0
 10
2.4436200000000001
 20
-6.6960000000000006
 30
0.0
 10
1.9965800000000002
 20
-5.7943000000000007
 30
0.0
 10
1.6917800000000001
 20
-4.4735000000000005
 30
0.0
 10
0.8129400000000001
 20
-3.3305000000000002
 30
0.0
 10
0.8129400000000001
 20
-3.3305000000000002
 30
0.0
 10
-0.02017
 20
-2.2992600000000003
 30
0.0
 10
-0.9015500000000001
 20
-2.26878
 30
0.0
 10
0.3887600000000001
 20
-3.6962600000000001
 30
0.0
 10
0.3887600000000001
 20
-3.6962600000000001
 30
0.0
 10
0.9297800000000001
 20
-4.3465000000000007
 30
0.0
 10
1.5038200000000002
 20
-5.0881800000000004
 30
0.0
 10
1.8441800000000002
 20
-6.2794400000000001
 30
0.0
 10
1.8441800000000002
 20
-6.2794400000000001
 30
0.0
 10
1.8492600000000001
 20
-6.2870600000000003
 30
0.0
 10
1.8365600000000002
 20
-6.2921400000000007
 30
0.0
 10
1.8264000000000002
 20
-6.2845200000000006
 30
0.0
 10
1.8264000000000002
 20
-6.2845200000000006
 30
0.0
 10
1.2066400000000002
 20
-4.8570400000000005
 30
0.0
 10
0.57164
 20
-4.2245800000000004
 30
0.0
 10
0.18048
 20
-3.9629600000000003
 30
0.0
 10
0.18048
 20
-3.9629600000000003
 30
0.0
 10
0.18048
 20
-3.9629600000000003
 30
0.0
 10
0.18048
 20
-3.9629600000000003
 30
0.0
 10
0.1754
 20
-3.9604200000000005
 30
0.0
 10
0.1754
 20
-3.9604200000000005
 30
0.0
 10
0.00268
 20
-3.5845000000000002
 30
0.0
 10
-0.22337
 20
-3.3508200000000001
 30
0.0
 10
-0.4799100000000001
 20
-3.0358600000000004
 30
0.0
 10
-0.4799100000000001
 20
-3.0358600000000004
 30
0.0
 10
-0.9650500000000001
 20
-2.4491200000000002
 30
0.0
 10
-1.0971300000000002
 20
-1.8344400000000001
 30
0.0
 10
-1.2800100000000001
 20
-1.2477
 30
0.0
 10
-1.2800100000000001
 20
-1.2477
 30
0.0
 10
-1.2850900000000001
 20
-1.2350000000000001
 30
0.0
 10
-1.2723900000000001
 20
-1.2299200000000001
 30
0.0
 10
-1.2622300000000002
 20
-1.2350000000000001
 30
0.0
 10
-1.2622300000000002
 20
-1.2350000000000001
 30
0.0
 10
-0.63993
 20
-2.0097
 30
0.0
 10
-0.09637
 20
-2.0351000000000004
 30
0.0
 10
0.57672
 20
-2.7005800000000004
 30
0.0
  0
SPLINE
  5
2A
100
AcDbEntity
  8
Ebene 1
 62
     1
100
AcDbSpline
210
0.0
220
0.0
230
1.0
 70
     1
 71
     3
 72
    68
 73
    64
 74
     0
 42
0.0000000001
 43
0.0000000001
 40
0.0
 40
0.0
 40
0.0
 40
0.0
 40
0.0625
 40
0.0625
 40
0.0625
 40
0.0625
 40
0.125
 40
0.125
 40
0.125
 40
0.125
 40
0.1875
 40
0.1875
 40
0.1875
 40
0.1875
 40
0.25
 40
0.25
 40
0.25
 40
0.25
 40
0.3125
 40
0.3125
 40
0.3125
 40
0.3125
 40
0.375
 40
0.375
 40
0.375
 40
0.375
 40
0.4375
 40
0.4375
 40
0.4375
 40
0.4375
 40
0.5
 40
0.5
 40
0.5
 40
0.5
 40
0.5625
 40
0.5625
 40
0.5625
 40
0.5625
 40
0.625
 40
0.625
 40
0.625
 40
0.625
 40
0.6875
 40
0.6875
 40
0.6875
 40
0.6875
 40
0.75
 40
0.75
 40
0.75
 40
0.75
 40
0.8125
 40
0.8125
 40
0.8125
 40
0.8125
 40
0.875
 40
0.875
 40
0.875
 40
0.875
 40
0.9375
 40
0.9375
 40
0.9375
 40
0.9375
 40
1.0
 40
1.0
 40
1.0
 40
1.0
 10
5.2579400000000005
 20
-6.1905400000000004
 30
0.0
 10
5.3341400000000005
 20
-6.7569600000000003
 30
0.0
 10
5.5170200000000005
 20
-7.046520000000001
 30
0.0
 10
5.6973600000000006
 20
-7.3386200000000006
 30
0.0
 10
5.6973600000000006
 20
-7.3386200000000006
 30
0.0
 10
5.8370600000000001
 20
-7.564680000000001
 30
0.0
 10
5.9310400000000003
 20
-7.8644000000000007
 30
0.0
 10
6.0021600000000008
 20
-8.1996800000000007
 30
0.0
 10
6.0021600000000008
 20
-8.1996800000000007
 30
0.0
 10
6.0021600000000008
 20
-8.2047600000000003
 30
0.0
 10
6.0021600000000008
 20
-8.2047600000000003
 30
0.0
 10
6.0021600000000008
 20
-8.2047600000000003
 30
0.0
 10
6.0021600000000008
 20
-8.2047600000000003
 30
0.0
 10
6.2028200000000009
 20
-8.3876400000000011
 30
0.0
 10
6.6371600000000006
 20
-8.6111599999999999
 30
0.0
 10
7.0080000000000009
 20
-9.6906600000000012
 30
0.0
 10
7.0080000000000009
 20
-9.6906600000000012
 30
0.0
 10
7.0130800000000004
 20
-9.6982800000000005
 30
0.0
 10
7.0257800000000001
 20
-9.6982800000000005
 30
0.0
 10
7.0257800000000001
 20
-9.6855800000000016
 30
0.0
 10
7.0257800000000001
 20
-9.6855800000000016
 30
0.0
 10
7.0029200000000005
 20
-9.4773000000000014
 30
0.0
 10
6.9648200000000005
 20
-9.2588600000000003
 30
0.0
 10
6.8810000000000002
 20
-9.0327999999999999
 30
0.0
 10
6.8810000000000002
 20
-9.0327999999999999
 30
0.0
 10
6.6066800000000008
 20
-8.3622399999999999
 30
0.0
 10
5.8675400000000009
 20
-7.5748400000000009
 30
0.0
 10
5.6033800000000005
 20
-6.5944000000000003
 30
0.0
 10
5.6033800000000005
 20
-6.5944000000000003
 30
0.0
 10
5.3341400000000005
 20
-5.6952400000000001
 30
0.0
 10
5.8827800000000003
 20
-5.2278800000000007
 30
0.0
 10
6.1977400000000005
 20
-6.5232800000000006
 30
0.0
 10
6.1977400000000005
 20
-6.5232800000000006
 30
0.0
 10
6.3222000000000005
 20
-7.1049400000000009
 30
0.0
 10
6.4619000000000009
 20
-7.7577200000000008
 30
0.0
 10
7.0638800000000002
 20
-8.4968599999999999
 30
0.0
 10
7.0638800000000002
 20
-8.4968599999999999
 30
0.0
 10
7.0664200000000008
 20
-8.5019400000000012
 30
0.0
 10
7.0791200000000005
 20
-8.4943200000000001
 30
0.0
 10
7.0765800000000008
 20
-8.484160000000001
 30
0.0
 10
7.0765800000000008
 20
-8.484160000000001
 30
0.0
 10
6.5228600000000005
 20
-7.4808600000000007
 30
0.0
 10
6.4847600000000005
 20
-6.8534800000000002
 30
0.0
 10
6.5533400000000004
 20
-6.5258200000000004
 30
0.0
 10
6.5533400000000004
 20
-6.5258200000000004
 30
0.0
 10
6.5533400000000004
 20
-6.5232800000000006
 30
0.0
 10
6.5533400000000004
 20
-6.5232800000000006
 30
0.0
 10
6.5482600000000009
 20
-6.5182000000000002
 30
0.0
 10
6.5482600000000009
 20
-6.5182000000000002
 30
0.0
 10
6.3780800000000006
 20
-6.2616600000000009
 30
0.0
 10
6.3399800000000006
 20
-6.0406800000000009
 30
0.0
 10
6.2460000000000004
 20
-5.7765200000000005
 30
0.0
 10
6.2460000000000004
 20
-5.7765200000000005
 30
0.0
 10
6.0758200000000002
 20
-5.2710600000000003
 30
0.0
 10
5.6364000000000001
 20
-4.9434000000000005
 30
0.0
 10
5.2401600000000004
 20
-4.6055800000000007
 30
0.0
 10
5.2401600000000004
 20
-4.6055800000000007
 30
0.0
 10
5.2325400000000002
 20
-4.60304
 30
0.0
 10
5.2198400000000005
 20
-4.6106600000000002
 30
0.0
 10
5.22492
 20
-4.6182800000000004
 30
0.0
 10
5.22492
 20
-4.6182800000000004
 30
0.0
 10
5.4967000000000006
 20
-5.2532800000000002
 30
0.0
 10
5.1741200000000003
 20
-5.5504600000000002
 30
0.0
 10
5.2579400000000005
 20
-6.1905400000000004
 30
0.0
  0
SPLINE
  5
2B
100
AcDbEntity
  8
Ebene 1
 62
     1
100
AcDbSpline
210
0.0
220
0.0
230
1.0
 70
     1
 71
     3
 72
    40
 73
    36
 74
     0
 42
0.0000000001
 43
0.0000000001
 40
0.0
 40
0.0
 40
0.0
 40
0.0
 40
0.1111111111111111
 40
0.1111111111111111
 40
0.1111111111111111
 40
0.1111111111111111
 40
0.2222222222222222
 40
0.2222222222222222
 40
0.2222222222222222
 40
0.2222222222222222
 40
0.3333333333333333
 40
0.3333333333333333
 40
0.3333333333333333
 40
0.3333333333333333
 40
0.4444444444444444
 40
0.4444444444444444
 40
0.4444444444444444
 40
0.4444444444444444
 40
0.5555555555555556
 40
0.5555555555555556
 40
0.5555555555555556
 40
0.5555555555555556
 40
0.6666666666666667
 40
0.6666666666666667
 40
0.6666666666666667
 40
0.6666666666666667
 40
0.7777777777777779
 40
0.7777777777777779
 40
0.7777777777777779
 40
0.7777777777777779
 40
0.8888888888888891
 40
0.8888888888888891
 40
0.8888888888888891
 40
0.8888888888888891
 40
1.0
 40
1.0
 40
1.0
 40
1.0
 10
5.0445800000000007
 20
-7.4554600000000004
 30
0.0
 10
4.9988600000000005
 20
-7.0719200000000004
 30
0.0
 10
4.75502
 20
-6.8788800000000005
 30
0.0
 10
4.7982000000000005
 20
-6.4547000000000008
 30
0.0
 10
4.7982000000000005
 20
-6.4547000000000008
 30
0.0
 10
4.7982000000000005
 20
-6.4445400000000008
 30
0.0
 10
4.7905800000000003
 20
-6.4420000000000002
 30
0.0
 10
4.7804200000000003
 20
-6.4496200000000004
 30
0.0
 10
4.7804200000000003
 20
-6.4496200000000004
 30
0.0
 10
4.2698800000000006
 20
-6.9855600000000004
 30
0.0
 10
4.5899200000000002
 20
-7.8415400000000011
 30
0.0
 10
4.9734600000000002
 20
-8.3520800000000008
 30
0.0
 10
4.9734600000000002
 20
-8.3520800000000008
 30
0.0
 10
5.6872000000000007
 20
-9.2842600000000015
 30
0.0
 10
5.6414800000000005
 20
-10.328200000000001
 30
0.0
 10
6.7311400000000008
 20
-11.141000000000002
 30
0.0
 10
6.7311400000000008
 20
-11.141000000000002
 30
0.0
 10
6.738760000000001
 20
-11.148620000000001
 30
0.0
 10
6.7489200000000009
 20
-11.13592
 30
0.0
 10
6.7438400000000005
 20
-11.128300000000001
 30
0.0
 10
6.7438400000000005
 20
-11.128300000000001
 30
0.0
 10
6.2841000000000005
 20
-10.506
 30
0.0
 10
6.1850400000000008
 20
-10.089440000000002
 30
0.0
 10
6.2383800000000003
 20
-9.6932000000000009
 30
0.0
 10
6.2383800000000003
 20
-9.6932000000000009
 30
0.0
 10
6.2383800000000003
 20
-9.6906600000000012
 30
0.0
 10
6.2383800000000003
 20
-9.6855800000000016
 30
0.0
 10
6.2333000000000007
 20
-9.6805000000000003
 30
0.0
 10
6.2333000000000007
 20
-9.6805000000000003
 30
0.0
 10
5.43574
 20
-9.1496400000000015
 30
0.0
 10
4.7905800000000003
 20
-7.7958200000000009
 30
0.0
 10
5.0420400000000001
 20
-7.4580000000000002
 30
0.0
 10
5.0420400000000001
 20
-7.4580000000000002
 30
0.0
 10
5.0445800000000007
 20
-7.4554600000000004
 30
0.0
 10
5.0445800000000007
 20
-7.4554600000000004
 30
0.0
 10
5.0445800000000007
 20
-7.4554600000000004
 30
0.0
  0
SPLINE
  5
2C
100
AcDbEntity
  8
Ebene 1
 62
     1
100
AcDbSpline
210
0.0
220
0.0
230
1.0
 70
     1
 71
     3
 72
    44
 73
    40
 74
     0
 42
0.0000000001
 43
0.0000000001
 40
0.0
 40
0.0
 40
0.0
 40
0.0
 40
0.1
 40
0.1
 40
0.1
 40
0.1
 40
0.2
 40
0.2
 40
0.2
 40
0.2
 40
0.3
 40
0.3
 40
0.3
 40
0.3
 40
0.4
 40
0.4
 40
0.4
 40
0.4
 40
0.5
 40
0.5
 40
0.5
 40
0.5
 40
0.6
 40
0.6
 40
0.6
 40
0.6
 40
0.7
 40
0.7
 40
0.7
 40
0.7
 40
0.7999999999999999
 40
0.7999999999999999
 40
0.7999999999999999
 40
0.7999999999999999
 40
0.8999999999999999
 40
0.8999999999999999
 40
0.8999999999999999
 40
0.8999999999999999
 40
1.0
 40
1.0
 40
1.0
 40
1.0
 10
-2.7532100000000002
 20
2.3997300000000004
 30
0.0
 10
-2.7532100000000002
 20
2.3997300000000004
 30
0.0
 10
-2.7608300000000003
 20
2.3946500000000004
 30
0.0
 10
-2.7608300000000003
 20
2.3921100000000002
 30
0.0
 10
-2.7608300000000003
 20
2.3921100000000002
 30
0.0
 10
-2.7608300000000003
 20
2.3870300000000002
 30
0.0
 10
-2.7608300000000003
 20
2.3819500000000002
 30
0.0
 10
-2.7557500000000004
 20
2.3819500000000002
 30
0.0
 10
-2.7557500000000004
 20
2.3819500000000002
 30
0.0
 10
-2.0928100000000001
 20
2.09239
 30
0.0
 10
-1.54417
 20
2.0161900000000004
 30
0.0
 10
-0.9396500000000001
 20
1.9603100000000002
 30
0.0
 10
-0.9396500000000001
 20
1.9603100000000002
 30
0.0
 10
-0.13447
 20
1.86633
 30
0.0
 10
0.49798
 20
1.6250300000000002
 30
0.0
 10
0.9678800000000001
 20
1.0586100000000001
 30
0.0
 10
0.9678800000000001
 20
1.0586100000000001
 30
0.0
 10
0.9704200000000001
 20
1.0535300000000001
 30
0.0
 10
0.9882000000000001
 20
1.0586100000000001
 30
0.0
 10
0.9805800000000001
 20
1.07131
 30
0.0
 10
0.9805800000000001
 20
1.07131
 30
0.0
 10
0.7799200000000001
 20
1.4243700000000001
 30
0.0
 10
0.42686
 20
1.7698100000000001
 30
0.0
 10
0.01284
 20
1.9730100000000002
 30
0.0
 10
0.01284
 20
1.9730100000000002
 30
0.0
 10
-0.10145
 20
2.0365100000000003
 30
0.0
 10
-0.22337
 20
2.0847700000000002
 30
0.0
 10
-0.35291
 20
2.1228700000000003
 30
0.0
 10
-0.35291
 20
2.1228700000000003
 30
0.0
 10
-0.6500900000000001
 20
2.2092300000000002
 30
0.0
 10
-1.07935
 20
2.3006700000000002
 30
0.0
 10
-1.2850900000000001
 20
2.4429100000000004
 30
0.0
 10
-1.2850900000000001
 20
2.4429100000000004
 30
0.0
 10
-1.2850900000000001
 20
2.4429100000000004
 30
0.0
 10
-1.2876300000000001
 20
2.4454500000000001
 30
0.0
 10
-1.2876300000000001
 20
2.4429100000000004
 30
0.0
 10
-1.2876300000000001
 20
2.4429100000000004
 30
0.0
 10
-1.7702300000000002
 20
2.3235300000000003
 30
0.0
 10
-2.2452100000000002
 20
2.2727300000000001
 30
0.0
 10
-2.7532100000000002
 20
2.3997300000000004
 30
0.0
  0
SPLINE
  5
2D
100
AcDbEntity
  8
Ebene 1
 62
     1
100
AcDbSpline
210
0.0
220
0.0
230
1.0
 70
     1
 71
     3
 72
    96
 73
    92
 74
     0
 42
0.0000000001
 43
0.0000000001
 40
0.0
 40
0.0
 40
0.0
 40
0.0
 40
0.0434782608695652
 40
0.0434782608695652
 40
0.0434782608695652
 40
0.0434782608695652
 40
0.0869565217391304
 40
0.0869565217391304
 40
0.0869565217391304
 40
0.0869565217391304
 40
0.1304347826086957
 40
0.1304347826086957
 40
0.1304347826086957
 40
0.1304347826086957
 40
0.1739130434782609
 40
0.1739130434782609
 40
0.1739130434782609
 40
0.1739130434782609
 40
0.2173913043478261
 40
0.2173913043478261
 40
0.2173913043478261
 40
0.2173913043478261
 40
0.2608695652173913
 40
0.2608695652173913
 40
0.2608695652173913
 40
0.2608695652173913
 40
0.3043478260869565
 40
0.3043478260869565
 40
0.3043478260869565
 40
0.3043478260869565
 40
0.3478260869565217
 40
0.3478260869565217
 40
0.3478260869565217
 40
0.3478260869565217
 40
0.3913043478260869
 40
0.3913043478260869
 40
0.3913043478260869
 40
0.3913043478260869
 40
0.4347826086956521
 40
0.4347826086956521
 40
0.4347826086956521
 40
0.4347826086956521
 40
0.4782608695652173
 40
0.4782608695652173
 40
0.4782608695652173
 40
0.4782608695652173
 40
0.5217391304347825
 40
0.5217391304347825
 40
0.5217391304347825
 40
0.5217391304347825
 40
0.5652173913043477
 40
0.5652173913043477
 40
0.5652173913043477
 40
0.5652173913043477
 40
0.6086956521739129
 40
0.6086956521739129
 40
0.6086956521739129
 40
0.6086956521739129
 40
0.6521739130434781
 40
0.6521739130434781
 40
0.6521739130434781
 40
0.6521739130434781
 40
0.6956521739130432
 40
0.6956521739130432
 40
0.6956521739130432
 40
0.6956521739130432
 40
0.7391304347826084
 40
0.7391304347826084
 40
0.7391304347826084
 40
0.7391304347826084
 40
0.7826086956521736
 40
0.7826086956521736
 40
0.7826086956521736
 40
0.7826086956521736
 40
0.8260869565217388
 40
0.8260869565217388
 40
0.8260869565217388
 40
0.8260869565217388
 40
0.869565217391304
 40
0.869565217391304
 40
0.869565217391304
 40
0.869565217391304
 40
0.9130434782608692
 40
0.9130434782608692
 40
0.9130434782608692
 40
0.9130434782608692
 40
0.9565217391304344
 40
0.9565217391304344
 40
0.9565217391304344
 40
0.9565217391304344
 40
1.0
 40
1.0
 40
1.0
 40
1.0
 10
0.26938
 20
4.3225100000000003
 30
0.0
 10
0.3252600000000001
 20
4.3631500000000001
 30
0.0
 10
0.38368
 20
4.4012500000000001
 30
0.0
 10
0.43448
 20
4.4291900000000002
 30
0.0
 10
0.43448
 20
4.4291900000000002
 30
0.0
 10
0.44464
 20
4.4342700000000006
 30
0.0
 10
0.4522600000000001
 20
4.42157
 30
0.0
 10
0.44464
 20
4.4164900000000005
 30
0.0
 10
0.44464
 20
4.4164900000000005
 30
0.0
 10
-0.53071
 20
3.0220300000000004
 30
0.0
 10
2.9211400000000003
 20
1.6809100000000001
 30
0.0
 10
3.5459800000000001
 20
1.06369
 30
0.0
 10
3.5459800000000001
 20
1.06369
 30
0.0
 10
4.1251000000000007
 20
0.4845700000000001
 30
0.0
 10
4.3206800000000003
 20
0.06547
 30
0.0
 10
4.5264200000000008
 20
-0.3536200000000001
 30
0.0
 10
4.5264200000000008
 20
-0.3536200000000001
 30
0.0
 10
4.6737400000000004
 20
-0.65588
 30
0.0
 10
4.9252000000000002
 20
-1.0191000000000001
 30
0.0
 10
5.22492
 20
-1.4001000000000001
 30
0.0
 10
5.22492
 20
-1.4001000000000001
 30
0.0
 10
5.22492
 20
-1.4001000000000001
 30
0.0
 10
5.22492
 20
-1.4051800000000001
 30
0.0
 10
5.2274600000000007
 20
-1.4051800000000001
 30
0.0
 10
5.2274600000000007
 20
-1.4051800000000001
 30
0.0
 10
5.3697000000000008
 20
-2.2484600000000001
 30
0.0
 10
5.5398800000000001
 20
-2.8860000000000001
 30
0.0
 10
6.0326400000000007
 20
-3.6327600000000002
 30
0.0
 10
6.0326400000000007
 20
-3.6327600000000002
 30
0.0
 10
6.0377200000000002
 20
-3.6403800000000004
 30
0.0
 10
6.0275600000000003
 20
-3.6480000000000001
 30
0.0
 10
6.0199400000000001
 20
-3.6454600000000004
 30
0.0
 10
6.0199400000000001
 20
-3.6454600000000004
 30
0.0
 10
5.9869200000000005
 20
-3.6276800000000002
 30
0.0
 10
5.9183400000000006
 20
-3.6022800000000004
 30
0.0
 10
5.8243600000000004
 20
-3.5591000000000004
 30
0.0
 10
5.8243600000000004
 20
-3.5591000000000004
 30
0.0
 10
5.8243600000000004
 20
-3.5540200000000004
 30
0.0
 10
5.8192800000000009
 20
-3.5540200000000004
 30
0.0
 10
5.8192800000000009
 20
-3.5540200000000004
 30
0.0
 10
5.8192800000000009
 20
-3.5540200000000004
 30
0.0
 10
5.5475000000000003
 20
-3.0815800000000002
 30
0.0
 10
5.0547400000000007
 20
-2.7158200000000003
 30
0.0
 10
5.1080800000000002
 20
-3.0688800000000001
 30
0.0
 10
5.1080800000000002
 20
-3.0688800000000001
 30
0.0
 10
5.1207800000000008
 20
-3.1476200000000003
 30
0.0
 10
5.1690400000000007
 20
-3.2746200000000001
 30
0.0
 10
5.2503200000000003
 20
-3.4397200000000003
 30
0.0
 10
5.2503200000000003
 20
-3.4397200000000003
 30
0.0
 10
5.3722400000000006
 20
-3.6962600000000001
 30
0.0
 10
5.5779800000000002
 20
-4.0264600000000002
 30
0.0
 10
5.7507000000000001
 20
-4.2703000000000007
 30
0.0
 10
5.7507000000000001
 20
-4.2703000000000007
 30
0.0
 10
6.1850400000000008
 20
-4.8570400000000005
 30
0.0
 10
6.4746000000000006
 20
-5.3802800000000008
 30
0.0
 10
6.6066800000000008
 20
-5.7816000000000001
 30
0.0
 10
6.6066800000000008
 20
-5.7816000000000001
 30
0.0
 10
6.6066800000000008
 20
-5.7943000000000007
 30
0.0
 10
6.5939800000000002
 20
-5.7993800000000002
 30
0.0
 10
6.5914400000000004
 20
-5.7892200000000003
 30
0.0
 10
6.5914400000000004
 20
-5.7892200000000003
 30
0.0
 10
6.2790200000000009
 20
-5.1466000000000003
 30
0.0
 10
5.9107200000000004
 20
-4.6589200000000002
 30
0.0
 10
5.6287800000000008
 20
-4.5217600000000004
 30
0.0
 10
5.6287800000000008
 20
-4.5217600000000004
 30
0.0
 10
5.6237000000000004
 20
-4.5217600000000004
 30
0.0
 10
5.6237000000000004
 20
-4.51668
 30
0.0
 10
5.6237000000000004
 20
-4.51668
 30
0.0
 10
5.6237000000000004
 20
-4.51668
 30
0.0
 10
5.4840000000000009
 20
-4.1255200000000007
 30
0.0
 10
5.3189000000000002
 20
-3.9223200000000005
 30
0.0
 10
5.0750600000000006
 20
-3.5718000000000001
 30
0.0
 10
5.0750600000000006
 20
-3.5718000000000001
 30
0.0
 10
4.64072
 20
-2.9545800000000004
 30
0.0
 10
4.6102400000000001
 20
-2.4999200000000004
 30
0.0
 10
4.7524800000000003
 20
-2.2941800000000003
 30
0.0
 10
4.7524800000000003
 20
-2.2941800000000003
 30
0.0
 10
4.7524800000000003
 20
-2.2916400000000001
 30
0.0
 10
4.7524800000000003
 20
-2.2916400000000001
 30
0.0
 10
4.7524800000000003
 20
-2.2865600000000001
 30
0.0
 10
4.7524800000000003
 20
-2.2865600000000001
 30
0.0
 10
4.16066
 20
-1.12324
 30
0.0
 10
3.5967800000000003
 20
-0.5415800000000001
 30
0.0
 10
3.2183200000000003
 20
-0.26472
 30
0.0
 10
3.2183200000000003
 20
-0.26472
 30
0.0
 10
2.1515200000000001
 20
0.49981
 30
0.0
 10
-0.22337
 20
3.0880700000000001
 30
0.0
 10
0.2643
 20
4.3199700000000005
 30
0.0
 10
0.2643
 20
4.3199700000000005
 30
0.0
 10
0.2643
 20
4.3199700000000005
 30
0.0
 10
0.2643
 20
4.3199700000000005
 30
0.0
 10
0.26938
 20
4.3225100000000003
 30
0.0
  0
SPLINE
  5
2E
100
AcDbEntity
  8
Ebene 1
 62
     1
100
AcDbSpline
210
0.0
220
0.0
230
1.0
 70
     1
 71
     3
 72
    36
 73
    32
 74
     0
 42
0.0000000001
 43
0.0000000001
 40
0.0
 40
0.0
 40
0.0
 40
0.0
 40
0.125
 40
0.125
 40
0.125
 40
0.125
 40
0.25
 40
0.25
 40
0.25
 40
0.25
 40
0.375
 40
0.375
 40
0.375
 40
0.375
 40
0.5
 40
0.5
 40
0.5
 40
0.5
 40
0.625
 40
0.625
 40
0.625
 40
0.625
 40
0.75
 40
0.75
 40
0.75
 40
0.75
 40
0.875
 40
0.875
 40
0.875
 40
0.875
 40
1.0
 40
1.0
 40
1.0
 40
1.0
 10
-4.9249100000000006
 20
9.8698700000000006
 30
0.0
 10
-4.9249100000000006
 20
9.8673300000000008
 30
0.0
 10
-4.9274500000000003
 20
9.8673300000000008
 30
0.0
 10
-4.9325300000000007
 20
9.8698700000000006
 30
0.0
 10
-4.9325300000000007
 20
9.8698700000000006
 30
0.0
 10
-4.9376100000000003
 20
9.8749500000000001
 30
0.0
 10
-4.9376100000000003
 20
9.8800300000000014
 30
0.0
 10
-4.9325300000000007
 20
9.8825700000000012
 30
0.0
 10
-4.9325300000000007
 20
9.8825700000000012
 30
0.0
 10
-4.8080700000000007
 20
9.999410000000001
 30
0.0
 10
-4.4169100000000006
 20
10.20261
 30
0.0
 10
-3.2002500000000005
 20
9.8622500000000013
 30
0.0
 10
-3.2002500000000005
 20
9.8622500000000013
 30
0.0
 10
-1.67117
 20
9.4533100000000001
 30
0.0
 10
-1.5390900000000001
 20
10.29659
 30
0.0
 10
-1.4959100000000001
 20
10.146730000000002
 30
0.0
 10
-1.4959100000000001
 20
10.146730000000002
 30
0.0
 10
-1.4679700000000002
 20
10.00703
 30
0.0
 10
-1.4679700000000002
 20
9.8622500000000013
 30
0.0
 10
-1.5263900000000001
 20
9.7301700000000011
 30
0.0
 10
-1.5263900000000001
 20
9.7301700000000011
 30
0.0
 10
-1.5263900000000001
 20
9.7301700000000011
 30
0.0
 10
-1.5263900000000001
 20
9.7301700000000011
 30
0.0
 10
-1.5314700000000001
 20
9.7301700000000011
 30
0.0
 10
-1.5314700000000001
 20
9.7301700000000011
 30
0.0
 10
-1.54417
 20
9.7098500000000012
 30
0.0
 10
-1.9353300000000002
 20
9.22471
 30
0.0
 10
-3.3018500000000004
 20
9.7479500000000012
 30
0.0
 10
-3.3018500000000004
 20
9.7479500000000012
 30
0.0
 10
-4.3102300000000007
 20
10.116250000000001
 30
0.0
 10
-4.7699700000000007
 20
9.9587700000000012
 30
0.0
 10
-4.9249100000000006
 20
9.8698700000000006
 30
0.0
  0
SPLINE
  5
2F
100
AcDbEntity
  8
Ebene 1
 62
     1
100
AcDbSpline
210
0.0
220
0.0
230
1.0
 70
     1
 71
     3
 72
    44
 73
    40
 74
     0
 42
0.0000000001
 43
0.0000000001
 40
0.0
 40
0.0
 40
0.0
 40
0.0
 40
0.1
 40
0.1
 40
0.1
 40
0.1
 40
0.2
 40
0.2
 40
0.2
 40
0.2
 40
0.3
 40
0.3
 40
0.3
 40
0.3
 40
0.4
 40
0.4
 40
0.4
 40
0.4
 40
0.5
 40
0.5
 40
0.5
 40
0.5
 40
0.6
 40
0.6
 40
0.6
 40
0.6
 40
0.7
 40
0.7
 40
0.7
 40
0.7
 40
0.7999999999999999
 40
0.7999999999999999
 40
0.7999999999999999
 40
0.7999999999999999
 40
0.8999999999999999
 40
0.8999999999999999
 40
0.8999999999999999
 40
0.8999999999999999
 40
1.0
 40
1.0
 40
1.0
 40
1.0
 10
-4.02067
 20
8.7167100000000008
 30
0.0
 10
-4.0130500000000007
 20
8.7217900000000004
 30
0.0
 10
-4.0130500000000007
 20
8.7294100000000014
 30
0.0
 10
-4.02067
 20
8.734490000000001
 30
0.0
 10
-4.02067
 20
8.734490000000001
 30
0.0
 10
-4.3483300000000007
 20
8.9122900000000005
 30
0.0
 10
-4.4372300000000005
 20
9.1078700000000001
 30
0.0
 10
-4.6759900000000005
 20
9.3771100000000001
 30
0.0
 10
-4.6759900000000005
 20
9.3771100000000001
 30
0.0
 10
-5.5014900000000004
 20
10.327070000000001
 30
0.0
 10
-7.1753500000000008
 20
9.7301700000000011
 30
0.0
 10
-7.0559700000000003
 20
8.5643100000000008
 30
0.0
 10
-7.0559700000000003
 20
8.5643100000000008
 30
0.0
 10
-7.0559700000000003
 20
8.5516100000000002
 30
0.0
 10
-7.048350000000001
 20
8.5516100000000002
 30
0.0
 10
-7.0432700000000006
 20
8.5541499999999999
 30
0.0
 10
-7.0432700000000006
 20
8.5541499999999999
 30
0.0
 10
-6.3447700000000005
 20
9.5472900000000003
 30
0.0
 10
-5.44815
 20
9.0265900000000006
 30
0.0
 10
-4.5032700000000006
 20
8.7903700000000011
 30
0.0
 10
-4.5032700000000006
 20
8.7903700000000011
 30
0.0
 10
-4.4931100000000006
 20
8.7852900000000016
 30
0.0
 10
-4.4931100000000006
 20
8.772590000000001
 30
0.0
 10
-4.5032700000000006
 20
8.772590000000001
 30
0.0
 10
-4.5032700000000006
 20
8.772590000000001
 30
0.0
 10
-5.1839900000000005
 20
8.6455900000000003
 30
0.0
 10
-5.6691300000000009
 20
9.0570700000000013
 30
0.0
 10
-6.5505100000000009
 20
8.6608300000000007
 30
0.0
 10
-6.5505100000000009
 20
8.6608300000000007
 30
0.0
 10
-6.5632100000000007
 20
8.6582900000000009
 30
0.0
 10
-6.5530500000000007
 20
8.6405100000000008
 30
0.0
 10
-6.5454300000000005
 20
8.6455900000000003
 30
0.0
 10
-6.5454300000000005
 20
8.6455900000000003
 30
0.0
 10
-6.2101500000000005
 20
8.7370300000000007
 30
0.0
 10
-5.8850300000000004
 20
8.7979900000000004
 30
0.0
 10
-5.2652700000000001
 20
8.6735300000000013
 30
0.0
 10
-5.2652700000000001
 20
8.6735300000000013
 30
0.0
 10
-4.94015
 20
8.6074900000000003
 30
0.0
 10
-4.3610300000000004
 20
8.5922499999999999
 30
0.0
 10
-4.02067
 20
8.7167100000000008
 30
0.0
  0
SPLINE
  5
30
100
AcDbEntity
  8
Ebene 1
 62
     1
100
AcDbSpline
210
0.0
220
0.0
230
1.0
 70
     1
 71
     3
 72
    40
 73
    36
 74
     0
 42
0.0000000001
 43
0.0000000001
 40
0.0
 40
0.0
 40
0.0
 40
0.0
 40
0.1111111111111111
 40
0.1111111111111111
 40
0.1111111111111111
 40
0.1111111111111111
 40
0.2222222222222222
 40
0.2222222222222222
 40
0.2222222222222222
 40
0.2222222222222222
 40
0.3333333333333333
 40
0.3333333333333333
 40
0.3333333333333333
 40
0.3333333333333333
 40
0.4444444444444444
 40
0.4444444444444444
 40
0.4444444444444444
 40
0.4444444444444444
 40
0.5555555555555556
 40
0.5555555555555556
 40
0.5555555555555556
 40
0.5555555555555556
 40
0.6666666666666667
 40
0.6666666666666667
 40
0.6666666666666667
 40
0.6666666666666667
 40
0.7777777777777779
 40
0.7777777777777779
 40
0.7777777777777779
 40
0.7777777777777779
 40
0.8888888888888891
 40
0.8888888888888891
 40
0.8888888888888891
 40
0.8888888888888891
 40
1.0
 40
1.0
 40
1.0
 40
1.0
 10
-2.2172700000000001
 20
11.142410000000002
 30
0.0
 10
-4.0257500000000004
 20
10.39057
 30
0.0
 10
-4.2289500000000002
 20
10.687750000000001
 30
0.0
 10
-4.9833300000000005
 20
10.586150000000002
 30
0.0
 10
-4.9833300000000005
 20
10.586150000000002
 30
0.0
 10
-5.5929300000000008
 20
10.499790000000001
 30
0.0
 10
-5.7707300000000004
 20
10.15943
 30
0.0
 10
-5.8164500000000006
 20
10.032430000000002
 30
0.0
 10
-5.8164500000000006
 20
10.032430000000002
 30
0.0
 10
-5.8164500000000006
 20
10.02481
 30
0.0
 10
-5.8088300000000004
 20
10.019730000000001
 30
0.0
 10
-5.8012100000000002
 20
10.02735
 30
0.0
 10
-5.8012100000000002
 20
10.02735
 30
0.0
 10
-5.7250100000000002
 20
10.128950000000001
 30
0.0
 10
-5.5065700000000009
 20
10.39311
 30
0.0
 10
-4.9757100000000003
 20
10.454070000000002
 30
0.0
 10
-4.9757100000000003
 20
10.454070000000002
 30
0.0
 10
-4.6302700000000003
 20
10.499790000000001
 30
0.0
 10
-4.3153100000000002
 20
10.46677
 30
0.0
 10
-4.0181300000000002
 20
10.46677
 30
0.0
 10
-4.0181300000000002
 20
10.46677
 30
0.0
 10
-3.4593300000000005
 20
10.474390000000001
 30
0.0
 10
-2.8421100000000004
 20
10.575990000000001
 30
0.0
 10
-2.3391900000000003
 20
10.802050000000001
 30
0.0
 10
-2.3391900000000003
 20
10.802050000000001
 30
0.0
 10
-2.3391900000000003
 20
10.802050000000001
 30
0.0
 10
-2.3366500000000001
 20
10.807130000000001
 30
0.0
 10
-2.3366500000000001
 20
10.807130000000001
 30
0.0
 10
-2.3366500000000001
 20
10.807130000000001
 30
0.0
 10
-2.2426700000000004
 20
10.89095
 30
0.0
 10
-2.1232900000000003
 20
11.053510000000001
 30
0.0
 10
-2.2071100000000001
 20
11.13987
 30
0.0
 10
-2.2071100000000001
 20
11.13987
 30
0.0
 10
-2.2071100000000001
 20
11.142410000000002
 30
0.0
 10
-2.2121900000000001
 20
11.142410000000002
 30
0.0
 10
-2.2172700000000001
 20
11.142410000000002
 30
0.0
  0
SPLINE
  5
31
100
AcDbEntity
  8
Ebene 1
 62
     1
100
AcDbSpline
210
0.0
220
0.0
230
1.0
 70
     1
 71
     3
 72
    20
 73
    16
 74
     0
 42
0.0000000001
 43
0.0000000001
 40
0.0
 40
0.0
 40
0.0
 40
0.0
 40
0.25
 40
0.25
 40
0.25
 40
0.25
 40
0.5
 40
0.5
 40
0.5
 40
0.5
 40
0.75
 40
0.75
 40
0.75
 40
0.75
 40
1.0
 40
1.0
 40
1.0
 40
1.0
 10
-2.3315700000000001
 20
2.3438500000000002
 30
0.0
 10
-2.3264900000000002
 20
2.3387700000000002
 30
0.0
 10
-2.31379
 20
2.3489300000000002
 30
0.0
 10
-2.31887
 20
2.3565500000000004
 30
0.0
 10
-2.31887
 20
2.3565500000000004
 30
0.0
 10
-2.5779500000000004
 20
2.9356700000000004
 30
0.0
 10
-2.8548100000000001
 20
3.2760300000000004
 30
0.0
 10
-2.9564100000000004
 20
4.2691699999999999
 30
0.0
 10
-2.9564100000000004
 20
4.2691699999999999
 30
0.0
 10
-2.9564100000000004
 20
4.2818700000000005
 30
0.0
 10
-2.9741900000000001
 20
4.2818700000000005
 30
0.0
 10
-2.9741900000000001
 20
4.2691699999999999
 30
0.0
 10
-2.9741900000000001
 20
4.2691699999999999
 30
0.0
 10
-3.0199100000000003
 20
3.9237300000000004
 30
0.0
 10
-2.9995900000000004
 20
2.8162900000000004
 30
0.0
 10
-2.3315700000000001
 20
2.3438500000000002
 30
0.0
  0
SPLINE
  5
32
100
AcDbEntity
  8
Ebene 1
 62
     1
100
AcDbSpline
210
0.0
220
0.0
230
1.0
 70
     1
 71
     3
 72
    24
 73
    20
 74
     0
 42
0.0000000001
 43
0.0000000001
 40
0.0
 40
0.0
 40
0.0
 40
0.0
 40
0.2
 40
0.2
 40
0.2
 40
0.2
 40
0.4
 40
0.4
 40
0.4
 40
0.4
 40
0.6000000000000001
 40
0.6000000000000001
 40
0.6000000000000001
 40
0.6000000000000001
 40
0.8
 40
0.8
 40
0.8
 40
0.8
 40
1.0
 40
1.0
 40
1.0
 40
1.0
 10
-2.1004300000000002
 20
7.2358900000000004
 30
0.0
 10
-2.1004300000000002
 20
7.2308100000000008
 30
0.0
 10
-2.1055100000000002
 20
7.2308100000000008
 30
0.0
 10
-2.1105900000000002
 20
7.2308100000000008
 30
0.0
 10
-2.1105900000000002
 20
7.2308100000000008
 30
0.0
 10
-2.11313
 20
7.2308100000000008
 30
0.0
 10
-2.1182100000000004
 20
7.2358900000000004
 30
0.0
 10
-2.1182100000000004
 20
7.2435100000000006
 30
0.0
 10
-2.1182100000000004
 20
7.2435100000000006
 30
0.0
 10
-1.9988300000000001
 20
7.7667500000000009
 30
0.0
 10
-2.0369300000000004
 20
8.3077700000000014
 30
0.0
 10
-2.2198100000000003
 20
8.8437100000000015
 30
0.0
 10
-2.2198100000000003
 20
8.8437100000000015
 30
0.0
 10
-2.2248900000000003
 20
8.8538700000000006
 30
0.0
 10
-2.2121900000000001
 20
8.8614899999999999
 30
0.0
 10
-2.2071100000000001
 20
8.8538700000000006
 30
0.0
 10
-2.2071100000000001
 20
8.8538700000000006
 30
0.0
 10
-2.0877300000000001
 20
8.7217900000000004
 30
0.0
 10
-1.6457700000000002
 20
8.15029
 30
0.0
 10
-2.1004300000000002
 20
7.2358900000000004
 30
0.0
  0
SPLINE
  5
33
100
AcDbEntity
  8
Ebene 1
 62
     1
100
AcDbSpline
210
0.0
220
0.0
230
1.0
 70
     1
 71
     3
 72
    28
 73
    24
 74
     0
 42
0.0000000001
 43
0.0000000001
 40
0.0
 40
0.0
 40
0.0
 40
0.0
 40
0.1666666666666667
 40
0.1666666666666667
 40
0.1666666666666667
 40
0.1666666666666667
 40
0.3333333333333333
 40
0.3333333333333333
 40
0.3333333333333333
 40
0.3333333333333333
 40
0.5
 40
0.5
 40
0.5
 40
0.5
 40
0.6666666666666666
 40
0.6666666666666666
 40
0.6666666666666666
 40
0.6666666666666666
 40
0.8333333333333333
 40
0.8333333333333333
 40
0.8333333333333333
 40
0.8333333333333333
 40
1.0
 40
1.0
 40
1.0
 40
1.0
 10
-1.6406900000000002
 20
6.0827300000000006
 30
0.0
 10
-1.6406900000000002
 20
6.0954300000000003
 30
0.0
 10
-1.6533900000000001
 20
6.0979700000000001
 30
0.0
 10
-1.6584700000000001
 20
6.0852700000000004
 30
0.0
 10
-1.6584700000000001
 20
6.0852700000000004
 30
0.0
 10
-1.8972300000000002
 20
5.4477300000000008
 30
0.0
 10
-1.8108700000000002
 20
4.2844100000000003
 30
0.0
 10
-0.45705
 20
3.7713300000000003
 30
0.0
 10
-0.45705
 20
3.7713300000000003
 30
0.0
 10
-0.4494300000000001
 20
3.7662500000000003
 30
0.0
 10
-0.44181
 20
3.7789500000000005
 30
0.0
 10
-0.4494300000000001
 20
3.7865700000000002
 30
0.0
 10
-0.4494300000000001
 20
3.7865700000000002
 30
0.0
 10
-0.70089
 20
3.9796100000000005
 30
0.0
 10
-1.07935
 20
4.3275900000000007
 30
0.0
 10
-1.0971300000000002
 20
4.75685
 30
0.0
 10
-1.0971300000000002
 20
4.75685
 30
0.0
 10
-1.0971300000000002
 20
4.7619300000000004
 30
0.0
 10
-1.0971300000000002
 20
4.7619300000000004
 30
0.0
 10
-1.0971300000000002
 20
4.7619300000000004
 30
0.0
 10
-1.0971300000000002
 20
4.7619300000000004
 30
0.0
 10
-1.4019300000000001
 20
5.1962700000000002
 30
0.0
 10
-1.6457700000000002
 20
5.5848900000000006
 30
0.0
 10
-1.6406900000000002
 20
6.0827300000000006
 30
0.0
  0
SPLINE
  5
34
100
AcDbEntity
  8
Ebene 1
 62
     1
100
AcDbSpline
210
0.0
220
0.0
230
1.0
 70
     1
 71
     3
 72
    48
 73
    44
 74
     0
 42
0.0000000001
 43
0.0000000001
 40
0.0
 40
0.0
 40
0.0
 40
0.0
 40
0.0909090909090909
 40
0.0909090909090909
 40
0.0909090909090909
 40
0.0909090909090909
 40
0.1818181818181818
 40
0.1818181818181818
 40
0.1818181818181818
 40
0.1818181818181818
 40
0.2727272727272727
 40
0.2727272727272727
 40
0.2727272727272727
 40
0.2727272727272727
 40
0.3636363636363637
 40
0.3636363636363637
 40
0.3636363636363637
 40
0.3636363636363637
 40
0.4545454545454546
 40
0.4545454545454546
 40
0.4545454545454546
 40
0.4545454545454546
 40
0.5454545454545455
 40
0.5454545454545455
 40
0.5454545454545455
 40
0.5454545454545455
 40
0.6363636363636365
 40
0.6363636363636365
 40
0.6363636363636365
 40
0.6363636363636365
 40
0.7272727272727274
 40
0.7272727272727274
 40
0.7272727272727274
 40
0.7272727272727274
 40
0.8181818181818183
 40
0.8181818181818183
 40
0.8181818181818183
 40
0.8181818181818183
 40
0.9090909090909093
 40
0.9090909090909093
 40
0.9090909090909093
 40
0.9090909090909093
 40
1.0
 40
1.0
 40
1.0
 40
1.0
 10
-0.63231
 20
3.0245700000000002
 30
0.0
 10
-0.6272300000000001
 20
3.0245700000000002
 30
0.0
 10
-0.6246900000000001
 20
3.0296500000000002
 30
0.0
 10
-0.6246900000000001
 20
3.0347300000000001
 30
0.0
 10
-0.6246900000000001
 20
3.0347300000000001
 30
0.0
 10
-0.6246900000000001
 20
3.0372700000000004
 30
0.0
 10
-0.6272300000000001
 20
3.0423500000000003
 30
0.0
 10
-0.63231
 20
3.0423500000000003
 30
0.0
 10
-0.63231
 20
3.0423500000000003
 30
0.0
 10
-0.8532900000000001
 20
3.0855300000000003
 30
0.0
 10
-1.13015
 20
3.1363300000000001
 30
0.0
 10
-1.2850900000000001
 20
3.7789500000000005
 30
0.0
 10
-1.2850900000000001
 20
3.7789500000000005
 30
0.0
 10
-1.2850900000000001
 20
3.7840300000000004
 30
0.0
 10
-1.2876300000000001
 20
3.7865700000000002
 30
0.0
 10
-1.29779
 20
3.7840300000000004
 30
0.0
 10
-1.29779
 20
3.7840300000000004
 30
0.0
 10
-1.54417
 20
3.6976700000000005
 30
0.0
 10
-1.8972300000000002
 20
4.4342700000000006
 30
0.0
 10
-1.9861300000000002
 20
4.6349300000000007
 30
0.0
 10
-1.9861300000000002
 20
4.6349300000000007
 30
0.0
 10
-1.9912100000000001
 20
4.64255
 30
0.0
 10
-2.0039100000000003
 20
4.6374700000000004
 30
0.0
 10
-2.0039100000000003
 20
4.6298500000000002
 30
0.0
 10
-2.0039100000000003
 20
4.6298500000000002
 30
0.0
 10
-1.9607300000000001
 20
4.1193100000000005
 30
0.0
 10
-1.9531100000000001
 20
3.3369900000000001
 30
0.0
 10
-2.1359900000000001
 20
2.9432900000000002
 30
0.0
 10
-2.1359900000000001
 20
2.9432900000000002
 30
0.0
 10
-2.1359900000000001
 20
2.9356700000000004
 30
0.0
 10
-2.1258300000000001
 20
2.9280500000000003
 30
0.0
 10
-2.1182100000000004
 20
2.9356700000000004
 30
0.0
 10
-2.1182100000000004
 20
2.9356700000000004
 30
0.0
 10
-1.9429500000000002
 20
3.0626700000000002
 30
0.0
 10
-1.8032500000000002
 20
3.3827100000000003
 30
0.0
 10
-1.7651500000000002
 20
3.6849700000000003
 30
0.0
 10
-1.7651500000000002
 20
3.6849700000000003
 30
0.0
 10
-1.7651500000000002
 20
3.6925900000000005
 30
0.0
 10
-1.75753
 20
3.6925900000000005
 30
0.0
 10
-1.7524500000000001
 20
3.6900500000000003
 30
0.0
 10
-1.7524500000000001
 20
3.6900500000000003
 30
0.0
 10
-1.6660900000000001
 20
3.5706700000000002
 30
0.0
 10
-1.2241300000000002
 20
2.9661500000000003
 30
0.0
 10
-0.63231
 20
3.0245700000000002
 30
0.0
  0
SPLINE
  5
35
100
AcDbEntity
  8
Ebene 1
 62
     1
100
AcDbSpline
210
0.0
220
0.0
230
1.0
 70
     1
 71
     3
 72
    52
 73
    48
 74
     0
 42
0.0000000001
 43
0.0000000001
 40
0.0
 40
0.0
 40
0.0
 40
0.0
 40
0.0833333333333333
 40
0.0833333333333333
 40
0.0833333333333333
 40
0.0833333333333333
 40
0.1666666666666667
 40
0.1666666666666667
 40
0.1666666666666667
 40
0.1666666666666667
 40
0.25
 40
0.25
 40
0.25
 40
0.25
 40
0.3333333333333333
 40
0.3333333333333333
 40
0.3333333333333333
 40
0.3333333333333333
 40
0.4166666666666666
 40
0.4166666666666666
 40
0.4166666666666666
 40
0.4166666666666666
 40
0.4999999999999999
 40
0.4999999999999999
 40
0.4999999999999999
 40
0.4999999999999999
 40
0.5833333333333333
 40
0.5833333333333333
 40
0.5833333333333333
 40
0.5833333333333333
 40
0.6666666666666666
 40
0.6666666666666666
 40
0.6666666666666666
 40
0.6666666666666666
 40
0.75
 40
0.75
 40
0.75
 40
0.75
 40
0.8333333333333334
 40
0.8333333333333334
 40
0.8333333333333334
 40
0.8333333333333334
 40
0.9166666666666667
 40
0.9166666666666667
 40
0.9166666666666667
 40
0.9166666666666667
 40
1.0
 40
1.0
 40
1.0
 40
1.0
 10
-3.3196300000000001
 20
2.3184500000000003
 30
0.0
 10
-3.3145500000000001
 20
2.3184500000000003
 30
0.0
 10
-3.3094700000000001
 20
2.3184500000000003
 30
0.0
 10
-3.3094700000000001
 20
2.3184500000000003
 30
0.0
 10
-3.3094700000000001
 20
2.3184500000000003
 30
0.0
 10
-3.3069300000000004
 20
2.3184500000000003
 30
0.0
 10
-3.3069300000000004
 20
2.3184500000000003
 30
0.0
 10
-3.3018500000000004
 20
2.3235300000000003
 30
0.0
 10
-3.3018500000000004
 20
2.3235300000000003
 30
0.0
 10
-3.3018500000000004
 20
2.3260700000000001
 30
0.0
 10
-3.3018500000000004
 20
2.3311500000000001
 30
0.0
 10
-3.3069300000000004
 20
2.33623
 30
0.0
 10
-3.3069300000000004
 20
2.33623
 30
0.0
 10
-3.9622500000000005
 20
2.7731100000000004
 30
0.0
 10
-4.0638500000000004
 20
3.9288100000000004
 30
0.0
 10
-4.09687
 20
4.20059
 30
0.0
 10
-4.09687
 20
4.20059
 30
0.0
 10
-4.09687
 20
4.2082100000000002
 30
0.0
 10
-4.1095700000000006
 20
4.2132900000000006
 30
0.0
 10
-4.1146500000000001
 20
4.20059
 30
0.0
 10
-4.1146500000000001
 20
4.20059
 30
0.0
 10
-4.18323
 20
3.9821500000000003
 30
0.0
 10
-4.5159700000000003
 20
3.1795100000000001
 30
0.0
 10
-5.0519100000000003
 20
3.0804500000000004
 30
0.0
 10
-5.0519100000000003
 20
3.0804500000000004
 30
0.0
 10
-5.0595300000000005
 20
3.0804500000000004
 30
0.0
 10
-5.0595300000000005
 20
3.0626700000000002
 30
0.0
 10
-5.0468300000000008
 20
3.0626700000000002
 30
0.0
 10
-5.0468300000000008
 20
3.0626700000000002
 30
0.0
 10
-4.90205
 20
3.0474300000000003
 30
0.0
 10
-4.5362900000000002
 20
3.0372700000000004
 30
0.0
 10
-4.3229300000000004
 20
3.2734900000000002
 30
0.0
 10
-4.3229300000000004
 20
3.2734900000000002
 30
0.0
 10
-4.3203900000000006
 20
3.2760300000000004
 30
0.0
 10
-4.3102300000000007
 20
3.2760300000000004
 30
0.0
 10
-4.3102300000000007
 20
3.2734900000000002
 30
0.0
 10
-4.3102300000000007
 20
3.2734900000000002
 30
0.0
 10
-4.2670500000000002
 20
3.2430100000000004
 30
0.0
 10
-4.0333700000000006
 20
3.05505
 30
0.0
 10
-4.1578300000000006
 20
2.8975700000000004
 30
0.0
 10
-4.1578300000000006
 20
2.8975700000000004
 30
0.0
 10
-4.1578300000000006
 20
2.8924900000000004
 30
0.0
 10
-4.1578300000000006
 20
2.8899500000000002
 30
0.0
 10
-4.1578300000000006
 20
2.8848700000000003
 30
0.0
 10
-4.1578300000000006
 20
2.8848700000000003
 30
0.0
 10
-4.0257500000000004
 20
2.63341
 30
0.0
 10
-3.5304500000000001
 20
2.4048100000000003
 30
0.0
 10
-3.3196300000000001
 20
2.3184500000000003
 30
0.0
  0
SPLINE
  5
36
100
AcDbEntity
  8
Ebene 1
 62
     1
100
AcDbSpline
210
0.0
220
0.0
230
1.0
 70
     1
 71
     3
 72
    36
 73
    32
 74
     0
 42
0.0000000001
 43
0.0000000001
 40
0.0
 40
0.0
 40
0.0
 40
0.0
 40
0.125
 40
0.125
 40
0.125
 40
0.125
 40
0.25
 40
0.25
 40
0.25
 40
0.25
 40
0.375
 40
0.375
 40
0.375
 40
0.375
 40
0.5
 40
0.5
 40
0.5
 40
0.5
 40
0.625
 40
0.625
 40
0.625
 40
0.625
 40
0.75
 40
0.75
 40
0.75
 40
0.75
 40
0.875
 40
0.875
 40
0.875
 40
0.875
 40
1.0
 40
1.0
 40
1.0
 40
1.0
 10
-4.2264100000000004
 20
5.6128300000000007
 30
0.0
 10
-4.1756100000000007
 20
5.4096300000000008
 30
0.0
 10
-4.1629100000000001
 20
4.1701100000000002
 30
0.0
 10
-5.1662100000000004
 20
3.6392500000000001
 30
0.0
 10
-5.1662100000000004
 20
3.6392500000000001
 30
0.0
 10
-5.1712900000000008
 20
3.6341700000000001
 30
0.0
 10
-5.1839900000000005
 20
3.6417900000000003
 30
0.0
 10
-5.1738300000000006
 20
3.6519500000000003
 30
0.0
 10
-5.1738300000000006
 20
3.6519500000000003
 30
0.0
 10
-4.9960300000000002
 20
3.9186500000000004
 30
0.0
 10
-4.7572700000000001
 20
4.2463100000000003
 30
0.0
 10
-4.78775
 20
4.6298500000000002
 30
0.0
 10
-4.78775
 20
4.6298500000000002
 30
0.0
 10
-4.78775
 20
4.6349300000000007
 30
0.0
 10
-4.78775
 20
4.6349300000000007
 30
0.0
 10
-4.7826700000000004
 20
4.6374700000000004
 30
0.0
 10
-4.7826700000000004
 20
4.6374700000000004
 30
0.0
 10
-4.5820100000000004
 20
4.76701
 30
0.0
 10
-4.3407100000000005
 20
5.0895900000000003
 30
0.0
 10
-4.2416499999999999
 20
5.6102900000000009
 30
0.0
 10
-4.2416499999999999
 20
5.6102900000000009
 30
0.0
 10
-4.2416499999999999
 20
5.6128300000000007
 30
0.0
 10
-4.2391100000000002
 20
5.6179100000000002
 30
0.0
 10
-4.2340300000000006
 20
5.6179100000000002
 30
0.0
 10
-4.2340300000000006
 20
5.6179100000000002
 30
0.0
 10
-4.2340300000000006
 20
5.6179100000000002
 30
0.0
 10
-4.2289500000000002
 20
5.6179100000000002
 30
0.0
 10
-4.2264100000000004
 20
5.6179100000000002
 30
0.0
 10
-4.2264100000000004
 20
5.6179100000000002
 30
0.0
 10
-4.2264100000000004
 20
5.6128300000000007
 30
0.0
 10
-4.2264100000000004
 20
5.6128300000000007
 30
0.0
 10
-4.2264100000000004
 20
5.6128300000000007
 30
0.0
  0
SPLINE
  5
37
100
AcDbEntity
  8
Ebene 1
 62
     1
100
AcDbSpline
210
0.0
220
0.0
230
1.0
 70
     1
 71
     3
 72
    20
 73
    16
 74
     0
 42
0.0000000001
 43
0.0000000001
 40
0.0
 40
0.0
 40
0.0
 40
0.0
 40
0.25
 40
0.25
 40
0.25
 40
0.25
 40
0.5
 40
0.5
 40
0.5
 40
0.5
 40
0.75
 40
0.75
 40
0.75
 40
0.75
 40
1.0
 40
1.0
 40
1.0
 40
1.0
 10
-3.8504900000000002
 20
5.9404900000000005
 30
0.0
 10
-3.8606500000000001
 20
5.9379500000000007
 30
0.0
 10
-3.8682700000000003
 20
5.9506500000000004
 30
0.0
 10
-3.8631900000000003
 20
5.9582700000000006
 30
0.0
 10
-3.8631900000000003
 20
5.9582700000000006
 30
0.0
 10
-3.4644100000000004
 20
6.4230900000000002
 30
0.0
 10
-3.2891500000000002
 20
6.8396500000000007
 30
0.0
 10
-3.1621500000000005
 20
7.5381500000000008
 30
0.0
 10
-3.1621500000000005
 20
7.5381500000000008
 30
0.0
 10
-3.15707
 20
7.545770000000001
 30
0.0
 10
-3.1443700000000003
 20
7.545770000000001
 30
0.0
 10
-3.1443700000000003
 20
7.5381500000000008
 30
0.0
 10
-3.1443700000000003
 20
7.5381500000000008
 30
0.0
 10
-3.0681700000000003
 20
7.3374900000000007
 30
0.0
 10
-2.9868900000000003
 20
6.3875300000000008
 30
0.0
 10
-3.8504900000000002
 20
5.9404900000000005
 30
0.0
  0
SPLINE
  5
38
100
AcDbEntity
  8
Ebene 1
 62
     1
100
AcDbSpline
210
0.0
220
0.0
230
1.0
 70
     1
 71
     3
 72
    28
 73
    24
 74
     0
 42
0.0000000001
 43
0.0000000001
 40
0.0
 40
0.0
 40
0.0
 40
0.0
 40
0.1666666666666667
 40
0.1666666666666667
 40
0.1666666666666667
 40
0.1666666666666667
 40
0.3333333333333333
 40
0.3333333333333333
 40
0.3333333333333333
 40
0.3333333333333333
 40
0.5
 40
0.5
 40
0.5
 40
0.5
 40
0.6666666666666666
 40
0.6666666666666666
 40
0.6666666666666666
 40
0.6666666666666666
 40
0.8333333333333333
 40
0.8333333333333333
 40
0.8333333333333333
 40
0.8333333333333333
 40
1.0
 40
1.0
 40
1.0
 40
1.0
 10
-3.1392900000000004
 20
4.0608900000000006
 30
0.0
 10
-3.1316700000000002
 20
4.0507300000000006
 30
0.0
 10
-3.1392900000000004
 20
4.0431100000000004
 30
0.0
 10
-3.1494500000000003
 20
4.0431100000000004
 30
0.0
 10
-3.1494500000000003
 20
4.0431100000000004
 30
0.0
 10
-4.14513
 20
4.2183700000000002
 30
0.0
 10
-3.1519900000000001
 20
5.5747300000000006
 30
0.0
 10
-2.9259300000000001
 20
6.1208300000000007
 30
0.0
 10
-2.9259300000000001
 20
6.1208300000000007
 30
0.0
 10
-2.3874500000000003
 20
7.3501900000000004
 30
0.0
 10
-2.6211300000000004
 20
8.4906500000000005
 30
0.0
 10
-2.69733
 20
8.8310100000000009
 30
0.0
 10
-2.69733
 20
8.8310100000000009
 30
0.0
 10
-2.7024100000000004
 20
8.84117
 30
0.0
 10
-2.6846300000000003
 20
8.8437100000000015
 30
0.0
 10
-2.6795500000000003
 20
8.8360900000000004
 30
0.0
 10
-2.6795500000000003
 20
8.8360900000000004
 30
0.0
 10
-2.3315700000000001
 20
8.0156700000000001
 30
0.0
 10
-2.31887
 20
6.951410000000001
 30
0.0
 10
-2.6770100000000001
 20
6.1411500000000006
 30
0.0
 10
-2.6770100000000001
 20
6.1411500000000006
 30
0.0
 10
-2.9005300000000003
 20
5.6229900000000006
 30
0.0
 10
-3.7819100000000003
 20
4.6120700000000001
 30
0.0
 10
-3.1392900000000004
 20
4.0608900000000006
 30
0.0
  0
SPLINE
  5
39
100
AcDbEntity
  8
Ebene 1
 62
     1
100
AcDbSpline
210
0.0
220
0.0
230
1.0
 70
     1
 71
     3
 72
    48
 73
    44
 74
     0
 42
0.0000000001
 43
0.0000000001
 40
0.0
 40
0.0
 40
0.0
 40
0.0
 40
0.0909090909090909
 40
0.0909090909090909
 40
0.0909090909090909
 40
0.0909090909090909
 40
0.1818181818181818
 40
0.1818181818181818
 40
0.1818181818181818
 40
0.1818181818181818
 40
0.2727272727272727
 40
0.2727272727272727
 40
0.2727272727272727
 40
0.2727272727272727
 40
0.3636363636363637
 40
0.3636363636363637
 40
0.3636363636363637
 40
0.3636363636363637
 40
0.4545454545454546
 40
0.4545454545454546
 40
0.4545454545454546
 40
0.4545454545454546
 40
0.5454545454545455
 40
0.5454545454545455
 40
0.5454545454545455
 40
0.5454545454545455
 40
0.6363636363636365
 40
0.6363636363636365
 40
0.6363636363636365
 40
0.6363636363636365
 40
0.7272727272727274
 40
0.7272727272727274
 40
0.7272727272727274
 40
0.7272727272727274
 40
0.8181818181818183
 40
0.8181818181818183
 40
0.8181818181818183
 40
0.8181818181818183
 40
0.9090909090909093
 40
0.9090909090909093
 40
0.9090909090909093
 40
0.9090909090909093
 40
1.0
 40
1.0
 40
1.0
 40
1.0
 10
-4.0689299999999999
 20
9.8495500000000007
 30
0.0
 10
-4.05877
 20
9.85717
 30
0.0
 10
-4.0638500000000004
 20
9.8622500000000013
 30
0.0
 10
-4.0714700000000006
 20
9.8622500000000013
 30
0.0
 10
-4.0714700000000006
 20
9.8622500000000013
 30
0.0
 10
-4.0714700000000006
 20
9.8622500000000013
 30
0.0
 10
-4.2416499999999999
 20
9.8800300000000014
 30
0.0
 10
-4.2416499999999999
 20
9.8800300000000014
 30
0.0
 10
-4.2416499999999999
 20
9.8800300000000014
 30
0.0
 10
-4.2467300000000003
 20
9.8800300000000014
 30
0.0
 10
-4.2518100000000008
 20
9.8749500000000001
 30
0.0
 10
-4.2518100000000008
 20
9.8698700000000006
 30
0.0
 10
-4.2518100000000008
 20
9.8698700000000006
 30
0.0
 10
-4.2467300000000003
 20
9.7936700000000005
 30
0.0
 10
-4.2010100000000001
 20
9.5422100000000007
 30
0.0
 10
-3.9495500000000003
 20
9.5523700000000016
 30
0.0
 10
-3.9495500000000003
 20
9.5523700000000016
 30
0.0
 10
-3.7158700000000002
 20
9.5422100000000007
 30
0.0
 10
-3.6091900000000003
 20
9.7047700000000017
 30
0.0
 10
-3.5837900000000005
 20
9.7428699999999999
 30
0.0
 10
-3.5837900000000005
 20
9.7428699999999999
 30
0.0
 10
-3.5787100000000005
 20
9.7479500000000012
 30
0.0
 10
-3.5837900000000005
 20
9.7555700000000005
 30
0.0
 10
-3.5863300000000002
 20
9.7555700000000005
 30
0.0
 10
-3.5863300000000002
 20
9.7555700000000005
 30
0.0
 10
-3.5863300000000002
 20
9.7555700000000005
 30
0.0
 10
-3.7285700000000004
 20
9.7987500000000001
 30
0.0
 10
-3.7285700000000004
 20
9.7987500000000001
 30
0.0
 10
-3.7285700000000004
 20
9.7987500000000001
 30
0.0
 10
-3.7311100000000001
 20
9.7987500000000001
 30
0.0
 10
-3.7361900000000001
 20
9.7987500000000001
 30
0.0
 10
-3.7361900000000001
 20
9.7936700000000005
 30
0.0
 10
-3.7361900000000001
 20
9.7936700000000005
 30
0.0
 10
-3.7438100000000003
 20
9.76065
 30
0.0
 10
-3.7742900000000001
 20
9.6793700000000005
 30
0.0
 10
-3.8504900000000002
 20
9.6361900000000009
 30
0.0
 10
-3.8504900000000002
 20
9.6361900000000009
 30
0.0
 10
-3.9393900000000004
 20
9.5803100000000008
 30
0.0
 10
-4.0816300000000005
 20
9.6285700000000016
 30
0.0
 10
-4.10703
 20
9.72255
 30
0.0
 10
-4.10703
 20
9.72255
 30
0.0
 10
-4.1095700000000006
 20
9.7733500000000006
 30
0.0
 10
-4.0892500000000007
 20
9.81907
 30
0.0
 10
-4.0689299999999999
 20
9.8495500000000007
 30
0.0
  0
SPLINE
  5
3A
100
AcDbEntity
  8
Ebene 1
 62
     1
100
AcDbSpline
210
0.0
220
0.0
230
1.0
 70
     1
 71
     3
 72
    28
 73
    24
 74
     0
 42
0.0000000001
 43
0.0000000001
 40
0.0
 40
0.0
 40
0.0
 40
0.0
 40
0.1666666666666667
 40
0.1666666666666667
 40
0.1666666666666667
 40
0.1666666666666667
 40
0.3333333333333333
 40
0.3333333333333333
 40
0.3333333333333333
 40
0.3333333333333333
 40
0.5
 40
0.5
 40
0.5
 40
0.5
 40
0.6666666666666666
 40
0.6666666666666666
 40
0.6666666666666666
 40
0.6666666666666666
 40
0.8333333333333333
 40
0.8333333333333333
 40
0.8333333333333333
 40
0.8333333333333333
 40
1.0
 40
1.0
 40
1.0
 40
1.0
 10
-4.4677100000000003
 20
9.8927300000000002
 30
0.0
 10
-4.4651700000000005
 20
9.89527
 30
0.0
 10
-4.4727900000000007
 20
9.9003500000000013
 30
0.0
 10
-4.4778700000000002
 20
9.9003500000000013
 30
0.0
 10
-4.4778700000000002
 20
9.9003500000000013
 30
0.0
 10
-4.4778700000000002
 20
9.9003500000000013
 30
0.0
 10
-4.6302700000000003
 20
9.89527
 30
0.0
 10
-4.6302700000000003
 20
9.89527
 30
0.0
 10
-4.6302700000000003
 20
9.89527
 30
0.0
 10
-4.6353500000000007
 20
9.89527
 30
0.0
 10
-4.6353500000000007
 20
9.8927300000000002
 30
0.0
 10
-4.6353500000000007
 20
9.8825700000000012
 30
0.0
 10
-4.6353500000000007
 20
9.8825700000000012
 30
0.0
 10
-4.6302700000000003
 20
9.8139900000000004
 30
0.0
 10
-4.6124900000000002
 20
9.4863300000000006
 30
0.0
 10
-4.1095700000000006
 20
9.3466300000000011
 30
0.0
 10
-4.1095700000000006
 20
9.3466300000000011
 30
0.0
 10
-4.1019500000000004
 20
9.3466300000000011
 30
0.0
 10
-4.09687
 20
9.3593299999999999
 30
0.0
 10
-4.10703
 20
9.366950000000001
 30
0.0
 10
-4.10703
 20
9.366950000000001
 30
0.0
 10
-4.2467300000000003
 20
9.4406100000000013
 30
0.0
 10
-4.5312100000000006
 20
9.6311100000000014
 30
0.0
 10
-4.4677100000000003
 20
9.8927300000000002
 30
0.0
  0
SPLINE
  5
3B
100
AcDbEntity
  8
Ebene 1
 62
     1
100
AcDbSpline
210
0.0
220
0.0
230
1.0
 70
     1
 71
     3
 72
    36
 73
    32
 74
     0
 42
0.0000000001
 43
0.0000000001
 40
0.0
 40
0.0
 40
0.0
 40
0.0
 40
0.125
 40
0.125
 40
0.125
 40
0.125
 40
0.25
 40
0.25
 40
0.25
 40
0.25
 40
0.375
 40
0.375
 40
0.375
 40
0.375
 40
0.5
 40
0.5
 40
0.5
 40
0.5
 40
0.625
 40
0.625
 40
0.625
 40
0.625
 40
0.75
 40
0.75
 40
0.75
 40
0.75
 40
0.875
 40
0.875
 40
0.875
 40
0.875
 40
1.0
 40
1.0
 40
1.0
 40
1.0
 10
-5.2271700000000001
 20
9.9587700000000012
 30
0.0
 10
-4.8207700000000004
 20
10.283890000000001
 30
0.0
 10
-4.2340300000000006
 20
10.10355
 30
0.0
 10
-3.5990300000000004
 20
10.08323
 30
0.0
 10
-3.5990300000000004
 20
10.08323
 30
0.0
 10
-2.9259300000000001
 20
10.057830000000001
 30
0.0
 10
-2.0623300000000002
 20
10.10101
 30
0.0
 10
-1.9861300000000002
 20
10.194990000000001
 30
0.0
 10
-1.9861300000000002
 20
10.194990000000001
 30
0.0
 10
-1.9023100000000002
 20
10.304210000000001
 30
0.0
 10
-1.9048500000000002
 20
10.474390000000001
 30
0.0
 10
-1.9150100000000001
 20
10.535350000000001
 30
0.0
 10
-1.9150100000000001
 20
10.535350000000001
 30
0.0
 10
-1.9150100000000001
 20
10.54297
 30
0.0
 10
-1.9226300000000001
 20
10.548050000000002
 30
0.0
 10
-1.9277100000000003
 20
10.537890000000001
 30
0.0
 10
-1.9277100000000003
 20
10.537890000000001
 30
0.0
 10
-2.2248900000000003
 20
10.228010000000001
 30
0.0
 10
-3.4796500000000004
 20
10.156890000000001
 30
0.0
 10
-4.2518100000000008
 20
10.248330000000001
 30
0.0
 10
-4.2518100000000008
 20
10.248330000000001
 30
0.0
 10
-4.8512500000000003
 20
10.321990000000001
 30
0.0
 10
-5.1331900000000008
 20
10.090850000000001
 30
0.0
 10
-5.2398700000000007
 20
9.9714700000000001
 30
0.0
 10
-5.2398700000000007
 20
9.9714700000000001
 30
0.0
 10
-5.2424100000000005
 20
9.9638500000000008
 30
0.0
 10
-5.2424100000000005
 20
9.9638500000000008
 30
0.0
 10
-5.2398700000000007
 20
9.9587700000000012
 30
0.0
 10
-5.2398700000000007
 20
9.9587700000000012
 30
0.0
 10
-5.2347900000000003
 20
9.9562300000000015
 30
0.0
 10
-5.2297100000000007
 20
9.9562300000000015
 30
0.0
 10
-5.2271700000000001
 20
9.9587700000000012
 30
0.0
  0
SPLINE
  5
3C
100
AcDbEntity
  8
Ebene 1
 62
     1
100
AcDbSpline
210
0.0
220
0.0
230
1.0
 70
     1
 71
     3
 72
    24
 73
    20
 74
     0
 42
0.0000000001
 43
0.0000000001
 40
0.0
 40
0.0
 40
0.0
 40
0.0
 40
0.2
 40
0.2
 40
0.2
 40
0.2
 40
0.4
 40
0.4
 40
0.4
 40
0.4
 40
0.6000000000000001
 40
0.6000000000000001
 40
0.6000000000000001
 40
0.6000000000000001
 40
0.8
 40
0.8
 40
0.8
 40
0.8
 40
1.0
 40
1.0
 40
1.0
 40
1.0
 10
-3.9317700000000002
 20
9.8241500000000013
 30
0.0
 10
-3.9622500000000005
 20
9.8139900000000004
 30
0.0
 10
-3.9774900000000004
 20
9.7936700000000005
 30
0.0
 10
-3.9774900000000004
 20
9.7733500000000006
 30
0.0
 10
-3.9774900000000004
 20
9.7733500000000006
 30
0.0
 10
-3.9774900000000004
 20
9.7682700000000011
 30
0.0
 10
-3.9774900000000004
 20
9.7682700000000011
 30
0.0
 10
-3.9774900000000004
 20
9.7682700000000011
 30
0.0
 10
-3.9774900000000004
 20
9.7682700000000011
 30
0.0
 10
-3.9698700000000002
 20
9.7428699999999999
 30
0.0
 10
-3.9495500000000003
 20
9.7301700000000011
 30
0.0
 10
-3.9241500000000005
 20
9.7301700000000011
 30
0.0
 10
-3.9241500000000005
 20
9.7301700000000011
 30
0.0
 10
-3.8936700000000002
 20
9.7377900000000004
 30
0.0
 10
-3.8682700000000003
 20
9.76065
 30
0.0
 10
-3.8758900000000005
 20
9.7860500000000012
 30
0.0
 10
-3.8758900000000005
 20
9.7860500000000012
 30
0.0
 10
-3.8758900000000005
 20
9.8114500000000007
 30
0.0
 10
-3.9063700000000003
 20
9.8241500000000013
 30
0.0
 10
-3.9317700000000002
 20
9.8241500000000013
 30
0.0
  0
SPLINE
  5
3D
100
AcDbEntity
  8
Ebene 1
 62
     1
100
AcDbSpline
210
0.0
220
0.0
230
1.0
 70
     1
 71
     3
 72
    20
 73
    16
 74
     0
 42
0.0000000001
 43
0.0000000001
 40
0.0
 40
0.0
 40
0.0
 40
0.0
 40
0.25
 40
0.25
 40
0.25
 40
0.25
 40
0.5
 40
0.5
 40
0.5
 40
0.5
 40
0.75
 40
0.75
 40
0.75
 40
0.75
 40
1.0
 40
1.0
 40
1.0
 40
1.0
 10
-6.0552100000000006
 20
9.6615900000000003
 30
0.0
 10
-6.0425100000000009
 20
9.6565100000000008
 30
0.0
 10
-6.0425100000000009
 20
9.6438100000000002
 30
0.0
 10
-6.0552100000000006
 20
9.6438100000000002
 30
0.0
 10
-6.0552100000000006
 20
9.6438100000000002
 30
0.0
 10
-6.2939700000000007
 20
9.6031700000000004
 30
0.0
 10
-6.4514500000000004
 20
9.4990300000000012
 30
0.0
 10
-6.6140100000000004
 20
9.3821900000000014
 30
0.0
 10
-6.6140100000000004
 20
9.3821900000000014
 30
0.0
 10
-6.6216300000000006
 20
9.3771100000000001
 30
0.0
 10
-6.6317900000000005
 20
9.3898100000000007
 30
0.0
 10
-6.6267100000000001
 20
9.3974299999999999
 30
0.0
 10
-6.6267100000000001
 20
9.3974299999999999
 30
0.0
 10
-6.5530500000000007
 20
9.4990300000000012
 30
0.0
 10
-6.3625500000000006
 20
9.7301700000000011
 30
0.0
 10
-6.0552100000000006
 20
9.6615900000000003
 30
0.0
  0
SPLINE
  5
3E
100
AcDbEntity
  8
Ebene 1
 62
     1
100
AcDbSpline
210
0.0
220
0.0
230
1.0
 70
     1
 71
     3
 72
    32
 73
    28
 74
     0
 42
0.0000000001
 43
0.0000000001
 40
0.0
 40
0.0
 40
0.0
 40
0.0
 40
0.1428571428571429
 40
0.1428571428571429
 40
0.1428571428571429
 40
0.1428571428571429
 40
0.2857142857142857
 40
0.2857142857142857
 40
0.2857142857142857
 40
0.2857142857142857
 40
0.4285714285714286
 40
0.4285714285714286
 40
0.4285714285714286
 40
0.4285714285714286
 40
0.5714285714285714
 40
0.5714285714285714
 40
0.5714285714285714
 40
0.5714285714285714
 40
0.7142857142857142
 40
0.7142857142857142
 40
0.7142857142857142
 40
0.7142857142857142
 40
0.857142857142857
 40
0.857142857142857
 40
0.857142857142857
 40
0.857142857142857
 40
1.0
 40
1.0
 40
1.0
 40
1.0
 10
-0.6831100000000001
 20
5.6356900000000003
 30
0.0
 10
-0.8532900000000001
 20
5.8439700000000006
 30
0.0
 10
-1.12761
 20
6.3926100000000003
 30
0.0
 10
-1.16825
 20
6.865050000000001
 30
0.0
 10
-1.16825
 20
6.865050000000001
 30
0.0
 10
-1.2292100000000001
 20
7.6448300000000007
 30
0.0
 10
-1.3257300000000001
 20
8.5008100000000013
 30
0.0
 10
-1.7829300000000001
 20
9.3466300000000011
 30
0.0
 10
-1.7829300000000001
 20
9.3466300000000011
 30
0.0
 10
-1.7854700000000001
 20
9.3542500000000004
 30
0.0
 10
-1.79817
 20
9.3517100000000006
 30
0.0
 10
-1.79817
 20
9.3415500000000016
 30
0.0
 10
-1.79817
 20
9.3415500000000016
 30
0.0
 10
-1.7092700000000001
 20
9.0113500000000002
 30
0.0
 10
-1.3612900000000001
 20
7.6651500000000006
 30
0.0
 10
-1.4501900000000001
 20
6.951410000000001
 30
0.0
 10
-1.4501900000000001
 20
6.951410000000001
 30
0.0
 10
-1.54417
 20
6.2554500000000006
 30
0.0
 10
-0.8964700000000001
 20
5.7626900000000001
 30
0.0
 10
-0.69581
 20
5.6229900000000006
 30
0.0
 10
-0.69581
 20
5.6229900000000006
 30
0.0
 10
-0.6881900000000001
 20
5.6229900000000006
 30
0.0
 10
-0.6831100000000001
 20
5.6229900000000006
 30
0.0
 10
-0.6831100000000001
 20
5.6255300000000004
 30
0.0
 10
-0.6831100000000001
 20
5.6255300000000004
 30
0.0
 10
-0.68057
 20
5.6306100000000008
 30
0.0
 10
-0.68057
 20
5.6356900000000003
 30
0.0
 10
-0.6831100000000001
 20
5.6356900000000003
 30
0.0
  0
SPLINE
  5
3F
100
AcDbEntity
  8
Ebene 1
 62
     1
100
AcDbSpline
210
0.0
220
0.0
230
1.0
 70
     1
 71
     3
 72
    40
 73
    36
 74
     0
 42
0.0000000001
 43
0.0000000001
 40
0.0
 40
0.0
 40
0.0
 40
0.0
 40
0.1111111111111111
 40
0.1111111111111111
 40
0.1111111111111111
 40
0.1111111111111111
 40
0.2222222222222222
 40
0.2222222222222222
 40
0.2222222222222222
 40
0.2222222222222222
 40
0.3333333333333333
 40
0.3333333333333333
 40
0.3333333333333333
 40
0.3333333333333333
 40
0.4444444444444444
 40
0.4444444444444444
 40
0.4444444444444444
 40
0.4444444444444444
 40
0.5555555555555556
 40
0.5555555555555556
 40
0.5555555555555556
 40
0.5555555555555556
 40
0.6666666666666667
 40
0.6666666666666667
 40
0.6666666666666667
 40
0.6666666666666667
 40
0.7777777777777779
 40
0.7777777777777779
 40
0.7777777777777779
 40
0.7777777777777779
 40
0.8888888888888891
 40
0.8888888888888891
 40
0.8888888888888891
 40
0.8888888888888891
 40
1.0
 40
1.0
 40
1.0
 40
1.0
 10
-4.1756100000000007
 20
6.4129300000000002
 30
0.0
 10
-3.5152100000000002
 20
6.9234700000000009
 30
0.0
 10
-3.3069300000000004
 20
8.1426700000000007
 30
0.0
 10
-3.4847300000000003
 20
8.0105900000000005
 30
0.0
 10
-3.4847300000000003
 20
8.0105900000000005
 30
0.0
 10
-3.6599900000000005
 20
7.8658100000000006
 30
0.0
 10
-4.0384500000000001
 20
8.3814299999999999
 30
0.0
 10
-4.0841700000000003
 20
8.4474700000000009
 30
0.0
 10
-4.0841700000000003
 20
8.4474700000000009
 30
0.0
 10
-4.0892500000000007
 20
8.4474700000000009
 30
0.0
 10
-4.0892500000000007
 20
8.4474700000000009
 30
0.0
 10
-4.0892500000000007
 20
8.4525500000000005
 30
0.0
 10
-4.0892500000000007
 20
8.4525500000000005
 30
0.0
 10
-4.1527500000000002
 20
8.45763
 30
0.0
 10
-4.8944300000000007
 20
8.53383
 30
0.0
 10
-5.4379900000000001
 20
8.2772900000000007
 30
0.0
 10
-5.4379900000000001
 20
8.2772900000000007
 30
0.0
 10
-5.9155100000000003
 20
8.043610000000001
 30
0.0
 10
-6.5835300000000005
 20
8.1858500000000003
 30
0.0
 10
-6.7587900000000003
 20
8.2264900000000001
 30
0.0
 10
-6.7587900000000003
 20
8.2264900000000001
 30
0.0
 10
-6.7714900000000009
 20
8.2315700000000014
 30
0.0
 10
-6.7765700000000004
 20
8.2188700000000008
 30
0.0
 10
-6.7664100000000005
 20
8.2112500000000015
 30
0.0
 10
-6.7664100000000005
 20
8.2112500000000015
 30
0.0
 10
-6.5657500000000004
 20
8.0944099999999999
 30
0.0
 10
-5.6462700000000003
 20
7.7540500000000003
 30
0.0
 10
-4.6226500000000001
 20
8.0918700000000001
 30
0.0
 10
-4.6226500000000001
 20
8.0918700000000001
 30
0.0
 10
-3.3018500000000004
 20
8.4779499999999999
 30
0.0
 10
-3.9901900000000001
 20
6.7710700000000008
 30
0.0
 10
-4.1908500000000002
 20
6.4230900000000002
 30
0.0
 10
-4.1908500000000002
 20
6.4230900000000002
 30
0.0
 10
-4.1959300000000006
 20
6.4180100000000007
 30
0.0
 10
-4.18323
 20
6.4053100000000009
 30
0.0
 10
-4.1756100000000007
 20
6.4129300000000002
 30
0.0
  0
SPLINE
  5
40
100
AcDbEntity
  8
Ebene 1
 62
     1
100
AcDbSpline
210
0.0
220
0.0
230
1.0
 70
     1
 71
     3
 72
    32
 73
    28
 74
     0
 42
0.0000000001
 43
0.0000000001
 40
0.0
 40
0.0
 40
0.0
 40
0.0
 40
0.1428571428571429
 40
0.1428571428571429
 40
0.1428571428571429
 40
0.1428571428571429
 40
0.2857142857142857
 40
0.2857142857142857
 40
0.2857142857142857
 40
0.2857142857142857
 40
0.4285714285714286
 40
0.4285714285714286
 40
0.4285714285714286
 40
0.4285714285714286
 40
0.5714285714285714
 40
0.5714285714285714
 40
0.5714285714285714
 40
0.5714285714285714
 40
0.7142857142857142
 40
0.7142857142857142
 40
0.7142857142857142
 40
0.7142857142857142
 40
0.857142857142857
 40
0.857142857142857
 40
0.857142857142857
 40
0.857142857142857
 40
1.0
 40
1.0
 40
1.0
 40
1.0
 10
-3.0707100000000001
 20
-1.6109200000000001
 30
0.0
 10
-3.0707100000000001
 20
-1.6007600000000002
 30
0.0
 10
-3.0834100000000002
 20
-1.6007600000000002
 30
0.0
 10
-3.0884900000000002
 20
-1.6109200000000001
 30
0.0
 10
-3.0884900000000002
 20
-1.6109200000000001
 30
0.0
 10
-3.2459700000000002
 20
-2.0706600000000002
 30
0.0
 10
-3.4034500000000003
 20
-3.5083000000000002
 30
0.0
 10
-2.9741900000000001
 20
-4.60304
 30
0.0
 10
-2.9741900000000001
 20
-4.60304
 30
0.0
 10
-2.9691100000000001
 20
-4.6055800000000007
 30
0.0
 10
-2.9564100000000004
 20
-4.6055800000000007
 30
0.0
 10
-2.9564100000000004
 20
-4.5979600000000005
 30
0.0
 10
-2.9564100000000004
 20
-4.5979600000000005
 30
0.0
 10
-2.9487900000000002
 20
-4.4354000000000005
 30
0.0
 10
-2.9106900000000002
 20
-3.8740600000000005
 30
0.0
 10
-2.73543
 20
-3.7038800000000003
 30
0.0
 10
-2.73543
 20
-3.7038800000000003
 30
0.0
 10
-2.73543
 20
-3.6988000000000003
 30
0.0
 10
-2.73543
 20
-3.6962600000000001
 30
0.0
 10
-2.73543
 20
-3.6911800000000001
 30
0.0
 10
-2.73543
 20
-3.6911800000000001
 30
0.0
 10
-2.7862300000000002
 20
-3.6454600000000004
 30
0.0
 10
-3.0935700000000002
 20
-3.3584400000000003
 30
0.0
 10
-3.0300700000000003
 20
-3.0053800000000002
 30
0.0
 10
-3.0300700000000003
 20
-3.0053800000000002
 30
0.0
 10
-2.9411700000000001
 20
-2.5075400000000001
 30
0.0
 10
-3.0453100000000002
 20
-1.7760200000000002
 30
0.0
 10
-3.0707100000000001
 20
-1.6109200000000001
 30
0.0
  0
SPLINE
  5
41
100
AcDbEntity
  8
Ebene 1
 62
     1
100
AcDbSpline
210
0.0
220
0.0
230
1.0
 70
     1
 71
     3
 72
    32
 73
    28
 74
     0
 42
0.0000000001
 43
0.0000000001
 40
0.0
 40
0.0
 40
0.0
 40
0.0
 40
0.1428571428571429
 40
0.1428571428571429
 40
0.1428571428571429
 40
0.1428571428571429
 40
0.2857142857142857
 40
0.2857142857142857
 40
0.2857142857142857
 40
0.2857142857142857
 40
0.4285714285714286
 40
0.4285714285714286
 40
0.4285714285714286
 40
0.4285714285714286
 40
0.5714285714285714
 40
0.5714285714285714
 40
0.5714285714285714
 40
0.5714285714285714
 40
0.7142857142857142
 40
0.7142857142857142
 40
0.7142857142857142
 40
0.7142857142857142
 40
0.857142857142857
 40
0.857142857142857
 40
0.857142857142857
 40
0.857142857142857
 40
1.0
 40
1.0
 40
1.0
 40
1.0
 10
-1.6152900000000001
 20
-2.5888200000000001
 30
0.0
 10
-1.6152900000000001
 20
-2.5837400000000001
 30
0.0
 10
-1.6203700000000001
 20
-2.5812000000000004
 30
0.0
 10
-1.6254500000000001
 20
-2.5812000000000004
 30
0.0
 10
-1.6254500000000001
 20
-2.5812000000000004
 30
0.0
 10
-1.6762500000000002
 20
-2.5685000000000002
 30
0.0
 10
-1.9531100000000001
 20
-2.4872200000000002
 30
0.0
 10
-2.0470900000000003
 20
-2.1798800000000003
 30
0.0
 10
-2.0470900000000003
 20
-2.1798800000000003
 30
0.0
 10
-2.1486900000000002
 20
-1.8598400000000002
 30
0.0
 10
-2.0928100000000001
 20
-2.2433800000000002
 30
0.0
 10
-2.0674100000000002
 20
-2.3195800000000002
 30
0.0
 10
-2.0674100000000002
 20
-2.3195800000000002
 30
0.0
 10
-2.0343900000000001
 20
-2.4313400000000001
 30
0.0
 10
-1.9150100000000001
 20
-2.81488
 30
0.0
 10
-1.9988300000000001
 20
-2.9774400000000001
 30
0.0
 10
-1.9988300000000001
 20
-2.9774400000000001
 30
0.0
 10
-2.0801100000000003
 20
-3.1298400000000002
 30
0.0
 10
-2.0343900000000001
 20
-3.7851600000000003
 30
0.0
 10
-2.02169
 20
-3.9858200000000004
 30
0.0
 10
-2.02169
 20
-3.9858200000000004
 30
0.0
 10
-2.02169
 20
-3.9934400000000005
 30
0.0
 10
-2.0039100000000003
 20
-3.9985200000000005
 30
0.0
 10
-2.0039100000000003
 20
-3.9858200000000004
 30
0.0
 10
-2.0039100000000003
 20
-3.9858200000000004
 30
0.0
 10
-1.8845300000000003
 20
-3.5032200000000002
 30
0.0
 10
-1.6838700000000002
 20
-3.1196800000000002
 30
0.0
 10
-1.6152900000000001
 20
-2.5888200000000001
 30
0.0
  0
SPLINE
  5
42
100
AcDbEntity
  8
Ebene 1
 62
     1
100
AcDbSpline
210
0.0
220
0.0
230
1.0
 70
     1
 71
     3
 72
   164
 73
   160
 74
     0
 42
0.0000000001
 43
0.0000000001
 40
0.0
 40
0.0
 40
0.0
 40
0.0
 40
0.025
 40
0.025
 40
0.025
 40
0.025
 40
0.05
 40
0.05
 40
0.05
 40
0.05
 40
0.075
 40
0.075
 40
0.075
 40
0.075
 40
0.1
 40
0.1
 40
0.1
 40
0.1
 40
0.125
 40
0.125
 40
0.125
 40
0.125
 40
0.15
 40
0.15
 40
0.15
 40
0.15
 40
0.175
 40
0.175
 40
0.175
 40
0.175
 40
0.2
 40
0.2
 40
0.2
 40
0.2
 40
0.225
 40
0.225
 40
0.225
 40
0.225
 40
0.25
 40
0.25
 40
0.25
 40
0.25
 40
0.275
 40
0.275
 40
0.275
 40
0.275
 40
0.3
 40
0.3
 40
0.3
 40
0.3
 40
0.325
 40
0.325
 40
0.325
 40
0.325
 40
0.35
 40
0.35
 40
0.35
 40
0.35
 40
0.3750000000000001
 40
0.3750000000000001
 40
0.3750000000000001
 40
0.3750000000000001
 40
0.4000000000000001
 40
0.4000000000000001
 40
0.4000000000000001
 40
0.4000000000000001
 40
0.4250000000000001
 40
0.4250000000000001
 40
0.4250000000000001
 40
0.4250000000000001
 40
0.4500000000000001
 40
0.4500000000000001
 40
0.4500000000000001
 40
0.4500000000000001
 40
0.4750000000000001
 40
0.4750000000000001
 40
0.4750000000000001
 40
0.4750000000000001
 40
0.5000000000000001
 40
0.5000000000000001
 40
0.5000000000000001
 40
0.5000000000000001
 40
0.5250000000000001
 40
0.5250000000000001
 40
0.5250000000000001
 40
0.5250000000000001
 40
0.5500000000000002
 40
0.5500000000000002
 40
0.5500000000000002
 40
0.5500000000000002
 40
0.5750000000000002
 40
0.5750000000000002
 40
0.5750000000000002
 40
0.5750000000000002
 40
0.6000000000000002
 40
0.6000000000000002
 40
0.6000000000000002
 40
0.6000000000000002
 40
0.6250000000000002
 40
0.6250000000000002
 40
0.6250000000000002
 40
0.6250000000000002
 40
0.6500000000000002
 40
0.6500000000000002
 40
0.6500000000000002
 40
0.6500000000000002
 40
0.6750000000000003
 40
0.6750000000000003
 40
0.6750000000000003
 40
0.6750000000000003
 40
0.7000000000000003
 40
0.7000000000000003
 40
0.7000000000000003
 40
0.7000000000000003
 40
0.7250000000000003
 40
0.7250000000000003
 40
0.7250000000000003
 40
0.7250000000000003
 40
0.7500000000000003
 40
0.7500000000000003
 40
0.7500000000000003
 40
0.7500000000000003
 40
0.7750000000000004
 40
0.7750000000000004
 40
0.7750000000000004
 40
0.7750000000000004
 40
0.8000000000000004
 40
0.8000000000000004
 40
0.8000000000000004
 40
0.8000000000000004
 40
0.8250000000000004
 40
0.8250000000000004
 40
0.8250000000000004
 40
0.8250000000000004
 40
0.8500000000000004
 40
0.8500000000000004
 40
0.8500000000000004
 40
0.8500000000000004
 40
0.8750000000000004
 40
0.8750000000000004
 40
0.8750000000000004
 40
0.8750000000000004
 40
0.9000000000000005
 40
0.9000000000000005
 40
0.9000000000000005
 40
0.9000000000000005
 40
0.9250000000000005
 40
0.9250000000000005
 40
0.9250000000000005
 40
0.9250000000000005
 40
0.9500000000000005
 40
0.9500000000000005
 40
0.9500000000000005
 40
0.9500000000000005
 40
0.9750000000000005
 40
0.9750000000000005
 40
0.9750000000000005
 40
0.9750000000000005
 40
1.0
 40
1.0
 40
1.0
 40
1.0
 10
-3.0199100000000003
 20
-5.8806600000000007
 30
0.0
 10
-3.0249900000000003
 20
-5.8755800000000002
 30
0.0
 10
-3.0300700000000003
 20
-5.8755800000000002
 30
0.0
 10
-3.03261
 20
-5.8806600000000007
 30
0.0
 10
-3.03261
 20
-5.8806600000000007
 30
0.0
 10
-3.0935700000000002
 20
-5.9390800000000006
 30
0.0
 10
-3.5406100000000005
 20
-6.3607200000000006
 30
0.0
 10
-4.3407100000000005
 20
-5.9441600000000001
 30
0.0
 10
-4.3407100000000005
 20
-5.9441600000000001
 30
0.0
 10
-4.3407100000000005
 20
-5.9441600000000001
 30
0.0
 10
-4.3407100000000005
 20
-5.9441600000000001
 30
0.0
 10
-4.3407100000000005
 20
-5.9390800000000006
 30
0.0
 10
-4.3407100000000005
 20
-5.9390800000000006
 30
0.0
 10
-4.8817300000000001
 20
-5.4869600000000007
 30
0.0
 10
-4.9452300000000005
 20
-5.8400200000000009
 30
0.0
 10
-5.1966900000000003
 20
-6.2616600000000009
 30
0.0
 10
-5.1966900000000003
 20
-6.2616600000000009
 30
0.0
 10
-5.41005
 20
-6.6147200000000002
 30
0.0
 10
-5.1281100000000004
 20
-6.7772800000000002
 30
0.0
 10
-5.0417500000000004
 20
-6.8204600000000006
 30
0.0
 10
-5.0417500000000004
 20
-6.8204600000000006
 30
0.0
 10
-5.0341300000000002
 20
-6.8204600000000006
 30
0.0
 10
-5.02651
 20
-6.8128400000000005
 30
0.0
 10
-5.02651
 20
-6.8077600000000009
 30
0.0
 10
-5.02651
 20
-6.8077600000000009
 30
0.0
 10
-5.0773100000000007
 20
-6.7087000000000003
 30
0.0
 10
-5.1281100000000004
 20
-6.3861200000000009
 30
0.0
 10
-4.9909500000000007
 20
-6.3734200000000003
 30
0.0
 10
-4.9909500000000007
 20
-6.3734200000000003
 30
0.0
 10
-4.8715700000000002
 20
-6.3353200000000003
 30
0.0
 10
-4.6353500000000007
 20
-6.6883800000000004
 30
0.0
 10
-4.3965900000000007
 20
-6.5055000000000005
 30
0.0
 10
-4.3965900000000007
 20
-6.5055000000000005
 30
0.0
 10
-4.1578300000000006
 20
-6.3302400000000008
 30
0.0
 10
-3.8606500000000001
 20
-6.3353200000000003
 30
0.0
 10
-3.3729700000000005
 20
-6.3988200000000006
 30
0.0
 10
-3.3729700000000005
 20
-6.3988200000000006
 30
0.0
 10
-3.3653500000000003
 20
-6.3988200000000006
 30
0.0
 10
-3.3653500000000003
 20
-6.4166000000000007
 30
0.0
 10
-3.3729700000000005
 20
-6.4166000000000007
 30
0.0
 10
-3.3729700000000005
 20
-6.4166000000000007
 30
0.0
 10
-3.5736300000000001
 20
-6.4801000000000002
 30
0.0
 10
-4.1095700000000006
 20
-6.6375800000000007
 30
0.0
 10
-4.2137100000000007
 20
-6.8382400000000008
 30
0.0
 10
-4.2137100000000007
 20
-6.8382400000000008
 30
0.0
 10
-4.3864300000000007
 20
-7.0617600000000005
 30
0.0
 10
-4.8055300000000001
 20
-6.883960000000001
 30
0.0
 10
-4.8893500000000003
 20
-7.0617600000000005
 30
0.0
 10
-4.8893500000000003
 20
-7.0617600000000005
 30
0.0
 10
-4.9757100000000003
 20
-7.2497200000000008
 30
0.0
 10
-5.16113
 20
-7.6840600000000006
 30
0.0
 10
-4.9909500000000007
 20
-7.8110600000000003
 30
0.0
 10
-4.9909500000000007
 20
-7.8110600000000003
 30
0.0
 10
-4.8588700000000005
 20
-7.9304400000000008
 30
0.0
 10
-4.6505900000000002
 20
-8.0599800000000013
 30
0.0
 10
-4.5820100000000004
 20
-8.0803000000000011
 30
0.0
 10
-4.5820100000000004
 20
-8.0803000000000011
 30
0.0
 10
-4.5693100000000006
 20
-8.0853800000000007
 30
0.0
 10
-4.56677
 20
-8.0752199999999998
 30
0.0
 10
-4.5693100000000006
 20
-8.0676000000000005
 30
0.0
 10
-4.5693100000000006
 20
-8.0676000000000005
 30
0.0
 10
-4.6302700000000003
 20
-7.9914000000000005
 30
0.0
 10
-4.82585
 20
-7.7831200000000003
 30
0.0
 10
-4.6759900000000005
 20
-7.6535800000000007
 30
0.0
 10
-4.6759900000000005
 20
-7.6535800000000007
 30
0.0
 10
-4.6759900000000005
 20
-7.6535800000000007
 30
0.0
 10
-4.6759900000000005
 20
-7.6535800000000007
 30
0.0
 10
-4.6759900000000005
 20
-7.651040000000001
 30
0.0
 10
-4.6759900000000005
 20
-7.651040000000001
 30
0.0
 10
-4.5362900000000002
 20
-7.4808600000000007
 30
0.0
 10
-4.4473900000000004
 20
-7.8415400000000011
 30
0.0
 10
-4.1756100000000007
 20
-7.5519800000000004
 30
0.0
 10
-4.1756100000000007
 20
-7.5519800000000004
 30
0.0
 10
-3.9114500000000003
 20
-7.2624200000000005
 30
0.0
 10
-3.6168100000000001
 20
-6.586780000000001
 30
0.0
 10
-3.1621500000000005
 20
-6.6248800000000001
 30
0.0
 10
-3.1621500000000005
 20
-6.6248800000000001
 30
0.0
 10
-3.15707
 20
-6.6248800000000001
 30
0.0
 10
-3.1519900000000001
 20
-6.6325000000000003
 30
0.0
 10
-3.15707
 20
-6.6375800000000007
 30
0.0
 10
-3.15707
 20
-6.6375800000000007
 30
0.0
 10
-3.2383500000000001
 20
-6.7442600000000006
 30
0.0
 10
-3.7946100000000005
 20
-7.468160000000001
 30
0.0
 10
-3.8377900000000005
 20
-7.7704200000000005
 30
0.0
 10
-3.8377900000000005
 20
-7.7704200000000005
 30
0.0
 10
-3.8758900000000005
 20
-8.1057000000000006
 30
0.0
 10
-4.10703
 20
-7.7704200000000005
 30
0.0
 10
-4.1400500000000005
 20
-7.9812400000000006
 30
0.0
 10
-4.1400500000000005
 20
-7.9812400000000006
 30
0.0
 10
-4.18323
 20
-8.1946000000000012
 30
0.0
 10
-4.1756100000000007
 20
-8.5324200000000001
 30
0.0
 10
-4.0435300000000005
 20
-8.6111599999999999
 30
0.0
 10
-4.0435300000000005
 20
-8.6111599999999999
 30
0.0
 10
-3.9368500000000002
 20
-8.6721200000000014
 30
0.0
 10
-3.7311100000000001
 20
-8.6467200000000002
 30
0.0
 10
-3.6498300000000001
 20
-8.6340200000000014
 30
0.0
 10
-3.6498300000000001
 20
-8.6340200000000014
 30
0.0
 10
-3.6422100000000004
 20
-8.6289400000000001
 30
0.0
 10
-3.6422100000000004
 20
-8.6213200000000008
 30
0.0
 10
-3.6498300000000001
 20
-8.6162400000000012
 30
0.0
 10
-3.6498300000000001
 20
-8.6162400000000012
 30
0.0
 10
-3.7057100000000003
 20
-8.59084
 30
0.0
 10
-3.8200100000000003
 20
-8.5324200000000001
 30
0.0
 10
-3.8200100000000003
 20
-8.4155800000000003
 30
0.0
 10
-3.8200100000000003
 20
-8.4155800000000003
 30
0.0
 10
-3.8123900000000002
 20
-8.2631800000000002
 30
0.0
 10
-3.4415500000000003
 20
-8.47654
 30
0.0
 10
-3.3729700000000005
 20
-8.1133199999999999
 30
0.0
 10
-3.3729700000000005
 20
-8.1133199999999999
 30
0.0
 10
-3.2967700000000004
 20
-7.7475600000000009
 30
0.0
 10
-3.1875500000000003
 20
-6.8280800000000008
 30
0.0
 10
-2.8344900000000002
 20
-6.7214000000000009
 30
0.0
 10
-2.8344900000000002
 20
-6.7214000000000009
 30
0.0
 10
-2.8294100000000002
 20
-6.7214000000000009
 30
0.0
 10
-2.82179
 20
-6.7214000000000009
 30
0.0
 10
-2.82179
 20
-6.7264800000000005
 30
0.0
 10
-2.82179
 20
-6.7264800000000005
 30
0.0
 10
-2.8090900000000003
 20
-6.7823600000000006
 30
0.0
 10
-2.7227300000000003
 20
-7.0617600000000005
 30
0.0
 10
-2.2833100000000002
 20
-6.883960000000001
 30
0.0
 10
-2.2833100000000002
 20
-6.883960000000001
 30
0.0
 10
-1.7956300000000001
 20
-6.6807600000000003
 30
0.0
 10
-1.0488700000000002
 20
-6.6071000000000009
 30
0.0
 10
-0.8151900000000001
 20
-6.7188600000000003
 30
0.0
 10
-0.8151900000000001
 20
-6.7188600000000003
 30
0.0
 10
-0.6246900000000001
 20
-6.8026800000000005
 30
0.0
 10
-0.69581
 20
-7.0109600000000007
 30
0.0
 10
-0.7313700000000001
 20
-7.0871600000000008
 30
0.0
 10
-0.7313700000000001
 20
-7.0871600000000008
 30
0.0
 10
-0.7339100000000001
 20
-7.0973200000000007
 30
0.0
 10
-0.72121
 20
-7.1049400000000009
 30
0.0
 10
-0.71867
 20
-7.0973200000000007
 30
0.0
 10
-0.71867
 20
-7.0973200000000007
 30
0.0
 10
-0.22845
 20
-6.7264800000000005
 30
0.0
 10
-0.70089
 20
-5.6292000000000009
 30
0.0
 10
-1.2749300000000001
 20
-6.2743600000000006
 30
0.0
 10
-1.2749300000000001
 20
-6.2743600000000006
 30
0.0
 10
-1.2749300000000001
 20
-6.2794400000000001
 30
0.0
 10
-1.2800100000000001
 20
-6.2794400000000001
 30
0.0
 10
-1.2800100000000001
 20
-6.2794400000000001
 30
0.0
 10
-1.2800100000000001
 20
-6.2794400000000001
 30
0.0
 10
-1.4679700000000002
 20
-6.3480200000000009
 30
0.0
 10
-1.6762500000000002
 20
-6.3734200000000003
 30
0.0
 10
-1.8210300000000001
 20
-6.3251600000000003
 30
0.0
 10
-1.8210300000000001
 20
-6.3251600000000003
 30
0.0
 10
-2.0293100000000002
 20
-6.2921400000000007
 30
0.0
 10
-2.1258300000000001
 20
-6.1143400000000003
 30
0.0
 10
-2.15123
 20
-6.0533800000000006
 30
0.0
 10
-2.15123
 20
-6.0533800000000006
 30
0.0
 10
-2.1563100000000004
 20
-6.0508400000000009
 30
0.0
 10
-2.1613900000000004
 20
-6.0457600000000005
 30
0.0
 10
-2.1639300000000001
 20
-6.0508400000000009
 30
0.0
 10
-2.1639300000000001
 20
-6.0508400000000009
 30
0.0
 10
-2.2071100000000001
 20
-6.0787800000000001
 30
0.0
 10
-2.39507
 20
-6.1956200000000008
 30
0.0
 10
-2.57287
 20
-6.1143400000000003
 30
0.0
 10
-2.57287
 20
-6.1143400000000003
 30
0.0
 10
-2.73543
 20
-6.0762400000000003
 30
0.0
 10
-2.9564100000000004
 20
-5.9441600000000001
 30
0.0
 10
-3.0199100000000003
 20
-5.8806600000000007
 30
0.0
  0
SPLINE
  5
43
100
AcDbEntity
  8
Ebene 1
 62
     1
100
AcDbSpline
210
0.0
220
0.0
230
1.0
 70
     1
 71
     3
 72
    28
 73
    24
 74
     0
 42
0.0000000001
 43
0.0000000001
 40
0.0
 40
0.0
 40
0.0
 40
0.0
 40
0.1666666666666667
 40
0.1666666666666667
 40
0.1666666666666667
 40
0.1666666666666667
 40
0.3333333333333333
 40
0.3333333333333333
 40
0.3333333333333333
 40
0.3333333333333333
 40
0.5
 40
0.5
 40
0.5
 40
0.5
 40
0.6666666666666666
 40
0.6666666666666666
 40
0.6666666666666666
 40
0.6666666666666666
 40
0.8333333333333333
 40
0.8333333333333333
 40
0.8333333333333333
 40
0.8333333333333333
 40
1.0
 40
1.0
 40
1.0
 40
1.0
 10
-4.9782500000000001
 20
-6.1270400000000009
 30
0.0
 10
-4.8893500000000003
 20
-6.2159400000000007
 30
0.0
 10
-4.7699700000000007
 20
-6.2489600000000003
 30
0.0
 10
-4.6505900000000002
 20
-6.2286400000000004
 30
0.0
 10
-4.6505900000000002
 20
-6.2286400000000004
 30
0.0
 10
-4.6378900000000005
 20
-6.2286400000000004
 30
0.0
 10
-4.64297
 20
-6.2108600000000003
 30
0.0
 10
-4.6505900000000002
 20
-6.2108600000000003
 30
0.0
 10
-4.6505900000000002
 20
-6.2108600000000003
 30
0.0
 10
-4.8461700000000008
 20
-6.2032400000000001
 30
0.0
 10
-4.8969700000000005
 20
-6.0889400000000009
 30
0.0
 10
-4.9147500000000006
 20
-6.0330600000000008
 30
0.0
 10
-4.9147500000000006
 20
-6.0330600000000008
 30
0.0
 10
-4.9147500000000006
 20
-6.0254400000000006
 30
0.0
 10
-4.9249100000000006
 20
-6.0254400000000006
 30
0.0
 10
-4.9325300000000007
 20
-6.0330600000000008
 30
0.0
 10
-4.9325300000000007
 20
-6.0330600000000008
 30
0.0
 10
-4.9325300000000007
 20
-6.0330600000000008
 30
0.0
 10
-4.9782500000000001
 20
-6.1168800000000001
 30
0.0
 10
-4.9782500000000001
 20
-6.1168800000000001
 30
0.0
 10
-4.9782500000000001
 20
-6.1168800000000001
 30
0.0
 10
-4.9782500000000001
 20
-6.1219600000000005
 30
0.0
 10
-4.9782500000000001
 20
-6.1219600000000005
 30
0.0
 10
-4.9782500000000001
 20
-6.1270400000000009
 30
0.0
  0
SPLINE
  5
44
100
AcDbEntity
  8
Ebene 1
 62
     1
100
AcDbSpline
210
0.0
220
0.0
230
1.0
 70
     1
 71
     3
 72
    28
 73
    24
 74
     0
 42
0.0000000001
 43
0.0000000001
 40
0.0
 40
0.0
 40
0.0
 40
0.0
 40
0.1666666666666667
 40
0.1666666666666667
 40
0.1666666666666667
 40
0.1666666666666667
 40
0.3333333333333333
 40
0.3333333333333333
 40
0.3333333333333333
 40
0.3333333333333333
 40
0.5
 40
0.5
 40
0.5
 40
0.5
 40
0.6666666666666666
 40
0.6666666666666666
 40
0.6666666666666666
 40
0.6666666666666666
 40
0.8333333333333333
 40
0.8333333333333333
 40
0.8333333333333333
 40
0.8333333333333333
 40
1.0
 40
1.0
 40
1.0
 40
1.0
 10
-4.7826700000000004
 20
-7.2548000000000004
 30
0.0
 10
-4.7191700000000001
 20
-7.3386200000000006
 30
0.0
 10
-4.6175700000000006
 20
-7.3640200000000009
 30
0.0
 10
-4.5235900000000004
 20
-7.3259200000000009
 30
0.0
 10
-4.5235900000000004
 20
-7.3259200000000009
 30
0.0
 10
-4.5159700000000003
 20
-7.3233800000000002
 30
0.0
 10
-4.5159700000000003
 20
-7.305600000000001
 30
0.0
 10
-4.52867
 20
-7.3106800000000005
 30
0.0
 10
-4.52867
 20
-7.3106800000000005
 30
0.0
 10
-4.6759900000000005
 20
-7.3233800000000002
 30
0.0
 10
-4.7191700000000001
 20
-7.2167000000000003
 30
0.0
 10
-4.7318700000000007
 20
-7.1659000000000006
 30
0.0
 10
-4.7318700000000007
 20
-7.1659000000000006
 30
0.0
 10
-4.7369500000000002
 20
-7.1532000000000009
 30
0.0
 10
-4.7496500000000008
 20
-7.1532000000000009
 30
0.0
 10
-4.7496500000000008
 20
-7.1608200000000002
 30
0.0
 10
-4.7496500000000008
 20
-7.1608200000000002
 30
0.0
 10
-4.7496500000000008
 20
-7.1608200000000002
 30
0.0
 10
-4.7826700000000004
 20
-7.2497200000000008
 30
0.0
 10
-4.7826700000000004
 20
-7.2497200000000008
 30
0.0
 10
-4.7826700000000004
 20
-7.2497200000000008
 30
0.0
 10
-4.78775
 20
-7.2497200000000008
 30
0.0
 10
-4.78775
 20
-7.2548000000000004
 30
0.0
 10
-4.7826700000000004
 20
-7.2548000000000004
 30
0.0
  0
SPLINE
  5
45
100
AcDbEntity
  8
Ebene 1
 62
     1
100
AcDbSpline
210
0.0
220
0.0
230
1.0
 70
     1
 71
     3
 72
    28
 73
    24
 74
     0
 42
0.0000000001
 43
0.0000000001
 40
0.0
 40
0.0
 40
0.0
 40
0.0
 40
0.1666666666666667
 40
0.1666666666666667
 40
0.1666666666666667
 40
0.1666666666666667
 40
0.3333333333333333
 40
0.3333333333333333
 40
0.3333333333333333
 40
0.3333333333333333
 40
0.5
 40
0.5
 40
0.5
 40
0.5
 40
0.6666666666666666
 40
0.6666666666666666
 40
0.6666666666666666
 40
0.6666666666666666
 40
0.8333333333333333
 40
0.8333333333333333
 40
0.8333333333333333
 40
0.8333333333333333
 40
1.0
 40
1.0
 40
1.0
 40
1.0
 10
-3.9266900000000002
 20
-8.1107800000000001
 30
0.0
 10
-3.8758900000000005
 20
-8.1946000000000012
 30
0.0
 10
-3.7946100000000005
 20
-8.2200000000000006
 30
0.0
 10
-3.7184100000000004
 20
-8.1869800000000001
 30
0.0
 10
-3.7184100000000004
 20
-8.1869800000000001
 30
0.0
 10
-3.7107900000000003
 20
-8.1819000000000006
 30
0.0
 10
-3.7107900000000003
 20
-8.1692
 30
0.0
 10
-3.7234900000000004
 20
-8.1692
 30
0.0
 10
-3.7234900000000004
 20
-8.1692
 30
0.0
 10
-3.8327100000000005
 20
-8.1742800000000013
 30
0.0
 10
-3.8758900000000005
 20
-8.0853800000000007
 30
0.0
 10
-3.8936700000000002
 20
-8.0345800000000001
 30
0.0
 10
-3.8936700000000002
 20
-8.0345800000000001
 30
0.0
 10
-3.8936700000000002
 20
-8.0218800000000012
 30
0.0
 10
-3.9063700000000003
 20
-8.0218800000000012
 30
0.0
 10
-3.9114500000000003
 20
-8.0345800000000001
 30
0.0
 10
-3.9114500000000003
 20
-8.0345800000000001
 30
0.0
 10
-3.9114500000000003
 20
-8.0345800000000001
 30
0.0
 10
-3.9317700000000002
 20
-8.1057000000000006
 30
0.0
 10
-3.9317700000000002
 20
-8.1057000000000006
 30
0.0
 10
-3.9317700000000002
 20
-8.1057000000000006
 30
0.0
 10
-3.9317700000000002
 20
-8.1057000000000006
 30
0.0
 10
-3.9317700000000002
 20
-8.1107800000000001
 30
0.0
 10
-3.9266900000000002
 20
-8.1107800000000001
 30
0.0
  0
SPLINE
  5
46
100
AcDbEntity
  8
Ebene 1
 62
     1
100
AcDbSpline
210
0.0
220
0.0
230
1.0
 70
     1
 71
     3
 72
    20
 73
    16
 74
     0
 42
0.0000000001
 43
0.0000000001
 40
0.0
 40
0.0
 40
0.0
 40
0.0
 40
0.25
 40
0.25
 40
0.25
 40
0.25
 40
0.5
 40
0.5
 40
0.5
 40
0.5
 40
0.75
 40
0.75
 40
0.75
 40
0.75
 40
1.0
 40
1.0
 40
1.0
 40
1.0
 10
-0.6272300000000001
 20
-6.4978800000000003
 30
0.0
 10
-0.6272300000000001
 20
-6.4928000000000008
 30
0.0
 10
-0.6272300000000001
 20
-6.4877200000000004
 30
0.0
 10
-0.6272300000000001
 20
-6.4877200000000004
 30
0.0
 10
-0.6272300000000001
 20
-6.4877200000000004
 30
0.0
 10
-0.65771
 20
-6.2464200000000005
 30
0.0
 10
-0.6500900000000001
 20
-6.5512200000000007
 30
0.0
 10
-0.8380500000000001
 20
-6.5182000000000002
 30
0.0
 10
-0.8380500000000001
 20
-6.5182000000000002
 30
0.0
 10
-0.84567
 20
-6.5182000000000002
 30
0.0
 10
-0.8507500000000001
 20
-6.5309000000000008
 30
0.0
 10
-0.8405900000000001
 20
-6.5359800000000003
 30
0.0
 10
-0.8405900000000001
 20
-6.5359800000000003
 30
0.0
 10
-0.7694700000000001
 20
-6.5817000000000005
 30
0.0
 10
-0.6881900000000001
 20
-6.5639200000000004
 30
0.0
 10
-0.6272300000000001
 20
-6.4978800000000003
 30
0.0
  0
SPLINE
  5
47
100
AcDbEntity
  8
Ebene 1
 62
     1
100
AcDbSpline
210
0.0
220
0.0
230
1.0
 70
     1
 71
     3
 72
    44
 73
    40
 74
     0
 42
0.0000000001
 43
0.0000000001
 40
0.0
 40
0.0
 40
0.0
 40
0.0
 40
0.1
 40
0.1
 40
0.1
 40
0.1
 40
0.2
 40
0.2
 40
0.2
 40
0.2
 40
0.3
 40
0.3
 40
0.3
 40
0.3
 40
0.4
 40
0.4
 40
0.4
 40
0.4
 40
0.5
 40
0.5
 40
0.5
 40
0.5
 40
0.6
 40
0.6
 40
0.6
 40
0.6
 40
0.7
 40
0.7
 40
0.7
 40
0.7
 40
0.7999999999999999
 40
0.7999999999999999
 40
0.7999999999999999
 40
0.7999999999999999
 40
0.8999999999999999
 40
0.8999999999999999
 40
0.8999999999999999
 40
0.8999999999999999
 40
1.0
 40
1.0
 40
1.0
 40
1.0
 10
-3.2713700000000001
 20
-6.2032400000000001
 30
0.0
 10
-3.11389
 20
-6.3099200000000009
 30
0.0
 10
-3.2332700000000001
 20
-6.4572400000000005
 30
0.0
 10
-3.11389
 20
-6.4496200000000004
 30
0.0
 10
-3.11389
 20
-6.4496200000000004
 30
0.0
 10
-2.9945100000000004
 20
-6.4369200000000006
 30
0.0
 10
-2.9741900000000001
 20
-6.4978800000000003
 30
0.0
 10
-2.8243300000000002
 20
-6.4445400000000008
 30
0.0
 10
-2.8243300000000002
 20
-6.4445400000000008
 30
0.0
 10
-2.6770100000000001
 20
-6.3912000000000004
 30
0.0
 10
-2.6211300000000004
 20
-6.5766200000000001
 30
0.0
 10
-2.4534900000000004
 20
-6.6502800000000004
 30
0.0
 10
-2.4534900000000004
 20
-6.6502800000000004
 30
0.0
 10
-2.3264900000000002
 20
-6.7061600000000006
 30
0.0
 10
-2.05979
 20
-6.5512200000000007
 30
0.0
 10
-1.9734300000000002
 20
-6.4928000000000008
 30
0.0
 10
-1.9734300000000002
 20
-6.4928000000000008
 30
0.0
 10
-1.9658100000000001
 20
-6.4877200000000004
 30
0.0
 10
-1.9683500000000003
 20
-6.4801000000000002
 30
0.0
 10
-1.9785100000000002
 20
-6.4801000000000002
 30
0.0
 10
-1.9785100000000002
 20
-6.4801000000000002
 30
0.0
 10
-2.2579100000000003
 20
-6.4877200000000004
 30
0.0
 10
-2.3010900000000003
 20
-6.3531000000000004
 30
0.0
 10
-2.30871
 20
-6.2870600000000003
 30
0.0
 10
-2.30871
 20
-6.2870600000000003
 30
0.0
 10
-2.31379
 20
-6.2845200000000006
 30
0.0
 10
-2.31887
 20
-6.2794400000000001
 30
0.0
 10
-2.3239500000000004
 20
-6.2794400000000001
 30
0.0
 10
-2.3239500000000004
 20
-6.2794400000000001
 30
0.0
 10
-2.3747500000000001
 20
-6.2845200000000006
 30
0.0
 10
-2.6414500000000003
 20
-6.3099200000000009
 30
0.0
 10
-2.7862300000000002
 20
-6.3099200000000009
 30
0.0
 10
-2.7862300000000002
 20
-6.3099200000000009
 30
0.0
 10
-2.9437100000000003
 20
-6.3099200000000009
 30
0.0
 10
-2.9741900000000001
 20
-6.0203600000000002
 30
0.0
 10
-3.0681700000000003
 20
-6.1397400000000006
 30
0.0
 10
-3.0681700000000003
 20
-6.1397400000000006
 30
0.0
 10
-3.1519900000000001
 20
-6.2591200000000002
 30
0.0
 10
-3.4288500000000002
 20
-6.0889400000000009
 30
0.0
 10
-3.2713700000000001
 20
-6.2032400000000001
 30
0.0
  0
SPLINE
  5
48
100
AcDbEntity
  8
Ebene 1
 62
     1
100
AcDbSpline
210
0.0
220
0.0
230
1.0
 70
     1
 71
     3
 72
    36
 73
    32
 74
     0
 42
0.0000000001
 43
0.0000000001
 40
0.0
 40
0.0
 40
0.0
 40
0.0
 40
0.125
 40
0.125
 40
0.125
 40
0.125
 40
0.25
 40
0.25
 40
0.25
 40
0.25
 40
0.375
 40
0.375
 40
0.375
 40
0.375
 40
0.5
 40
0.5
 40
0.5
 40
0.5
 40
0.625
 40
0.625
 40
0.625
 40
0.625
 40
0.75
 40
0.75
 40
0.75
 40
0.75
 40
0.875
 40
0.875
 40
0.875
 40
0.875
 40
1.0
 40
1.0
 40
1.0
 40
1.0
 10
-2.5322300000000002
 20
-2.6142200000000004
 30
0.0
 10
-2.5830300000000004
 20
-2.6828000000000003
 30
0.0
 10
-2.7481300000000002
 20
-2.9850600000000003
 30
0.0
 10
-2.5093700000000001
 20
-3.6962600000000001
 30
0.0
 10
-2.5093700000000001
 20
-3.6962600000000001
 30
0.0
 10
-2.2502900000000001
 20
-4.4658800000000003
 30
0.0
 10
-2.4890500000000002
 20
-4.6538400000000006
 30
0.0
 10
-2.5322300000000002
 20
-4.6741600000000005
 30
0.0
 10
-2.5322300000000002
 20
-4.6741600000000005
 30
0.0
 10
-2.5322300000000002
 20
-4.6792400000000001
 30
0.0
 10
-2.5322300000000002
 20
-4.6792400000000001
 30
0.0
 10
-2.5322300000000002
 20
-4.6843200000000005
 30
0.0
 10
-2.5322300000000002
 20
-4.6843200000000005
 30
0.0
 10
-2.4661900000000001
 20
-5.1440600000000005
 30
0.0
 10
-2.9411700000000001
 20
-5.5352200000000007
 30
0.0
 10
-2.7608300000000003
 20
-5.7612800000000002
 30
0.0
 10
-2.7608300000000003
 20
-5.7612800000000002
 30
0.0
 10
-2.5855700000000001
 20
-5.9568600000000007
 30
0.0
 10
-2.35697
 20
-5.8374800000000002
 30
0.0
 10
-2.3264900000000002
 20
-5.8146200000000006
 30
0.0
 10
-2.3264900000000002
 20
-5.8146200000000006
 30
0.0
 10
-2.3239500000000004
 20
-5.8146200000000006
 30
0.0
 10
-2.3239500000000004
 20
-5.8146200000000006
 30
0.0
 10
-2.3239500000000004
 20
-5.8120800000000008
 30
0.0
 10
-2.3239500000000004
 20
-5.8120800000000008
 30
0.0
 10
-2.01153
 20
-4.2880800000000008
 30
0.0
 10
-2.4712700000000001
 20
-2.8174200000000003
 30
0.0
 10
-2.5144500000000001
 20
-2.6193000000000004
 30
0.0
 10
-2.5144500000000001
 20
-2.6193000000000004
 30
0.0
 10
-2.5144500000000001
 20
-2.60914
 30
0.0
 10
-2.5271500000000002
 20
-2.6066000000000003
 30
0.0
 10
-2.5322300000000002
 20
-2.6142200000000004
 30
0.0
  0
ENDSEC
  0
SECTION
  2
OBJECTS
  0
DICTIONARY
  5
19
100
AcDbDictionary
280
     0
281
     1
  3
ACAD_GROUP
350
1A
  3
ACAD_MLINESTYLE
350
1B
  3
ACAD_LAYOUT
350
1E
  3
ACAD_PLOTSETTINGS
350
22
  3
ACAD_PLOTSTYLENAME
350
1F
  3
ACAD_WIPEOUT_VARS
350
23
  0
DICTIONARY
  5
1A
102
{ACAD_REACTORS
330
19
102
}
100
AcDbDictionary
280
     0
281
     1
  0
DICTIONARY
  5
1B
102
{ACAD_REACTORS
330
19
102
}
100
AcDbDictionary
280
     0
281
     1
  3
Standard
350
1C
  0
MLINESTYLE
  5
1C
102
{ACAD_REACTORS
330
1B
102
}
100
AcDbMlineStyle
  2
Standard
 70
     0
  3

 62
     0
 51
90.0
 52
90.0
 71
     2
 49
0.5
 62
   256
  6
BYLAYER
 49
-0.5
 62
   256
  6
BYLAYER
  0
ACDBDICTIONARYWDFLT
  5
1F
102
{ACAD_REACTORS
330
19
102
}
100
AcDbDictionary
281
     1
  3
Normal
350
1D
100
AcDbDictionaryWithDefault
340
1D
  0
ACDBPLACEHOLDER
  5
1D
102
{ACAD_REACTORS
330
1F
102
}
  0
LAYOUT
  5
20
102
{ACAD_REACTORS
330
1E
102
}
100
AcDbPlotSettings
  1

  2

  4

  6

 40
0.0
 41
0.0
 42
0.0
 43
0.0
 44
0.0
 45
0.0
 46
0.0
 47
0.0
 48
0.0
 49
0.0
140
0.0
141
0.0
142
1.0
143
1.0
 70
  1024
 72
     0
 73
     0
 74
     0
  7

 75
     0
147
1.0
148
0.0
149
0.0
100
AcDbLayout
  1
Model
 70
     0
 71
     0
 10
0.0
 20
0.0
 11
0.0
 21
0.0
 12
0.0
 22
0.0
 32
0.0
 14
0.0
 24
0.0
 34
0.0
 15
0.0
 25
0.0
 35
0.0
146
0.0
 13
0.0
 23
0.0
 33
0.0
 16
0.0
 26
0.0
 36
0.0
 17
0.0
 27
0.0
 37
0.0
 76
     0
330
A
331
0
345
0
346
0
  0
LAYOUT
  5
21
102
{ACAD_REACTORS
330
1E
102
}
100
AcDbPlotSettings
  1

  2

  4

  6

 40
0.0
 41
0.0
 42
0.0
 43
0.0
 44
0.0
 45
0.0
 46
0.0
 47
0.0
 48
0.0
 49
0.0
140
0.0
141
0.0
142
1.0
143
1.0
 70
     0
 72
     0
 73
     0
 74
     0
  7

 75
     0
147
1.0
148
0.0
149
0.0
100
AcDbLayout
  1
Layout1
 70
     0
 71
     0
 10
0.0
 20
0.0
 11
0.0
 21
0.0
 12
0.0
 22
0.0
 32
0.0
 14
0.0
 24
0.0
 34
0.0
 15
0.0
 25
0.0
 35
0.0
146
0.0
 13
0.0
 23
0.0
 33
0.0
 16
0.0
 26
0.0
 36
0.0
 17
0.0
 27
0.0
 37
0.0
 76
     0
330
B
331
0
345
0
346
0
  0
DICTIONARY
  5
1E
102
{ACAD_REACTORS
330
19
102
}
100
AcDbDictionary
280
     0
281
     1
  3
Layout1
350
21
  3
Model
350
20
  0
DICTIONARY
  5
22
102
{ACAD_REACTORS
330
19
102
}
100
AcDbDictionary
280
     0
281
     1
  0
WIPEOUTVARIABLES
  5
23
100
AcDbWipeoutVariables
 70
     1
  0
ENDSEC
  0
EOF
