  0
SECTION
  2
HEADER
  9
$ACADVER
  1
AC1009
  9
$DWGCODEPAGE
  3
ansi_1252
  9
$INSBASE
 10
0.0
 20
0.0
 30
0.0
  9
$EXTMIN
 10
-178.7903211096469
 20
-183.2483081791626
 30
0.0
  9
$EXTMAX
 10
178.7903211096469
 20
183.2483081791626
 30
0.0
  9
$LIMMIN
 10
0.0
 20
0.0
  9
$LIMMAX
 10
12.0
 20
9.0
  9
$ORTHOMODE
 70
     0
  9
$REGENMODE
 70
     1
  9
$FILLMODE
 70
     1
  9
$QTEXTMODE
 70
     0
  9
$MIRRTEXT
 70
     1
  9
$DRAGMODE
 70
     2
  9
$LTSCALE
 40
1.0
  9
$OSMODE
 70
    37
  9
$ATTMODE
 70
     1
  9
$TEXTSIZE
 40
0.2
  9
$TRACEWID
 40
0.05
  9
$TEXTSTYLE
  7
STANDARD
  9
$CLAYER
  8
0
  9
$CELTYPE
  6
BYLAYER
  9
$CECOLOR
 62
   256
  9
$DIMSCALE
 40
1.0
  9
$DIMASZ
 40
0.18
  9
$DIMEXO
 40
0.0625
  9
$DIMDLI
 40
0.38
  9
$DIMRND
 40
0.0
  9
$DIMDLE
 40
0.0
  9
$DIMEXE
 40
0.18
  9
$DIMTP
 40
0.0
  9
$DIMTM
 40
0.0
  9
$DIMTXT
 40
0.18
  9
$DIMCEN
 40
0.09
  9
$DIMTSZ
 40
0.0
  9
$DIMTOL
 70
     0
  9
$DIMLIM
 70
     0
  9
$DIMTIH
 70
     1
  9
$DIMTOH
 70
     1
  9
$DIMSE1
 70
     0
  9
$DIMSE2
 70
     0
  9
$DIMTAD
 70
     0
  9
$DIMZIN
 70
     0
  9
$DIMBLK
  1

  9
$DIMASO
 70
     1
  9
$DIMSHO
 70
     1
  9
$DIMPOST
  1

  9
$DIMAPOST
  1

  9
$DIMALT
 70
     0
  9
$DIMALTD
 70
     2
  9
$DIMALTF
 40
25.4
  9
$DIMLFAC
 40
1.0
  9
$DIMTOFL
 70
     0
  9
$DIMTVP
 40
0.0
  9
$DIMTIX
 70
     0
  9
$DIMSOXD
 70
     0
  9
$DIMSAH
 70
     0
  9
$DIMBLK1
  1

  9
$DIMBLK2
  1

  9
$DIMSTYLE
  2
STANDARD
  9
$DIMCLRD
 70
     0
  9
$DIMCLRE
 70
     0
  9
$DIMCLRT
 70
     0
  9
$DIMTFAC
 40
1.0
  9
$DIMGAP
 40
0.09
  9
$LUNITS
 70
     2
  9
$LUPREC
 70
     4
  9
$SKETCHINC
 40
0.1
  9
$FILLETRAD
 40
0.5
  9
$AUNITS
 70
     0
  9
$AUPREC
 70
     0
  9
$MENU
  1
.
  9
$ELEVATION
 40
0.0
  9
$PELEVATION
 40
0.0
  9
$THICKNESS
 40
0.0
  9
$LIMCHECK
 70
     0
  9
$CHAMFERA
 40
0.0
  9
$CHAMFERB
 40
0.0
  9
$SKPOLY
 70
     0
  9
$TDCREATE
 40
2454910.5
  9
$TDUPDATE
 40
2457498.034434201
  9
$TDINDWG
 40
0.0000000116
  9
$TDUSRTIMER
 40
0.0000000116
  9
$USRTIMER
 70
     1
  9
$ANGBASE
 50
0.0
  9
$ANGDIR
 70
     0
  9
$PDMODE
 70
     0
  9
$PDSIZE
 40
0.0
  9
$PLINEWID
 40
0.0
  9
$COORDS
 70
     1
  9
$SPLFRAME
 70
     0
  9
$SPLINETYPE
 70
     6
  9
$SPLINESEGS
 70
     8
  9
$ATTDIA
 70
     0
  9
$ATTREQ
 70
     1
  9
$HANDLING
 70
     1
  9
$HANDSEED
  5
43B
  9
$SURFTAB1
 70
     6
  9
$SURFTAB2
 70
     6
  9
$SURFTYPE
 70
     6
  9
$SURFU
 70
     6
  9
$SURFV
 70
     6
  9
$UCSNAME
  2

  9
$UCSORG
 10
0.0
 20
0.0
 30
0.0
  9
$UCSXDIR
 10
1.0
 20
0.0
 30
0.0
  9
$UCSYDIR
 10
0.0
 20
1.0
 30
0.0
  9
$PUCSNAME
  2

  9
$PUCSORG
 10
0.0
 20
0.0
 30
0.0
  9
$PUCSXDIR
 10
1.0
 20
0.0
 30
0.0
  9
$PUCSYDIR
 10
0.0
 20
1.0
 30
0.0
  9
$USERI1
 70
     0
  9
$USERI2
 70
     0
  9
$USERI3
 70
     0
  9
$USERI4
 70
     0
  9
$USERI5
 70
     0
  9
$USERR1
 40
0.0
  9
$USERR2
 40
0.0
  9
$USERR3
 40
0.0
  9
$USERR4
 40
0.0
  9
$USERR5
 40
0.0
  9
$WORLDVIEW
 70
     1
  9
$SHADEDGE
 70
     3
  9
$SHADEDIF
 70
    70
  9
$TILEMODE
 70
     1
  9
$MAXACTVP
 70
    64
  9
$PLIMCHECK
 70
     0
  9
$PEXTMIN
 10
1.000000000000000E+20
 20
1.000000000000000E+20
 30
1.000000000000000E+20
  9
$PEXTMAX
 10
-1.000000000000000E+20
 20
-1.000000000000000E+20
 30
-1.000000000000000E+20
  9
$PLIMMIN
 10
0.0
 20
0.0
  9
$PLIMMAX
 10
12.0
 20
9.0
  9
$UNITMODE
 70
     0
  9
$VISRETAIN
 70
     1
  9
$PLINEGEN
 70
     0
  9
$PSLTSCALE
 70
     1
  0
ENDSEC
  0
SECTION
  2
TABLES
  0
TABLE
  2
VPORT
 70
     1
  0
VPORT
  2
*ACTIVE
 70
     0
 10
0.0
 20
0.0
 11
1.0
 21
1.0
 12
10.42990654205607
 22
4.5
 13
0.0
 23
0.0
 14
0.5
 24
0.5
 15
0.5
 25
0.5
 16
0.0
 26
0.0
 36
1.0
 17
0.0
 27
0.0
 37
0.0
 40
9.0
 41
1.972972972850329
 42
50.0
 43
0.0
 44
0.0
 50
0.0
 51
0.0
 71
     0
 72
   100
 73
     1
 74
     3
 75
     0
 76
     0
 77
     0
 78
     0
  0
ENDTAB
  0
TABLE
  2
LTYPE
 70
     2
  0
LTYPE
  2
CONTINUOUS
 70
     0
  3
Solid line
 72
    65
 73
     0
 40
0.0
  0
LTYPE
  2
CONTINUOUS2
 70
     0
  3
Solid Line
 72
    65
 73
     0
 40
0.0
  0
ENDTAB
  0
TABLE
  2
LAYER
 70
     2
  0
LAYER
  2
0
 70
     0
 62
     7
  6
CONTINUOUS
  0
LAYER
  2
FILLETEDCONTOURS
 70
     0
 62
    18
  6
CONTINUOUS
  0
ENDTAB
  0
TABLE
  2
STYLE
 70
     1
  0
STYLE
  2
STANDARD
 70
     0
 40
0.0
 41
1.0
 50
0.0
 71
     0
 42
0.2
  3
txt
  4

  0
ENDTAB
  0
TABLE
  2
VIEW
 70
     0
  0
ENDTAB
  0
TABLE
  2
UCS
 70
     0
  0
ENDTAB
  0
TABLE
  2
APPID
 70
     1
  0
APPID
  2
ACAD
 70
     0
  0
ENDTAB
  0
TABLE
  2
DIMSTYLE
 70
     1
  0
DIMSTYLE
  2
STANDARD
 70
     0
  3

  4

  5

  6

  7

 40
1.0
 41
0.18
 42
0.0625
 43
0.38
 44
0.18
 45
0.0
 46
0.0
 47
0.0
 48
0.0
140
0.18
141
0.09
142
0.0
143
25.4
144
1.0
145
0.0
146
1.0
147
0.09
 71
     0
 72
     0
 73
     1
 74
     1
 75
     0
 76
     0
 77
     0
 78
     0
170
     0
171
     2
172
     0
173
     0
174
     0
175
     0
176
     0
177
     0
178
     0
  0
ENDTAB
  0
ENDSEC
  0
SECTION
  2
BLOCKS
  0
BLOCK
  8
0
  2
$MODEL_SPACE
 70
     0
 10
0.0
 20
0.0
 30
0.0
  3
$MODEL_SPACE
  1

  0
ENDBLK
  5
21
  8
0
  0
BLOCK
 67
     1
  8
0
  2
$PAPER_SPACE
 70
     0
 10
0.0
 20
0.0
 30
0.0
  3
$PAPER_SPACE
  1

  0
ENDBLK
  5
1D
 67
     1
  8
0
  0
ENDSEC
  0
SECTION
  2
ENTITIES
  0
POLYLINE
  5
70
  8
FILLETEDCONTOURS
 66
     1
 10
0.0
 20
0.0
 30
0.0
 70
     1
  0
VERTEX
  5
A8
  8
FILLETEDCONTOURS
 10
8.740732632280668
 20
107.4752258672957
 30
0.0
 42
0.4142135623730952
  0
VERTEX
  5
A9
  8
FILLETEDCONTOURS
 10
10.24073263228067
 20
105.9752258672957
 30
0.0
  0
VERTEX
  5
AA
  8
FILLETEDCONTOURS
 10
15.34073263228066
 20
105.9752258672957
 30
0.0
  0
VERTEX
  5
AB
  8
FILLETEDCONTOURS
 10
115.3407326322806
 20
105.9752258672957
 30
0.0
  0
VERTEX
  5
AC
  8
FILLETEDCONTOURS
 10
120.4407326322806
 20
105.9752258672957
 30
0.0
 42
0.4142135623730952
  0
VERTEX
  5
AD
  8
FILLETEDCONTOURS
 10
121.9407326322806
 20
107.4752258672957
 30
0.0
  0
VERTEX
  5
AE
  8
FILLETEDCONTOURS
 10
121.9407326322806
 20
114.4752258672957
 30
0.0
 42
0.4142135623730952
  0
VERTEX
  5
AF
  8
FILLETEDCONTOURS
 10
120.4407326322806
 20
115.9752258672957
 30
0.0
  0
VERTEX
  5
B0
  8
FILLETEDCONTOURS
 10
116.8407326322806
 20
115.9752258672957
 30
0.0
  0
VERTEX
  5
B1
  8
FILLETEDCONTOURS
 10
116.4013928040605
 20
115.5358860390755
 30
0.0
  0
VERTEX
  5
B2
  8
FILLETEDCONTOURS
 10
116.8407326322806
 20
115.9752258672957
 30
0.0
  0
VERTEX
  5
B3
  8
FILLETEDCONTOURS
 10
116.8407326322806
 20
119.9752258672957
 30
0.0
  0
VERTEX
  5
B4
  8
FILLETEDCONTOURS
 10
116.4013928040605
 20
120.4145656955158
 30
0.0
  0
VERTEX
  5
B5
  8
FILLETEDCONTOURS
 10
116.8407326322806
 20
119.9752258672957
 30
0.0
  0
VERTEX
  5
B6
  8
FILLETEDCONTOURS
 10
120.4407326322806
 20
119.9752258672957
 30
0.0
 42
0.4142135623730952
  0
VERTEX
  5
B7
  8
FILLETEDCONTOURS
 10
121.9407326322806
 20
121.4752258672957
 30
0.0
  0
VERTEX
  5
B8
  8
FILLETEDCONTOURS
 10
121.9407326322806
 20
128.4752258672957
 30
0.0
 42
0.4142135623730952
  0
VERTEX
  5
B9
  8
FILLETEDCONTOURS
 10
120.4407326322806
 20
129.9752258672957
 30
0.0
  0
VERTEX
  5
BA
  8
FILLETEDCONTOURS
 10
116.8407326322806
 20
129.9752258672957
 30
0.0
  0
VERTEX
  5
BB
  8
FILLETEDCONTOURS
 10
116.4013928040605
 20
129.5358860390755
 30
0.0
  0
VERTEX
  5
BC
  8
FILLETEDCONTOURS
 10
116.8407326322806
 20
129.9752258672957
 30
0.0
  0
VERTEX
  5
BD
  8
FILLETEDCONTOURS
 10
116.8407326322806
 20
133.9752258672957
 30
0.0
  0
VERTEX
  5
BE
  8
FILLETEDCONTOURS
 10
116.4013928040605
 20
134.4145656955158
 30
0.0
  0
VERTEX
  5
BF
  8
FILLETEDCONTOURS
 10
116.8407326322806
 20
133.9752258672957
 30
0.0
  0
VERTEX
  5
C0
  8
FILLETEDCONTOURS
 10
120.4407326322806
 20
133.9752258672957
 30
0.0
 42
0.4142135623730952
  0
VERTEX
  5
C1
  8
FILLETEDCONTOURS
 10
121.9407326322806
 20
135.4752258672957
 30
0.0
  0
VERTEX
  5
C2
  8
FILLETEDCONTOURS
 10
121.9407326322806
 20
142.4752258672957
 30
0.0
 42
0.4142135623730952
  0
VERTEX
  5
C3
  8
FILLETEDCONTOURS
 10
120.4407326322806
 20
143.9752258672957
 30
0.0
  0
VERTEX
  5
C4
  8
FILLETEDCONTOURS
 10
116.8407326322806
 20
143.9752258672957
 30
0.0
  0
VERTEX
  5
C5
  8
FILLETEDCONTOURS
 10
116.4013928040605
 20
143.5358860390755
 30
0.0
  0
VERTEX
  5
C6
  8
FILLETEDCONTOURS
 10
116.8407326322806
 20
143.9752258672957
 30
0.0
  0
VERTEX
  5
C7
  8
FILLETEDCONTOURS
 10
116.8407326322806
 20
152.5752258672957
 30
0.0
 42
0.4142135623730952
  0
VERTEX
  5
C8
  8
FILLETEDCONTOURS
 10
115.3407326322806
 20
154.0752258672957
 30
0.0
  0
VERTEX
  5
C9
  8
FILLETEDCONTOURS
 10
95.34073263228066
 20
154.0752258672957
 30
0.0
 42
0.4142135623730952
  0
VERTEX
  5
CA
  8
FILLETEDCONTOURS
 10
93.84073263228066
 20
152.5752258672957
 30
0.0
  0
VERTEX
  5
CB
  8
FILLETEDCONTOURS
 10
93.84073263228066
 20
143.9752258672957
 30
0.0
  0
VERTEX
  5
CC
  8
FILLETEDCONTOURS
 10
94.28007246050076
 20
143.5358860390755
 30
0.0
  0
VERTEX
  5
CD
  8
FILLETEDCONTOURS
 10
93.84073263228066
 20
143.9752258672957
 30
0.0
  0
VERTEX
  5
CE
  8
FILLETEDCONTOURS
 10
76.84073263228066
 20
143.9752258672957
 30
0.0
  0
VERTEX
  5
CF
  8
FILLETEDCONTOURS
 10
76.40139280406046
 20
143.5358860390755
 30
0.0
  0
VERTEX
  5
D0
  8
FILLETEDCONTOURS
 10
76.84073263228066
 20
143.9752258672957
 30
0.0
  0
VERTEX
  5
D1
  8
FILLETEDCONTOURS
 10
76.84073263228066
 20
152.5752258672957
 30
0.0
 42
0.4142135623730835
  0
VERTEX
  5
D2
  8
FILLETEDCONTOURS
 10
75.34073263228066
 20
154.0752258672957
 30
0.0
  0
VERTEX
  5
D3
  8
FILLETEDCONTOURS
 10
55.34073263228066
 20
154.0752258672957
 30
0.0
 42
0.4142135623730952
  0
VERTEX
  5
D4
  8
FILLETEDCONTOURS
 10
53.84073263228066
 20
152.5752258672957
 30
0.0
  0
VERTEX
  5
D5
  8
FILLETEDCONTOURS
 10
53.84073263228066
 20
143.9752258672957
 30
0.0
  0
VERTEX
  5
D6
  8
FILLETEDCONTOURS
 10
54.28007246050078
 20
143.5358860390755
 30
0.0
  0
VERTEX
  5
D7
  8
FILLETEDCONTOURS
 10
53.84073263228066
 20
143.9752258672957
 30
0.0
  0
VERTEX
  5
D8
  8
FILLETEDCONTOURS
 10
36.84073263228066
 20
143.9752258672957
 30
0.0
  0
VERTEX
  5
D9
  8
FILLETEDCONTOURS
 10
36.40139280406046
 20
143.5358860390755
 30
0.0
  0
VERTEX
  5
DA
  8
FILLETEDCONTOURS
 10
36.84073263228066
 20
143.9752258672957
 30
0.0
  0
VERTEX
  5
DB
  8
FILLETEDCONTOURS
 10
36.84073263228066
 20
152.5752258672957
 30
0.0
 42
0.4142135623730952
  0
VERTEX
  5
DC
  8
FILLETEDCONTOURS
 10
35.34073263228066
 20
154.0752258672957
 30
0.0
  0
VERTEX
  5
DD
  8
FILLETEDCONTOURS
 10
15.34073263228066
 20
154.0752258672957
 30
0.0
 42
0.4142135623730952
  0
VERTEX
  5
DE
  8
FILLETEDCONTOURS
 10
13.84073263228066
 20
152.5752258672957
 30
0.0
  0
VERTEX
  5
DF
  8
FILLETEDCONTOURS
 10
13.84073263228066
 20
143.9752258672957
 30
0.0
  0
VERTEX
  5
E0
  8
FILLETEDCONTOURS
 10
14.28007246050078
 20
143.5358860390755
 30
0.0
  0
VERTEX
  5
E1
  8
FILLETEDCONTOURS
 10
13.84073263228066
 20
143.9752258672957
 30
0.0
  0
VERTEX
  5
E2
  8
FILLETEDCONTOURS
 10
10.24073263228067
 20
143.9752258672957
 30
0.0
 42
0.4142135623730952
  0
VERTEX
  5
E3
  8
FILLETEDCONTOURS
 10
8.740732632280668
 20
142.4752258672957
 30
0.0
  0
VERTEX
  5
E4
  8
FILLETEDCONTOURS
 10
8.740732632280668
 20
135.4752258672957
 30
0.0
 42
0.4142135623730952
  0
VERTEX
  5
E5
  8
FILLETEDCONTOURS
 10
10.24073263228067
 20
133.9752258672957
 30
0.0
  0
VERTEX
  5
E6
  8
FILLETEDCONTOURS
 10
13.84073263228066
 20
133.9752258672957
 30
0.0
  0
VERTEX
  5
E7
  8
FILLETEDCONTOURS
 10
14.28007246050086
 20
134.4145656955158
 30
0.0
  0
VERTEX
  5
E8
  8
FILLETEDCONTOURS
 10
13.84073263228066
 20
133.9752258672957
 30
0.0
  0
VERTEX
  5
E9
  8
FILLETEDCONTOURS
 10
13.84073263228066
 20
129.9752258672957
 30
0.0
  0
VERTEX
  5
EA
  8
FILLETEDCONTOURS
 10
14.28007246050086
 20
129.5358860390755
 30
0.0
  0
VERTEX
  5
EB
  8
FILLETEDCONTOURS
 10
13.84073263228066
 20
129.9752258672957
 30
0.0
  0
VERTEX
  5
EC
  8
FILLETEDCONTOURS
 10
10.24073263228067
 20
129.9752258672957
 30
0.0
 42
0.4142135623730952
  0
VERTEX
  5
ED
  8
FILLETEDCONTOURS
 10
8.740732632280668
 20
128.4752258672957
 30
0.0
  0
VERTEX
  5
EE
  8
FILLETEDCONTOURS
 10
8.740732632280668
 20
121.4752258672957
 30
0.0
 42
0.4142135623730952
  0
VERTEX
  5
EF
  8
FILLETEDCONTOURS
 10
10.24073263228067
 20
119.9752258672957
 30
0.0
  0
VERTEX
  5
F0
  8
FILLETEDCONTOURS
 10
13.84073263228066
 20
119.9752258672957
 30
0.0
  0
VERTEX
  5
F1
  8
FILLETEDCONTOURS
 10
14.28007246050086
 20
120.4145656955158
 30
0.0
  0
VERTEX
  5
F2
  8
FILLETEDCONTOURS
 10
13.84073263228066
 20
119.9752258672957
 30
0.0
  0
VERTEX
  5
F3
  8
FILLETEDCONTOURS
 10
13.84073263228066
 20
115.9752258672957
 30
0.0
  0
VERTEX
  5
F4
  8
FILLETEDCONTOURS
 10
14.28007246050086
 20
115.5358860390755
 30
0.0
  0
VERTEX
  5
F5
  8
FILLETEDCONTOURS
 10
13.84073263228066
 20
115.9752258672957
 30
0.0
  0
VERTEX
  5
F6
  8
FILLETEDCONTOURS
 10
10.24073263228067
 20
115.9752258672957
 30
0.0
 42
0.4142135623730952
  0
VERTEX
  5
F7
  8
FILLETEDCONTOURS
 10
8.740732632280668
 20
114.4752258672957
 30
0.0
  0
SEQEND
  5
40A
  8
FILLETEDCONTOURS
  0
POLYLINE
  5
71
  8
FILLETEDCONTOURS
 66
     1
 10
0.0
 20
0.0
 30
0.0
 70
     1
  0
VERTEX
  5
F8
  8
FILLETEDCONTOURS
 10
139.1903211096469
 20
9.699900764414991
 30
0.0
  0
VERTEX
  5
F9
  8
FILLETEDCONTOURS
 10
146.1903211096469
 20
9.699900764414991
 30
0.0
 42
0.4142135623730952
  0
VERTEX
  5
FA
  8
FILLETEDCONTOURS
 10
147.6903211096469
 20
11.19990076441499
 30
0.0
  0
VERTEX
  5
FB
  8
FILLETEDCONTOURS
 10
147.6903211096469
 20
14.79990076441513
 30
0.0
  0
VERTEX
  5
FC
  8
FILLETEDCONTOURS
 10
147.2509812814267
 20
15.23924059263518
 30
0.0
  0
VERTEX
  5
FD
  8
FILLETEDCONTOURS
 10
147.6903211096469
 20
14.79990076441513
 30
0.0
  0
VERTEX
  5
FE
  8
FILLETEDCONTOURS
 10
151.6903211096469
 20
14.79990076441513
 30
0.0
  0
VERTEX
  5
FF
  8
FILLETEDCONTOURS
 10
152.1296609378671
 20
15.23924059263518
 30
0.0
  0
VERTEX
  5
100
  8
FILLETEDCONTOURS
 10
151.6903211096469
 20
14.79990076441513
 30
0.0
  0
VERTEX
  5
101
  8
FILLETEDCONTOURS
 10
151.6903211096469
 20
11.19990076441499
 30
0.0
 42
0.4142135623730952
  0
VERTEX
  5
102
  8
FILLETEDCONTOURS
 10
153.1903211096469
 20
9.699900764414991
 30
0.0
  0
VERTEX
  5
103
  8
FILLETEDCONTOURS
 10
160.1903211096469
 20
9.699900764414991
 30
0.0
 42
0.4142135623730952
  0
VERTEX
  5
104
  8
FILLETEDCONTOURS
 10
161.6903211096469
 20
11.19990076441499
 30
0.0
  0
VERTEX
  5
105
  8
FILLETEDCONTOURS
 10
161.6903211096469
 20
14.79990076441513
 30
0.0
  0
VERTEX
  5
106
  8
FILLETEDCONTOURS
 10
161.2509812814267
 20
15.23924059263518
 30
0.0
  0
VERTEX
  5
107
  8
FILLETEDCONTOURS
 10
161.6903211096469
 20
14.79990076441513
 30
0.0
  0
VERTEX
  5
108
  8
FILLETEDCONTOURS
 10
165.6903211096469
 20
14.79990076441513
 30
0.0
  0
VERTEX
  5
109
  8
FILLETEDCONTOURS
 10
166.1296609378671
 20
15.23924059263518
 30
0.0
  0
VERTEX
  5
10A
  8
FILLETEDCONTOURS
 10
165.6903211096469
 20
14.79990076441513
 30
0.0
  0
VERTEX
  5
10B
  8
FILLETEDCONTOURS
 10
165.6903211096469
 20
11.19990076441499
 30
0.0
 42
0.4142135623730952
  0
VERTEX
  5
10C
  8
FILLETEDCONTOURS
 10
167.1903211096469
 20
9.699900764414991
 30
0.0
  0
VERTEX
  5
10D
  8
FILLETEDCONTOURS
 10
177.2903211096469
 20
9.699900764414991
 30
0.0
 42
0.4142135623730952
  0
VERTEX
  5
10E
  8
FILLETEDCONTOURS
 10
178.7903211096469
 20
11.19990076441499
 30
0.0
  0
VERTEX
  5
10F
  8
FILLETEDCONTOURS
 10
178.7903211096469
 20
16.29990076441513
 30
0.0
  0
VERTEX
  5
110
  8
FILLETEDCONTOURS
 10
178.7903211096469
 20
34.07767854219279
 30
0.0
 42
0.4142135623730952
  0
VERTEX
  5
111
  8
FILLETEDCONTOURS
 10
177.2903211096469
 20
35.57767854219279
 30
0.0
  0
VERTEX
  5
112
  8
FILLETEDCONTOURS
 10
168.6903211096469
 20
35.57767854219279
 30
0.0
  0
VERTEX
  5
113
  8
FILLETEDCONTOURS
 10
168.2509812814267
 20
35.13833871397273
 30
0.0
  0
VERTEX
  5
114
  8
FILLETEDCONTOURS
 10
168.6903211096469
 20
35.57767854219279
 30
0.0
  0
VERTEX
  5
115
  8
FILLETEDCONTOURS
 10
168.6903211096469
 20
50.35545631997061
 30
0.0
  0
VERTEX
  5
116
  8
FILLETEDCONTOURS
 10
168.2509812814267
 20
50.79479614819078
 30
0.0
  0
VERTEX
  5
117
  8
FILLETEDCONTOURS
 10
168.6903211096469
 20
50.35545631997061
 30
0.0
  0
VERTEX
  5
118
  8
FILLETEDCONTOURS
 10
177.2903211096469
 20
50.35545631997061
 30
0.0
 42
0.4142135623730952
  0
VERTEX
  5
119
  8
FILLETEDCONTOURS
 10
178.7903211096469
 20
51.85545631997061
 30
0.0
  0
VERTEX
  5
11A
  8
FILLETEDCONTOURS
 10
178.7903211096469
 20
69.63323409774839
 30
0.0
 42
0.4142135623730952
  0
VERTEX
  5
11B
  8
FILLETEDCONTOURS
 10
177.2903211096469
 20
71.13323409774839
 30
0.0
  0
VERTEX
  5
11C
  8
FILLETEDCONTOURS
 10
168.6903211096469
 20
71.13323409774839
 30
0.0
  0
VERTEX
  5
11D
  8
FILLETEDCONTOURS
 10
168.2509812814267
 20
70.69389426952822
 30
0.0
  0
VERTEX
  5
11E
  8
FILLETEDCONTOURS
 10
168.6903211096469
 20
71.13323409774839
 30
0.0
  0
VERTEX
  5
11F
  8
FILLETEDCONTOURS
 10
168.6903211096469
 20
85.9110118755261
 30
0.0
  0
VERTEX
  5
120
  8
FILLETEDCONTOURS
 10
168.2509812814267
 20
86.35035170374638
 30
0.0
  0
VERTEX
  5
121
  8
FILLETEDCONTOURS
 10
168.6903211096469
 20
85.9110118755261
 30
0.0
  0
VERTEX
  5
122
  8
FILLETEDCONTOURS
 10
177.2903211096469
 20
85.9110118755261
 30
0.0
 42
0.4142135623730952
  0
VERTEX
  5
123
  8
FILLETEDCONTOURS
 10
178.7903211096469
 20
87.4110118755261
 30
0.0
  0
VERTEX
  5
124
  8
FILLETEDCONTOURS
 10
178.7903211096469
 20
105.188789653304
 30
0.0
 42
0.4142135623730952
  0
VERTEX
  5
125
  8
FILLETEDCONTOURS
 10
177.2903211096469
 20
106.688789653304
 30
0.0
  0
VERTEX
  5
126
  8
FILLETEDCONTOURS
 10
168.6903211096469
 20
106.688789653304
 30
0.0
  0
VERTEX
  5
127
  8
FILLETEDCONTOURS
 10
168.2509812814267
 20
106.2494498250838
 30
0.0
  0
VERTEX
  5
128
  8
FILLETEDCONTOURS
 10
168.6903211096469
 20
106.688789653304
 30
0.0
  0
VERTEX
  5
129
  8
FILLETEDCONTOURS
 10
168.6903211096469
 20
121.4665674310817
 30
0.0
  0
VERTEX
  5
12A
  8
FILLETEDCONTOURS
 10
168.2509812814267
 20
121.9059072593019
 30
0.0
  0
VERTEX
  5
12B
  8
FILLETEDCONTOURS
 10
168.6903211096469
 20
121.4665674310817
 30
0.0
  0
VERTEX
  5
12C
  8
FILLETEDCONTOURS
 10
177.2903211096469
 20
121.4665674310817
 30
0.0
 42
0.4142135623730952
  0
VERTEX
  5
12D
  8
FILLETEDCONTOURS
 10
178.7903211096469
 20
122.9665674310817
 30
0.0
  0
VERTEX
  5
12E
  8
FILLETEDCONTOURS
 10
178.7903211096469
 20
140.7443452088595
 30
0.0
 42
0.4142135623730952
  0
VERTEX
  5
12F
  8
FILLETEDCONTOURS
 10
177.2903211096469
 20
142.2443452088595
 30
0.0
  0
VERTEX
  5
130
  8
FILLETEDCONTOURS
 10
168.6903211096469
 20
142.2443452088595
 30
0.0
  0
VERTEX
  5
131
  8
FILLETEDCONTOURS
 10
168.2509812814267
 20
141.8050053806393
 30
0.0
  0
VERTEX
  5
132
  8
FILLETEDCONTOURS
 10
168.6903211096469
 20
142.2443452088595
 30
0.0
  0
VERTEX
  5
133
  8
FILLETEDCONTOURS
 10
168.6903211096469
 20
157.0221229866372
 30
0.0
  0
VERTEX
  5
134
  8
FILLETEDCONTOURS
 10
168.2509812814267
 20
157.4614628148575
 30
0.0
  0
VERTEX
  5
135
  8
FILLETEDCONTOURS
 10
168.6903211096469
 20
157.0221229866372
 30
0.0
  0
VERTEX
  5
136
  8
FILLETEDCONTOURS
 10
177.2903211096469
 20
157.0221229866372
 30
0.0
 42
0.4142135623730952
  0
VERTEX
  5
137
  8
FILLETEDCONTOURS
 10
178.7903211096469
 20
158.5221229866372
 30
0.0
  0
VERTEX
  5
138
  8
FILLETEDCONTOURS
 10
178.7903211096469
 20
176.2999007644151
 30
0.0
  0
VERTEX
  5
139
  8
FILLETEDCONTOURS
 10
178.7903211096469
 20
181.399900764415
 30
0.0
 42
0.4142135623730952
  0
VERTEX
  5
13A
  8
FILLETEDCONTOURS
 10
177.2903211096469
 20
182.899900764415
 30
0.0
  0
VERTEX
  5
13B
  8
FILLETEDCONTOURS
 10
167.1903211096469
 20
182.899900764415
 30
0.0
 42
0.4142135623730952
  0
VERTEX
  5
13C
  8
FILLETEDCONTOURS
 10
165.6903211096469
 20
181.399900764415
 30
0.0
  0
VERTEX
  5
13D
  8
FILLETEDCONTOURS
 10
165.6903211096469
 20
177.7999007644151
 30
0.0
  0
VERTEX
  5
13E
  8
FILLETEDCONTOURS
 10
166.1296609378671
 20
177.3605609361949
 30
0.0
  0
VERTEX
  5
13F
  8
FILLETEDCONTOURS
 10
165.6903211096469
 20
177.7999007644151
 30
0.0
  0
VERTEX
  5
140
  8
FILLETEDCONTOURS
 10
161.6903211096469
 20
177.7999007644151
 30
0.0
  0
VERTEX
  5
141
  8
FILLETEDCONTOURS
 10
161.2509812814267
 20
177.3605609361949
 30
0.0
  0
VERTEX
  5
142
  8
FILLETEDCONTOURS
 10
161.6903211096469
 20
177.7999007644151
 30
0.0
  0
VERTEX
  5
143
  8
FILLETEDCONTOURS
 10
161.6903211096469
 20
181.3999007644151
 30
0.0
 42
0.4142135623730952
  0
VERTEX
  5
144
  8
FILLETEDCONTOURS
 10
160.1903211096469
 20
182.8999007644151
 30
0.0
  0
VERTEX
  5
145
  8
FILLETEDCONTOURS
 10
153.1903211096469
 20
182.8999007644151
 30
0.0
 42
0.4142135623730952
  0
VERTEX
  5
146
  8
FILLETEDCONTOURS
 10
151.6903211096469
 20
181.3999007644151
 30
0.0
  0
VERTEX
  5
147
  8
FILLETEDCONTOURS
 10
151.6903211096469
 20
177.7999007644151
 30
0.0
  0
VERTEX
  5
148
  8
FILLETEDCONTOURS
 10
152.1296609378671
 20
177.3605609361949
 30
0.0
  0
VERTEX
  5
149
  8
FILLETEDCONTOURS
 10
151.6903211096469
 20
177.7999007644151
 30
0.0
  0
VERTEX
  5
14A
  8
FILLETEDCONTOURS
 10
147.6903211096469
 20
177.7999007644151
 30
0.0
  0
VERTEX
  5
14B
  8
FILLETEDCONTOURS
 10
147.2509812814267
 20
177.3605609361949
 30
0.0
  0
VERTEX
  5
14C
  8
FILLETEDCONTOURS
 10
147.6903211096469
 20
177.7999007644151
 30
0.0
  0
VERTEX
  5
14D
  8
FILLETEDCONTOURS
 10
147.6903211096469
 20
181.3999007644151
 30
0.0
 42
0.4142135623730952
  0
VERTEX
  5
14E
  8
FILLETEDCONTOURS
 10
146.1903211096469
 20
182.8999007644151
 30
0.0
  0
VERTEX
  5
14F
  8
FILLETEDCONTOURS
 10
139.1903211096469
 20
182.8999007644151
 30
0.0
 42
0.4142135623730952
  0
VERTEX
  5
150
  8
FILLETEDCONTOURS
 10
137.6903211096469
 20
181.3999007644151
 30
0.0
  0
VERTEX
  5
151
  8
FILLETEDCONTOURS
 10
137.6903211096469
 20
177.7999007644151
 30
0.0
  0
VERTEX
  5
152
  8
FILLETEDCONTOURS
 10
138.1296609378671
 20
177.3605609361949
 30
0.0
  0
VERTEX
  5
153
  8
FILLETEDCONTOURS
 10
137.6903211096469
 20
177.7999007644151
 30
0.0
  0
VERTEX
  5
154
  8
FILLETEDCONTOURS
 10
132.1903211096469
 20
177.7999007644151
 30
0.0
 42
0.4142135623730952
  0
VERTEX
  5
155
  8
FILLETEDCONTOURS
 10
130.6903211096469
 20
176.2999007644151
 30
0.0
  0
VERTEX
  5
156
  8
FILLETEDCONTOURS
 10
130.6903211096469
 20
16.29990076441513
 30
0.0
 42
0.4142135623730952
  0
VERTEX
  5
157
  8
FILLETEDCONTOURS
 10
132.1903211096469
 20
14.79990076441513
 30
0.0
  0
VERTEX
  5
158
  8
FILLETEDCONTOURS
 10
137.6903211096469
 20
14.79990076441513
 30
0.0
  0
VERTEX
  5
159
  8
FILLETEDCONTOURS
 10
138.1296609378671
 20
15.23924059263518
 30
0.0
  0
VERTEX
  5
15A
  8
FILLETEDCONTOURS
 10
137.6903211096469
 20
14.79990076441513
 30
0.0
  0
VERTEX
  5
15B
  8
FILLETEDCONTOURS
 10
137.6903211096469
 20
11.19990076441499
 30
0.0
 42
0.4142135623730952
  0
SEQEND
  5
40B
  8
FILLETEDCONTOURS
  0
POLYLINE
  5
72
  8
FILLETEDCONTOURS
 66
     1
 10
0.0
 20
0.0
 30
0.0
 70
     1
  0
VERTEX
  5
15C
  8
FILLETEDCONTOURS
 10
-172.190321109647
 20
15.14830817916263
 30
0.0
  0
VERTEX
  5
15D
  8
FILLETEDCONTOURS
 10
-153.690321109647
 20
15.14830817916263
 30
0.0
  0
VERTEX
  5
15E
  8
FILLETEDCONTOURS
 10
-153.2509812814268
 20
15.5876480073828
 30
0.0
  0
VERTEX
  5
15F
  8
FILLETEDCONTOURS
 10
-153.690321109647
 20
15.14830817916263
 30
0.0
  0
VERTEX
  5
160
  8
FILLETEDCONTOURS
 10
-153.690321109647
 20
11.5483081791626
 30
0.0
 42
0.4142135623730952
  0
VERTEX
  5
161
  8
FILLETEDCONTOURS
 10
-152.190321109647
 20
10.0483081791626
 30
0.0
  0
VERTEX
  5
162
  8
FILLETEDCONTOURS
 10
-132.190321109647
 20
10.0483081791626
 30
0.0
 42
0.4142135623730952
  0
VERTEX
  5
163
  8
FILLETEDCONTOURS
 10
-130.690321109647
 20
11.5483081791626
 30
0.0
  0
VERTEX
  5
164
  8
FILLETEDCONTOURS
 10
-130.690321109647
 20
15.14830817916263
 30
0.0
  0
VERTEX
  5
165
  8
FILLETEDCONTOURS
 10
-131.1296609378672
 20
15.5876480073828
 30
0.0
  0
VERTEX
  5
166
  8
FILLETEDCONTOURS
 10
-130.690321109647
 20
15.14830817916263
 30
0.0
  0
VERTEX
  5
167
  8
FILLETEDCONTOURS
 10
-113.690321109647
 20
15.14830817916263
 30
0.0
  0
VERTEX
  5
168
  8
FILLETEDCONTOURS
 10
-113.2509812814268
 20
15.5876480073828
 30
0.0
  0
VERTEX
  5
169
  8
FILLETEDCONTOURS
 10
-113.690321109647
 20
15.14830817916263
 30
0.0
  0
VERTEX
  5
16A
  8
FILLETEDCONTOURS
 10
-113.690321109647
 20
11.5483081791626
 30
0.0
 42
0.4142135623730952
  0
VERTEX
  5
16B
  8
FILLETEDCONTOURS
 10
-112.190321109647
 20
10.0483081791626
 30
0.0
  0
VERTEX
  5
16C
  8
FILLETEDCONTOURS
 10
-92.19032110964702
 20
10.0483081791626
 30
0.0
 42
0.4142135623730952
  0
VERTEX
  5
16D
  8
FILLETEDCONTOURS
 10
-90.69032110964702
 20
11.5483081791626
 30
0.0
  0
VERTEX
  5
16E
  8
FILLETEDCONTOURS
 10
-90.69032110964702
 20
15.14830817916263
 30
0.0
  0
VERTEX
  5
16F
  8
FILLETEDCONTOURS
 10
-91.12966093786724
 20
15.5876480073828
 30
0.0
  0
VERTEX
  5
170
  8
FILLETEDCONTOURS
 10
-90.69032110964702
 20
15.14830817916263
 30
0.0
  0
VERTEX
  5
171
  8
FILLETEDCONTOURS
 10
-72.19032110964702
 20
15.14830817916263
 30
0.0
 42
0.4142135623730952
  0
VERTEX
  5
172
  8
FILLETEDCONTOURS
 10
-70.69032110964702
 20
16.64830817916263
 30
0.0
  0
VERTEX
  5
173
  8
FILLETEDCONTOURS
 10
-70.69032110964702
 20
32.9260859569404
 30
0.0
  0
VERTEX
  5
174
  8
FILLETEDCONTOURS
 10
-71.12966093786724
 20
33.36542578516051
 30
0.0
  0
VERTEX
  5
175
  8
FILLETEDCONTOURS
 10
-70.69032110964702
 20
32.9260859569404
 30
0.0
  0
VERTEX
  5
176
  8
FILLETEDCONTOURS
 10
-67.09032110964705
 20
32.9260859569404
 30
0.0
 42
0.4142135623730952
  0
VERTEX
  5
177
  8
FILLETEDCONTOURS
 10
-65.59032110964705
 20
34.4260859569404
 30
0.0
  0
VERTEX
  5
178
  8
FILLETEDCONTOURS
 10
-65.59032110964705
 20
52.20386373471823
 30
0.0
 42
0.4142135623730952
  0
VERTEX
  5
179
  8
FILLETEDCONTOURS
 10
-67.09032110964705
 20
53.70386373471823
 30
0.0
  0
VERTEX
  5
17A
  8
FILLETEDCONTOURS
 10
-70.69032110964702
 20
53.70386373471823
 30
0.0
  0
VERTEX
  5
17B
  8
FILLETEDCONTOURS
 10
-71.12966093786724
 20
53.264523906498
 30
0.0
  0
VERTEX
  5
17C
  8
FILLETEDCONTOURS
 10
-70.69032110964702
 20
53.70386373471823
 30
0.0
  0
VERTEX
  5
17D
  8
FILLETEDCONTOURS
 10
-70.69032110964702
 20
68.48164151249588
 30
0.0
  0
VERTEX
  5
17E
  8
FILLETEDCONTOURS
 10
-71.12966093786724
 20
68.92098134071611
 30
0.0
  0
VERTEX
  5
17F
  8
FILLETEDCONTOURS
 10
-70.69032110964702
 20
68.48164151249588
 30
0.0
  0
VERTEX
  5
180
  8
FILLETEDCONTOURS
 10
-67.09032110964705
 20
68.48164151249588
 30
0.0
 42
0.4142135623730952
  0
VERTEX
  5
181
  8
FILLETEDCONTOURS
 10
-65.59032110964705
 20
69.98164151249588
 30
0.0
  0
VERTEX
  5
182
  8
FILLETEDCONTOURS
 10
-65.59032110964705
 20
87.75941929027371
 30
0.0
 42
0.4142135623730952
  0
VERTEX
  5
183
  8
FILLETEDCONTOURS
 10
-67.09032110964705
 20
89.25941929027371
 30
0.0
  0
VERTEX
  5
184
  8
FILLETEDCONTOURS
 10
-70.69032110964702
 20
89.25941929027371
 30
0.0
  0
VERTEX
  5
185
  8
FILLETEDCONTOURS
 10
-71.12966093786724
 20
88.82007946205349
 30
0.0
  0
VERTEX
  5
186
  8
FILLETEDCONTOURS
 10
-70.69032110964702
 20
89.25941929027371
 30
0.0
  0
VERTEX
  5
187
  8
FILLETEDCONTOURS
 10
-70.69032110964702
 20
104.0371970680515
 30
0.0
  0
VERTEX
  5
188
  8
FILLETEDCONTOURS
 10
-71.12966093786724
 20
104.4765368962716
 30
0.0
  0
VERTEX
  5
189
  8
FILLETEDCONTOURS
 10
-70.69032110964702
 20
104.0371970680515
 30
0.0
  0
VERTEX
  5
18A
  8
FILLETEDCONTOURS
 10
-67.09032110964705
 20
104.0371970680515
 30
0.0
 42
0.4142135623730952
  0
VERTEX
  5
18B
  8
FILLETEDCONTOURS
 10
-65.59032110964705
 20
105.5371970680515
 30
0.0
  0
VERTEX
  5
18C
  8
FILLETEDCONTOURS
 10
-65.59032110964705
 20
123.3149748458292
 30
0.0
 42
0.4142135623730952
  0
VERTEX
  5
18D
  8
FILLETEDCONTOURS
 10
-67.09032110964705
 20
124.8149748458292
 30
0.0
  0
VERTEX
  5
18E
  8
FILLETEDCONTOURS
 10
-70.69032110964702
 20
124.8149748458292
 30
0.0
  0
VERTEX
  5
18F
  8
FILLETEDCONTOURS
 10
-71.12966093786724
 20
124.3756350176091
 30
0.0
  0
VERTEX
  5
190
  8
FILLETEDCONTOURS
 10
-70.69032110964702
 20
124.8149748458292
 30
0.0
  0
VERTEX
  5
191
  8
FILLETEDCONTOURS
 10
-70.69032110964702
 20
139.592752623607
 30
0.0
  0
VERTEX
  5
192
  8
FILLETEDCONTOURS
 10
-71.12966093786724
 20
140.0320924518272
 30
0.0
  0
VERTEX
  5
193
  8
FILLETEDCONTOURS
 10
-70.69032110964702
 20
139.592752623607
 30
0.0
  0
VERTEX
  5
194
  8
FILLETEDCONTOURS
 10
-67.09032110964705
 20
139.592752623607
 30
0.0
 42
0.4142135623730952
  0
VERTEX
  5
195
  8
FILLETEDCONTOURS
 10
-65.59032110964705
 20
141.092752623607
 30
0.0
  0
VERTEX
  5
196
  8
FILLETEDCONTOURS
 10
-65.59032110964705
 20
158.8705304013848
 30
0.0
 42
0.4142135623730952
  0
VERTEX
  5
197
  8
FILLETEDCONTOURS
 10
-67.09032110964705
 20
160.3705304013848
 30
0.0
  0
VERTEX
  5
198
  8
FILLETEDCONTOURS
 10
-70.69032110964702
 20
160.3705304013848
 30
0.0
  0
VERTEX
  5
199
  8
FILLETEDCONTOURS
 10
-71.12966093786724
 20
159.9311905731646
 30
0.0
  0
VERTEX
  5
19A
  8
FILLETEDCONTOURS
 10
-70.69032110964702
 20
160.3705304013848
 30
0.0
  0
VERTEX
  5
19B
  8
FILLETEDCONTOURS
 10
-70.69032110964702
 20
176.6483081791626
 30
0.0
 42
0.4142135623730952
  0
VERTEX
  5
19C
  8
FILLETEDCONTOURS
 10
-72.19032110964702
 20
178.1483081791626
 30
0.0
  0
VERTEX
  5
19D
  8
FILLETEDCONTOURS
 10
-90.69032110964702
 20
178.1483081791626
 30
0.0
  0
VERTEX
  5
19E
  8
FILLETEDCONTOURS
 10
-91.12966093786724
 20
177.7089683509424
 30
0.0
  0
VERTEX
  5
19F
  8
FILLETEDCONTOURS
 10
-90.69032110964702
 20
178.1483081791626
 30
0.0
  0
VERTEX
  5
1A0
  8
FILLETEDCONTOURS
 10
-90.69032110964702
 20
181.7483081791626
 30
0.0
 42
0.4142135623730952
  0
VERTEX
  5
1A1
  8
FILLETEDCONTOURS
 10
-92.19032110964702
 20
183.2483081791626
 30
0.0
  0
VERTEX
  5
1A2
  8
FILLETEDCONTOURS
 10
-112.190321109647
 20
183.2483081791626
 30
0.0
 42
0.4142135623730952
  0
VERTEX
  5
1A3
  8
FILLETEDCONTOURS
 10
-113.690321109647
 20
181.7483081791626
 30
0.0
  0
VERTEX
  5
1A4
  8
FILLETEDCONTOURS
 10
-113.690321109647
 20
178.1483081791626
 30
0.0
  0
VERTEX
  5
1A5
  8
FILLETEDCONTOURS
 10
-113.2509812814268
 20
177.7089683509424
 30
0.0
  0
VERTEX
  5
1A6
  8
FILLETEDCONTOURS
 10
-113.690321109647
 20
178.1483081791626
 30
0.0
  0
VERTEX
  5
1A7
  8
FILLETEDCONTOURS
 10
-130.690321109647
 20
178.1483081791626
 30
0.0
  0
VERTEX
  5
1A8
  8
FILLETEDCONTOURS
 10
-131.1296609378672
 20
177.7089683509424
 30
0.0
  0
VERTEX
  5
1A9
  8
FILLETEDCONTOURS
 10
-130.690321109647
 20
178.1483081791626
 30
0.0
  0
VERTEX
  5
1AA
  8
FILLETEDCONTOURS
 10
-130.690321109647
 20
181.7483081791626
 30
0.0
 42
0.4142135623730952
  0
VERTEX
  5
1AB
  8
FILLETEDCONTOURS
 10
-132.190321109647
 20
183.2483081791626
 30
0.0
  0
VERTEX
  5
1AC
  8
FILLETEDCONTOURS
 10
-152.190321109647
 20
183.2483081791626
 30
0.0
 42
0.4142135623730952
  0
VERTEX
  5
1AD
  8
FILLETEDCONTOURS
 10
-153.690321109647
 20
181.7483081791626
 30
0.0
  0
VERTEX
  5
1AE
  8
FILLETEDCONTOURS
 10
-153.690321109647
 20
178.1483081791626
 30
0.0
  0
VERTEX
  5
1AF
  8
FILLETEDCONTOURS
 10
-153.2509812814268
 20
177.7089683509424
 30
0.0
  0
VERTEX
  5
1B0
  8
FILLETEDCONTOURS
 10
-153.690321109647
 20
178.1483081791626
 30
0.0
  0
VERTEX
  5
1B1
  8
FILLETEDCONTOURS
 10
-172.190321109647
 20
178.1483081791626
 30
0.0
 42
0.4142135623730952
  0
VERTEX
  5
1B2
  8
FILLETEDCONTOURS
 10
-173.690321109647
 20
176.6483081791626
 30
0.0
  0
VERTEX
  5
1B3
  8
FILLETEDCONTOURS
 10
-173.690321109647
 20
160.3705304013848
 30
0.0
  0
VERTEX
  5
1B4
  8
FILLETEDCONTOURS
 10
-173.2509812814268
 20
159.9311905731646
 30
0.0
  0
VERTEX
  5
1B5
  8
FILLETEDCONTOURS
 10
-173.690321109647
 20
160.3705304013848
 30
0.0
  0
VERTEX
  5
1B6
  8
FILLETEDCONTOURS
 10
-177.2903211096469
 20
160.3705304013848
 30
0.0
 42
0.4142135623730952
  0
VERTEX
  5
1B7
  8
FILLETEDCONTOURS
 10
-178.7903211096469
 20
158.8705304013848
 30
0.0
  0
VERTEX
  5
1B8
  8
FILLETEDCONTOURS
 10
-178.7903211096469
 20
141.092752623607
 30
0.0
 42
0.4142135623730952
  0
VERTEX
  5
1B9
  8
FILLETEDCONTOURS
 10
-177.2903211096469
 20
139.592752623607
 30
0.0
  0
VERTEX
  5
1BA
  8
FILLETEDCONTOURS
 10
-173.690321109647
 20
139.592752623607
 30
0.0
  0
VERTEX
  5
1BB
  8
FILLETEDCONTOURS
 10
-173.2509812814268
 20
140.0320924518272
 30
0.0
  0
VERTEX
  5
1BC
  8
FILLETEDCONTOURS
 10
-173.690321109647
 20
139.592752623607
 30
0.0
  0
VERTEX
  5
1BD
  8
FILLETEDCONTOURS
 10
-173.690321109647
 20
124.8149748458292
 30
0.0
  0
VERTEX
  5
1BE
  8
FILLETEDCONTOURS
 10
-173.2509812814268
 20
124.3756350176091
 30
0.0
  0
VERTEX
  5
1BF
  8
FILLETEDCONTOURS
 10
-173.690321109647
 20
124.8149748458292
 30
0.0
  0
VERTEX
  5
1C0
  8
FILLETEDCONTOURS
 10
-177.2903211096469
 20
124.8149748458292
 30
0.0
 42
0.4142135623730952
  0
VERTEX
  5
1C1
  8
FILLETEDCONTOURS
 10
-178.7903211096469
 20
123.3149748458292
 30
0.0
  0
VERTEX
  5
1C2
  8
FILLETEDCONTOURS
 10
-178.7903211096469
 20
105.5371970680515
 30
0.0
 42
0.4142135623730952
  0
VERTEX
  5
1C3
  8
FILLETEDCONTOURS
 10
-177.2903211096469
 20
104.0371970680515
 30
0.0
  0
VERTEX
  5
1C4
  8
FILLETEDCONTOURS
 10
-173.690321109647
 20
104.0371970680515
 30
0.0
  0
VERTEX
  5
1C5
  8
FILLETEDCONTOURS
 10
-173.2509812814268
 20
104.4765368962716
 30
0.0
  0
VERTEX
  5
1C6
  8
FILLETEDCONTOURS
 10
-173.690321109647
 20
104.0371970680515
 30
0.0
  0
VERTEX
  5
1C7
  8
FILLETEDCONTOURS
 10
-173.690321109647
 20
89.25941929027371
 30
0.0
  0
VERTEX
  5
1C8
  8
FILLETEDCONTOURS
 10
-173.2509812814268
 20
88.82007946205349
 30
0.0
  0
VERTEX
  5
1C9
  8
FILLETEDCONTOURS
 10
-173.690321109647
 20
89.25941929027371
 30
0.0
  0
VERTEX
  5
1CA
  8
FILLETEDCONTOURS
 10
-177.2903211096469
 20
89.25941929027371
 30
0.0
 42
0.4142135623730952
  0
VERTEX
  5
1CB
  8
FILLETEDCONTOURS
 10
-178.7903211096469
 20
87.75941929027371
 30
0.0
  0
VERTEX
  5
1CC
  8
FILLETEDCONTOURS
 10
-178.7903211096469
 20
69.98164151249588
 30
0.0
 42
0.4142135623730952
  0
VERTEX
  5
1CD
  8
FILLETEDCONTOURS
 10
-177.2903211096469
 20
68.48164151249588
 30
0.0
  0
VERTEX
  5
1CE
  8
FILLETEDCONTOURS
 10
-173.690321109647
 20
68.48164151249588
 30
0.0
  0
VERTEX
  5
1CF
  8
FILLETEDCONTOURS
 10
-173.2509812814268
 20
68.92098134071611
 30
0.0
  0
VERTEX
  5
1D0
  8
FILLETEDCONTOURS
 10
-173.690321109647
 20
68.48164151249588
 30
0.0
  0
VERTEX
  5
1D1
  8
FILLETEDCONTOURS
 10
-173.690321109647
 20
53.70386373471823
 30
0.0
  0
VERTEX
  5
1D2
  8
FILLETEDCONTOURS
 10
-173.2509812814268
 20
53.264523906498
 30
0.0
  0
VERTEX
  5
1D3
  8
FILLETEDCONTOURS
 10
-173.690321109647
 20
53.70386373471823
 30
0.0
  0
VERTEX
  5
1D4
  8
FILLETEDCONTOURS
 10
-177.2903211096469
 20
53.70386373471823
 30
0.0
 42
0.4142135623730952
  0
VERTEX
  5
1D5
  8
FILLETEDCONTOURS
 10
-178.7903211096469
 20
52.20386373471823
 30
0.0
  0
VERTEX
  5
1D6
  8
FILLETEDCONTOURS
 10
-178.7903211096469
 20
34.4260859569404
 30
0.0
 42
0.4142135623730952
  0
VERTEX
  5
1D7
  8
FILLETEDCONTOURS
 10
-177.2903211096469
 20
32.9260859569404
 30
0.0
  0
VERTEX
  5
1D8
  8
FILLETEDCONTOURS
 10
-173.690321109647
 20
32.9260859569404
 30
0.0
  0
VERTEX
  5
1D9
  8
FILLETEDCONTOURS
 10
-173.2509812814268
 20
33.36542578516062
 30
0.0
  0
VERTEX
  5
1DA
  8
FILLETEDCONTOURS
 10
-173.690321109647
 20
32.9260859569404
 30
0.0
  0
VERTEX
  5
1DB
  8
FILLETEDCONTOURS
 10
-173.690321109647
 20
16.64830817916263
 30
0.0
 42
0.4142135623730952
  0
SEQEND
  5
40C
  8
FILLETEDCONTOURS
  0
POLYLINE
  5
73
  8
FILLETEDCONTOURS
 66
     1
 10
0.0
 20
0.0
 30
0.0
 70
     1
  0
VERTEX
  5
1DC
  8
FILLETEDCONTOURS
 10
-48.10885584508563
 20
16.29990076441513
 30
0.0
 42
0.4142135623730952
  0
VERTEX
  5
1DD
  8
FILLETEDCONTOURS
 10
-46.60885584508563
 20
14.79990076441513
 30
0.0
  0
VERTEX
  5
1DE
  8
FILLETEDCONTOURS
 10
-41.10885584508563
 20
14.79990076441513
 30
0.0
  0
VERTEX
  5
1DF
  8
FILLETEDCONTOURS
 10
-40.66951601686543
 20
15.23924059263518
 30
0.0
  0
VERTEX
  5
1E0
  8
FILLETEDCONTOURS
 10
-41.10885584508563
 20
14.79990076441513
 30
0.0
  0
VERTEX
  5
1E1
  8
FILLETEDCONTOURS
 10
-41.10885584508563
 20
11.19990076441499
 30
0.0
 42
0.4142135623730952
  0
VERTEX
  5
1E2
  8
FILLETEDCONTOURS
 10
-39.60885584508563
 20
9.699900764414991
 30
0.0
  0
VERTEX
  5
1E3
  8
FILLETEDCONTOURS
 10
-32.60885584508563
 20
9.699900764414991
 30
0.0
 42
0.4142135623730952
  0
VERTEX
  5
1E4
  8
FILLETEDCONTOURS
 10
-31.10885584508563
 20
11.19990076441499
 30
0.0
  0
VERTEX
  5
1E5
  8
FILLETEDCONTOURS
 10
-31.10885584508563
 20
14.79990076441513
 30
0.0
  0
VERTEX
  5
1E6
  8
FILLETEDCONTOURS
 10
-31.54819567330574
 20
15.23924059263518
 30
0.0
  0
VERTEX
  5
1E7
  8
FILLETEDCONTOURS
 10
-31.10885584508563
 20
14.79990076441513
 30
0.0
  0
VERTEX
  5
1E8
  8
FILLETEDCONTOURS
 10
-27.10885584508563
 20
14.79990076441513
 30
0.0
  0
VERTEX
  5
1E9
  8
FILLETEDCONTOURS
 10
-26.66951601686543
 20
15.23924059263518
 30
0.0
  0
VERTEX
  5
1EA
  8
FILLETEDCONTOURS
 10
-27.10885584508563
 20
14.79990076441513
 30
0.0
  0
VERTEX
  5
1EB
  8
FILLETEDCONTOURS
 10
-27.10885584508563
 20
11.19990076441499
 30
0.0
 42
0.4142135623730952
  0
VERTEX
  5
1EC
  8
FILLETEDCONTOURS
 10
-25.60885584508563
 20
9.699900764414991
 30
0.0
  0
VERTEX
  5
1ED
  8
FILLETEDCONTOURS
 10
-18.60885584508563
 20
9.699900764414991
 30
0.0
 42
0.4142135623730952
  0
VERTEX
  5
1EE
  8
FILLETEDCONTOURS
 10
-17.10885584508563
 20
11.19990076441499
 30
0.0
  0
VERTEX
  5
1EF
  8
FILLETEDCONTOURS
 10
-17.10885584508563
 20
14.79990076441513
 30
0.0
  0
VERTEX
  5
1F0
  8
FILLETEDCONTOURS
 10
-17.54819567330574
 20
15.23924059263518
 30
0.0
  0
VERTEX
  5
1F1
  8
FILLETEDCONTOURS
 10
-17.10885584508563
 20
14.79990076441513
 30
0.0
  0
VERTEX
  5
1F2
  8
FILLETEDCONTOURS
 10
-13.10885584508563
 20
14.79990076441513
 30
0.0
  0
VERTEX
  5
1F3
  8
FILLETEDCONTOURS
 10
-12.66951601686543
 20
15.23924059263518
 30
0.0
  0
VERTEX
  5
1F4
  8
FILLETEDCONTOURS
 10
-13.10885584508563
 20
14.79990076441513
 30
0.0
  0
VERTEX
  5
1F5
  8
FILLETEDCONTOURS
 10
-13.10885584508563
 20
11.19990076441499
 30
0.0
 42
0.4142135623730952
  0
VERTEX
  5
1F6
  8
FILLETEDCONTOURS
 10
-11.60885584508563
 20
9.699900764414991
 30
0.0
  0
VERTEX
  5
1F7
  8
FILLETEDCONTOURS
 10
-1.508855845085549
 20
9.699900764414991
 30
0.0
 42
0.4142135623730952
  0
VERTEX
  5
1F8
  8
FILLETEDCONTOURS
 10
-0.0088558450855487
 20
11.19990076441499
 30
0.0
  0
VERTEX
  5
1F9
  8
FILLETEDCONTOURS
 10
-0.0088558450855487
 20
16.29990076441513
 30
0.0
  0
VERTEX
  5
1FA
  8
FILLETEDCONTOURS
 10
-0.0088558450855487
 20
34.07767854219279
 30
0.0
 42
0.4142135623730952
  0
VERTEX
  5
1FB
  8
FILLETEDCONTOURS
 10
-1.508855845085549
 20
35.57767854219279
 30
0.0
  0
VERTEX
  5
1FC
  8
FILLETEDCONTOURS
 10
-10.10885584508563
 20
35.57767854219279
 30
0.0
  0
VERTEX
  5
1FD
  8
FILLETEDCONTOURS
 10
-10.54819567330574
 20
35.13833871397273
 30
0.0
  0
VERTEX
  5
1FE
  8
FILLETEDCONTOURS
 10
-10.10885584508563
 20
35.57767854219279
 30
0.0
  0
VERTEX
  5
1FF
  8
FILLETEDCONTOURS
 10
-10.10885584508563
 20
50.35545631997061
 30
0.0
  0
VERTEX
  5
200
  8
FILLETEDCONTOURS
 10
-10.54819567330574
 20
50.79479614819078
 30
0.0
  0
VERTEX
  5
201
  8
FILLETEDCONTOURS
 10
-10.10885584508563
 20
50.35545631997061
 30
0.0
  0
VERTEX
  5
202
  8
FILLETEDCONTOURS
 10
-1.508855845085549
 20
50.35545631997061
 30
0.0
 42
0.4142135623730952
  0
VERTEX
  5
203
  8
FILLETEDCONTOURS
 10
-0.0088558450855487
 20
51.85545631997061
 30
0.0
  0
VERTEX
  5
204
  8
FILLETEDCONTOURS
 10
-0.0088558450855487
 20
69.63323409774839
 30
0.0
 42
0.4142135623730952
  0
VERTEX
  5
205
  8
FILLETEDCONTOURS
 10
-1.508855845085549
 20
71.13323409774839
 30
0.0
  0
VERTEX
  5
206
  8
FILLETEDCONTOURS
 10
-10.10885584508563
 20
71.13323409774839
 30
0.0
  0
VERTEX
  5
207
  8
FILLETEDCONTOURS
 10
-10.54819567330574
 20
70.69389426952822
 30
0.0
  0
VERTEX
  5
208
  8
FILLETEDCONTOURS
 10
-10.10885584508563
 20
71.13323409774839
 30
0.0
  0
VERTEX
  5
209
  8
FILLETEDCONTOURS
 10
-10.10885584508563
 20
85.9110118755261
 30
0.0
  0
VERTEX
  5
20A
  8
FILLETEDCONTOURS
 10
-10.54819567330574
 20
86.35035170374638
 30
0.0
  0
VERTEX
  5
20B
  8
FILLETEDCONTOURS
 10
-10.10885584508563
 20
85.9110118755261
 30
0.0
  0
VERTEX
  5
20C
  8
FILLETEDCONTOURS
 10
-1.508855845085549
 20
85.9110118755261
 30
0.0
 42
0.4142135623730952
  0
VERTEX
  5
20D
  8
FILLETEDCONTOURS
 10
-0.0088558450855487
 20
87.4110118755261
 30
0.0
  0
VERTEX
  5
20E
  8
FILLETEDCONTOURS
 10
-0.0088558450855487
 20
105.188789653304
 30
0.0
 42
0.4142135623730952
  0
VERTEX
  5
20F
  8
FILLETEDCONTOURS
 10
-1.508855845085549
 20
106.688789653304
 30
0.0
  0
VERTEX
  5
210
  8
FILLETEDCONTOURS
 10
-10.10885584508563
 20
106.688789653304
 30
0.0
  0
VERTEX
  5
211
  8
FILLETEDCONTOURS
 10
-10.54819567330574
 20
106.2494498250838
 30
0.0
  0
VERTEX
  5
212
  8
FILLETEDCONTOURS
 10
-10.10885584508563
 20
106.688789653304
 30
0.0
  0
VERTEX
  5
213
  8
FILLETEDCONTOURS
 10
-10.10885584508563
 20
121.4665674310817
 30
0.0
  0
VERTEX
  5
214
  8
FILLETEDCONTOURS
 10
-10.54819567330574
 20
121.9059072593019
 30
0.0
  0
VERTEX
  5
215
  8
FILLETEDCONTOURS
 10
-10.10885584508563
 20
121.4665674310817
 30
0.0
  0
VERTEX
  5
216
  8
FILLETEDCONTOURS
 10
-1.508855845085549
 20
121.4665674310817
 30
0.0
 42
0.4142135623730952
  0
VERTEX
  5
217
  8
FILLETEDCONTOURS
 10
-0.0088558450855487
 20
122.9665674310817
 30
0.0
  0
VERTEX
  5
218
  8
FILLETEDCONTOURS
 10
-0.0088558450855487
 20
140.7443452088595
 30
0.0
 42
0.4142135623730952
  0
VERTEX
  5
219
  8
FILLETEDCONTOURS
 10
-1.508855845085549
 20
142.2443452088595
 30
0.0
  0
VERTEX
  5
21A
  8
FILLETEDCONTOURS
 10
-10.10885584508563
 20
142.2443452088595
 30
0.0
  0
VERTEX
  5
21B
  8
FILLETEDCONTOURS
 10
-10.54819567330574
 20
141.8050053806393
 30
0.0
  0
VERTEX
  5
21C
  8
FILLETEDCONTOURS
 10
-10.10885584508563
 20
142.2443452088595
 30
0.0
  0
VERTEX
  5
21D
  8
FILLETEDCONTOURS
 10
-10.10885584508563
 20
157.0221229866372
 30
0.0
  0
VERTEX
  5
21E
  8
FILLETEDCONTOURS
 10
-10.54819567330574
 20
157.4614628148575
 30
0.0
  0
VERTEX
  5
21F
  8
FILLETEDCONTOURS
 10
-10.10885584508563
 20
157.0221229866372
 30
0.0
  0
VERTEX
  5
220
  8
FILLETEDCONTOURS
 10
-1.508855845085549
 20
157.0221229866372
 30
0.0
 42
0.4142135623730952
  0
VERTEX
  5
221
  8
FILLETEDCONTOURS
 10
-0.0088558450855487
 20
158.5221229866372
 30
0.0
  0
VERTEX
  5
222
  8
FILLETEDCONTOURS
 10
-0.0088558450855487
 20
176.2999007644151
 30
0.0
  0
VERTEX
  5
223
  8
FILLETEDCONTOURS
 10
-0.0088558450855487
 20
181.399900764415
 30
0.0
 42
0.4142135623730952
  0
VERTEX
  5
224
  8
FILLETEDCONTOURS
 10
-1.508855845085549
 20
182.899900764415
 30
0.0
  0
VERTEX
  5
225
  8
FILLETEDCONTOURS
 10
-11.60885584508563
 20
182.899900764415
 30
0.0
 42
0.4142135623730952
  0
VERTEX
  5
226
  8
FILLETEDCONTOURS
 10
-13.10885584508563
 20
181.399900764415
 30
0.0
  0
VERTEX
  5
227
  8
FILLETEDCONTOURS
 10
-13.10885584508563
 20
177.7999007644151
 30
0.0
  0
VERTEX
  5
228
  8
FILLETEDCONTOURS
 10
-12.66951601686543
 20
177.3605609361949
 30
0.0
  0
VERTEX
  5
229
  8
FILLETEDCONTOURS
 10
-13.10885584508563
 20
177.7999007644151
 30
0.0
  0
VERTEX
  5
22A
  8
FILLETEDCONTOURS
 10
-17.10885584508563
 20
177.7999007644151
 30
0.0
  0
VERTEX
  5
22B
  8
FILLETEDCONTOURS
 10
-17.54819567330574
 20
177.3605609361949
 30
0.0
  0
VERTEX
  5
22C
  8
FILLETEDCONTOURS
 10
-17.10885584508563
 20
177.7999007644151
 30
0.0
  0
VERTEX
  5
22D
  8
FILLETEDCONTOURS
 10
-17.10885584508563
 20
181.3999007644151
 30
0.0
 42
0.4142135623730952
  0
VERTEX
  5
22E
  8
FILLETEDCONTOURS
 10
-18.60885584508563
 20
182.8999007644151
 30
0.0
  0
VERTEX
  5
22F
  8
FILLETEDCONTOURS
 10
-25.60885584508563
 20
182.8999007644151
 30
0.0
 42
0.4142135623730952
  0
VERTEX
  5
230
  8
FILLETEDCONTOURS
 10
-27.10885584508563
 20
181.3999007644151
 30
0.0
  0
VERTEX
  5
231
  8
FILLETEDCONTOURS
 10
-27.10885584508563
 20
177.7999007644151
 30
0.0
  0
VERTEX
  5
232
  8
FILLETEDCONTOURS
 10
-26.66951601686543
 20
177.3605609361949
 30
0.0
  0
VERTEX
  5
233
  8
FILLETEDCONTOURS
 10
-27.10885584508563
 20
177.7999007644151
 30
0.0
  0
VERTEX
  5
234
  8
FILLETEDCONTOURS
 10
-31.10885584508563
 20
177.7999007644151
 30
0.0
  0
VERTEX
  5
235
  8
FILLETEDCONTOURS
 10
-31.54819567330574
 20
177.3605609361949
 30
0.0
  0
VERTEX
  5
236
  8
FILLETEDCONTOURS
 10
-31.10885584508563
 20
177.7999007644151
 30
0.0
  0
VERTEX
  5
237
  8
FILLETEDCONTOURS
 10
-31.10885584508563
 20
181.3999007644151
 30
0.0
 42
0.4142135623730952
  0
VERTEX
  5
238
  8
FILLETEDCONTOURS
 10
-32.60885584508563
 20
182.8999007644151
 30
0.0
  0
VERTEX
  5
239
  8
FILLETEDCONTOURS
 10
-39.60885584508563
 20
182.8999007644151
 30
0.0
 42
0.4142135623730952
  0
VERTEX
  5
23A
  8
FILLETEDCONTOURS
 10
-41.10885584508563
 20
181.3999007644151
 30
0.0
  0
VERTEX
  5
23B
  8
FILLETEDCONTOURS
 10
-41.10885584508563
 20
177.7999007644151
 30
0.0
  0
VERTEX
  5
23C
  8
FILLETEDCONTOURS
 10
-40.66951601686543
 20
177.3605609361949
 30
0.0
  0
VERTEX
  5
23D
  8
FILLETEDCONTOURS
 10
-41.10885584508563
 20
177.7999007644151
 30
0.0
  0
VERTEX
  5
23E
  8
FILLETEDCONTOURS
 10
-46.60885584508563
 20
177.7999007644151
 30
0.0
 42
0.4142135623730952
  0
VERTEX
  5
23F
  8
FILLETEDCONTOURS
 10
-48.10885584508563
 20
176.2999007644151
 30
0.0
  0
SEQEND
  5
40D
  8
FILLETEDCONTOURS
  0
POLYLINE
  5
74
  8
FILLETEDCONTOURS
 66
     1
 10
0.0
 20
0.0
 30
0.0
 70
     1
  0
VERTEX
  5
240
  8
FILLETEDCONTOURS
 10
10.24073263228067
 20
38.52457566153439
 30
0.0
  0
VERTEX
  5
241
  8
FILLETEDCONTOURS
 10
15.34073263228066
 20
38.52457566153439
 30
0.0
  0
VERTEX
  5
242
  8
FILLETEDCONTOURS
 10
115.3407326322807
 20
38.52457566153439
 30
0.0
  0
VERTEX
  5
243
  8
FILLETEDCONTOURS
 10
120.4407326322807
 20
38.52457566153439
 30
0.0
 42
0.4142135623730952
  0
VERTEX
  5
244
  8
FILLETEDCONTOURS
 10
121.9407326322807
 20
40.02457566153439
 30
0.0
  0
VERTEX
  5
245
  8
FILLETEDCONTOURS
 10
121.9407326322807
 20
47.02457566153439
 30
0.0
 42
0.4142135623730952
  0
VERTEX
  5
246
  8
FILLETEDCONTOURS
 10
120.4407326322807
 20
48.52457566153439
 30
0.0
  0
VERTEX
  5
247
  8
FILLETEDCONTOURS
 10
116.8407326322807
 20
48.52457566153439
 30
0.0
  0
VERTEX
  5
248
  8
FILLETEDCONTOURS
 10
116.4013928040605
 20
48.08523583331433
 30
0.0
  0
VERTEX
  5
249
  8
FILLETEDCONTOURS
 10
116.8407326322807
 20
48.52457566153439
 30
0.0
  0
VERTEX
  5
24A
  8
FILLETEDCONTOURS
 10
116.8407326322807
 20
52.52457566153439
 30
0.0
  0
VERTEX
  5
24B
  8
FILLETEDCONTOURS
 10
116.4013928040605
 20
52.96391548975461
 30
0.0
  0
VERTEX
  5
24C
  8
FILLETEDCONTOURS
 10
116.8407326322807
 20
52.52457566153439
 30
0.0
  0
VERTEX
  5
24D
  8
FILLETEDCONTOURS
 10
120.4407326322807
 20
52.52457566153439
 30
0.0
 42
0.4142135623730952
  0
VERTEX
  5
24E
  8
FILLETEDCONTOURS
 10
121.9407326322807
 20
54.02457566153439
 30
0.0
  0
VERTEX
  5
24F
  8
FILLETEDCONTOURS
 10
121.9407326322807
 20
61.02457566153439
 30
0.0
 42
0.4142135623730952
  0
VERTEX
  5
250
  8
FILLETEDCONTOURS
 10
120.4407326322807
 20
62.52457566153439
 30
0.0
  0
VERTEX
  5
251
  8
FILLETEDCONTOURS
 10
116.8407326322807
 20
62.52457566153439
 30
0.0
  0
VERTEX
  5
252
  8
FILLETEDCONTOURS
 10
116.4013928040605
 20
62.08523583331433
 30
0.0
  0
VERTEX
  5
253
  8
FILLETEDCONTOURS
 10
116.8407326322807
 20
62.52457566153439
 30
0.0
  0
VERTEX
  5
254
  8
FILLETEDCONTOURS
 10
116.8407326322807
 20
66.52457566153439
 30
0.0
  0
VERTEX
  5
255
  8
FILLETEDCONTOURS
 10
116.4013928040605
 20
66.96391548975461
 30
0.0
  0
VERTEX
  5
256
  8
FILLETEDCONTOURS
 10
116.8407326322807
 20
66.52457566153439
 30
0.0
  0
VERTEX
  5
257
  8
FILLETEDCONTOURS
 10
120.4407326322807
 20
66.52457566153439
 30
0.0
 42
0.4142135623730952
  0
VERTEX
  5
258
  8
FILLETEDCONTOURS
 10
121.9407326322807
 20
68.02457566153439
 30
0.0
  0
VERTEX
  5
259
  8
FILLETEDCONTOURS
 10
121.9407326322807
 20
75.02457566153439
 30
0.0
 42
0.4142135623730952
  0
VERTEX
  5
25A
  8
FILLETEDCONTOURS
 10
120.4407326322807
 20
76.52457566153439
 30
0.0
  0
VERTEX
  5
25B
  8
FILLETEDCONTOURS
 10
116.8407326322807
 20
76.52457566153439
 30
0.0
  0
VERTEX
  5
25C
  8
FILLETEDCONTOURS
 10
116.4013928040605
 20
76.08523583331433
 30
0.0
  0
VERTEX
  5
25D
  8
FILLETEDCONTOURS
 10
116.8407326322807
 20
76.52457566153439
 30
0.0
  0
VERTEX
  5
25E
  8
FILLETEDCONTOURS
 10
116.8407326322807
 20
85.12457566153452
 30
0.0
 42
0.4142135623730952
  0
VERTEX
  5
25F
  8
FILLETEDCONTOURS
 10
115.3407326322807
 20
86.62457566153452
 30
0.0
  0
VERTEX
  5
260
  8
FILLETEDCONTOURS
 10
95.34073263228066
 20
86.62457566153452
 30
0.0
 42
0.4142135623730952
  0
VERTEX
  5
261
  8
FILLETEDCONTOURS
 10
93.84073263228066
 20
85.12457566153452
 30
0.0
  0
VERTEX
  5
262
  8
FILLETEDCONTOURS
 10
93.84073263228066
 20
76.52457566153439
 30
0.0
  0
VERTEX
  5
263
  8
FILLETEDCONTOURS
 10
94.28007246050086
 20
76.08523583331433
 30
0.0
  0
VERTEX
  5
264
  8
FILLETEDCONTOURS
 10
93.84073263228066
 20
76.52457566153439
 30
0.0
  0
VERTEX
  5
265
  8
FILLETEDCONTOURS
 10
76.84073263228066
 20
76.52457566153439
 30
0.0
  0
VERTEX
  5
266
  8
FILLETEDCONTOURS
 10
76.40139280406046
 20
76.08523583331433
 30
0.0
  0
VERTEX
  5
267
  8
FILLETEDCONTOURS
 10
76.84073263228066
 20
76.52457566153439
 30
0.0
  0
VERTEX
  5
268
  8
FILLETEDCONTOURS
 10
76.84073263228066
 20
85.12457566153452
 30
0.0
 42
0.4142135623730835
  0
VERTEX
  5
269
  8
FILLETEDCONTOURS
 10
75.34073263228066
 20
86.62457566153452
 30
0.0
  0
VERTEX
  5
26A
  8
FILLETEDCONTOURS
 10
55.34073263228066
 20
86.62457566153452
 30
0.0
 42
0.4142135623730952
  0
VERTEX
  5
26B
  8
FILLETEDCONTOURS
 10
53.84073263228066
 20
85.12457566153452
 30
0.0
  0
VERTEX
  5
26C
  8
FILLETEDCONTOURS
 10
53.84073263228066
 20
76.52457566153439
 30
0.0
  0
VERTEX
  5
26D
  8
FILLETEDCONTOURS
 10
54.28007246050086
 20
76.08523583331433
 30
0.0
  0
VERTEX
  5
26E
  8
FILLETEDCONTOURS
 10
53.84073263228066
 20
76.52457566153439
 30
0.0
  0
VERTEX
  5
26F
  8
FILLETEDCONTOURS
 10
36.84073263228066
 20
76.52457566153439
 30
0.0
  0
VERTEX
  5
270
  8
FILLETEDCONTOURS
 10
36.40139280406046
 20
76.08523583331433
 30
0.0
  0
VERTEX
  5
271
  8
FILLETEDCONTOURS
 10
36.84073263228066
 20
76.52457566153439
 30
0.0
  0
VERTEX
  5
272
  8
FILLETEDCONTOURS
 10
36.84073263228066
 20
85.12457566153452
 30
0.0
 42
0.4142135623730952
  0
VERTEX
  5
273
  8
FILLETEDCONTOURS
 10
35.34073263228066
 20
86.62457566153452
 30
0.0
  0
VERTEX
  5
274
  8
FILLETEDCONTOURS
 10
15.34073263228066
 20
86.62457566153452
 30
0.0
 42
0.4142135623730952
  0
VERTEX
  5
275
  8
FILLETEDCONTOURS
 10
13.84073263228066
 20
85.12457566153452
 30
0.0
  0
VERTEX
  5
276
  8
FILLETEDCONTOURS
 10
13.84073263228066
 20
76.52457566153439
 30
0.0
  0
VERTEX
  5
277
  8
FILLETEDCONTOURS
 10
14.28007246050086
 20
76.08523583331433
 30
0.0
  0
VERTEX
  5
278
  8
FILLETEDCONTOURS
 10
13.84073263228066
 20
76.52457566153439
 30
0.0
  0
VERTEX
  5
279
  8
FILLETEDCONTOURS
 10
10.24073263228067
 20
76.52457566153439
 30
0.0
 42
0.4142135623730952
  0
VERTEX
  5
27A
  8
FILLETEDCONTOURS
 10
8.740732632280668
 20
75.02457566153439
 30
0.0
  0
VERTEX
  5
27B
  8
FILLETEDCONTOURS
 10
8.740732632280668
 20
68.02457566153439
 30
0.0
 42
0.4142135623730952
  0
VERTEX
  5
27C
  8
FILLETEDCONTOURS
 10
10.24073263228067
 20
66.52457566153439
 30
0.0
  0
VERTEX
  5
27D
  8
FILLETEDCONTOURS
 10
13.84073263228066
 20
66.52457566153439
 30
0.0
  0
VERTEX
  5
27E
  8
FILLETEDCONTOURS
 10
14.28007246050086
 20
66.96391548975461
 30
0.0
  0
VERTEX
  5
27F
  8
FILLETEDCONTOURS
 10
13.84073263228066
 20
66.52457566153439
 30
0.0
  0
VERTEX
  5
280
  8
FILLETEDCONTOURS
 10
13.84073263228066
 20
62.52457566153439
 30
0.0
  0
VERTEX
  5
281
  8
FILLETEDCONTOURS
 10
14.28007246050086
 20
62.08523583331433
 30
0.0
  0
VERTEX
  5
282
  8
FILLETEDCONTOURS
 10
13.84073263228066
 20
62.52457566153439
 30
0.0
  0
VERTEX
  5
283
  8
FILLETEDCONTOURS
 10
10.24073263228067
 20
62.52457566153439
 30
0.0
 42
0.4142135623730952
  0
VERTEX
  5
284
  8
FILLETEDCONTOURS
 10
8.740732632280668
 20
61.02457566153439
 30
0.0
  0
VERTEX
  5
285
  8
FILLETEDCONTOURS
 10
8.740732632280668
 20
54.02457566153439
 30
0.0
 42
0.4142135623730952
  0
VERTEX
  5
286
  8
FILLETEDCONTOURS
 10
10.24073263228067
 20
52.52457566153439
 30
0.0
  0
VERTEX
  5
287
  8
FILLETEDCONTOURS
 10
13.84073263228066
 20
52.52457566153439
 30
0.0
  0
VERTEX
  5
288
  8
FILLETEDCONTOURS
 10
14.28007246050086
 20
52.96391548975461
 30
0.0
  0
VERTEX
  5
289
  8
FILLETEDCONTOURS
 10
13.84073263228066
 20
52.52457566153439
 30
0.0
  0
VERTEX
  5
28A
  8
FILLETEDCONTOURS
 10
13.84073263228066
 20
48.52457566153439
 30
0.0
  0
VERTEX
  5
28B
  8
FILLETEDCONTOURS
 10
14.28007246050086
 20
48.08523583331433
 30
0.0
  0
VERTEX
  5
28C
  8
FILLETEDCONTOURS
 10
13.84073263228066
 20
48.52457566153439
 30
0.0
  0
VERTEX
  5
28D
  8
FILLETEDCONTOURS
 10
10.24073263228067
 20
48.52457566153439
 30
0.0
 42
0.4142135623730952
  0
VERTEX
  5
28E
  8
FILLETEDCONTOURS
 10
8.740732632280668
 20
47.02457566153439
 30
0.0
  0
VERTEX
  5
28F
  8
FILLETEDCONTOURS
 10
8.740732632280668
 20
40.02457566153439
 30
0.0
 42
0.4142135623730952
  0
SEQEND
  5
40E
  8
FILLETEDCONTOURS
  0
POLYLINE
  5
75
  8
FILLETEDCONTOURS
 66
     1
 10
0.0
 20
0.0
 30
0.0
 70
     1
  0
VERTEX
  5
290
  8
FILLETEDCONTOURS
 10
11.40621557031994
 20
-58.80571070519835
 30
0.0
 42
0.4142135623730951
  0
VERTEX
  5
291
  8
FILLETEDCONTOURS
 10
1.506215570319966
 20
-48.90571070519832
 30
0.0
 42
0.4142135623730951
  0
VERTEX
  5
292
  8
FILLETEDCONTOURS
 10
-8.39378442968001
 20
-58.80571070519835
 30
0.0
 42
0.4142135623730951
  0
VERTEX
  5
293
  8
FILLETEDCONTOURS
 10
1.506215570319966
 20
-68.70571070519833
 30
0.0
 42
0.4142135623730951
  0
SEQEND
  5
40F
  8
FILLETEDCONTOURS
  0
POLYLINE
  5
76
  8
FILLETEDCONTOURS
 66
     1
 10
0.0
 20
0.0
 30
0.0
 70
     1
  0
VERTEX
  5
294
  8
FILLETEDCONTOURS
 10
11.40621557031994
 20
-88.60571070519836
 30
0.0
 42
0.4142135623730951
  0
VERTEX
  5
295
  8
FILLETEDCONTOURS
 10
1.506215570319966
 20
-78.70571070519833
 30
0.0
 42
0.4142135623730951
  0
VERTEX
  5
296
  8
FILLETEDCONTOURS
 10
-8.39378442968001
 20
-88.60571070519836
 30
0.0
 42
0.4142135623730951
  0
VERTEX
  5
297
  8
FILLETEDCONTOURS
 10
1.506215570319966
 20
-98.50571070519823
 30
0.0
 42
0.4142135623730951
  0
SEQEND
  5
410
  8
FILLETEDCONTOURS
  0
POLYLINE
  5
77
  8
FILLETEDCONTOURS
 66
     1
 10
0.0
 20
0.0
 30
0.0
 70
     1
  0
VERTEX
  5
298
  8
FILLETEDCONTOURS
 10
11.40621557031994
 20
-118.4057107051983
 30
0.0
 42
0.4142135623730951
  0
VERTEX
  5
299
  8
FILLETEDCONTOURS
 10
1.506215570319966
 20
-108.5057107051982
 30
0.0
 42
0.4142135623730951
  0
VERTEX
  5
29A
  8
FILLETEDCONTOURS
 10
-8.39378442968001
 20
-118.4057107051983
 30
0.0
 42
0.4142135623730951
  0
VERTEX
  5
29B
  8
FILLETEDCONTOURS
 10
1.506215570319966
 20
-128.3057107051982
 30
0.0
 42
0.4142135623730951
  0
SEQEND
  5
411
  8
FILLETEDCONTOURS
  0
POLYLINE
  5
78
  8
FILLETEDCONTOURS
 66
     1
 10
0.0
 20
0.0
 30
0.0
 70
     1
  0
VERTEX
  5
29C
  8
FILLETEDCONTOURS
 10
41.20621557031993
 20
-58.80571070519835
 30
0.0
 42
0.4142135623730951
  0
VERTEX
  5
29D
  8
FILLETEDCONTOURS
 10
31.30621557031995
 20
-48.90571070519832
 30
0.0
 42
0.4142135623730951
  0
VERTEX
  5
29E
  8
FILLETEDCONTOURS
 10
21.40621557031997
 20
-58.80571070519835
 30
0.0
 42
0.4142135623730951
  0
VERTEX
  5
29F
  8
FILLETEDCONTOURS
 10
31.30621557031995
 20
-68.70571070519833
 30
0.0
 42
0.4142135623730951
  0
SEQEND
  5
412
  8
FILLETEDCONTOURS
  0
POLYLINE
  5
79
  8
FILLETEDCONTOURS
 66
     1
 10
0.0
 20
0.0
 30
0.0
 70
     1
  0
VERTEX
  5
2A0
  8
FILLETEDCONTOURS
 10
41.20621557031993
 20
-88.60571070519836
 30
0.0
 42
0.4142135623730951
  0
VERTEX
  5
2A1
  8
FILLETEDCONTOURS
 10
31.30621557031995
 20
-78.70571070519833
 30
0.0
 42
0.4142135623730951
  0
VERTEX
  5
2A2
  8
FILLETEDCONTOURS
 10
21.40621557031997
 20
-88.60571070519836
 30
0.0
 42
0.4142135623730951
  0
VERTEX
  5
2A3
  8
FILLETEDCONTOURS
 10
31.30621557031995
 20
-98.50571070519823
 30
0.0
 42
0.4142135623730951
  0
SEQEND
  5
413
  8
FILLETEDCONTOURS
  0
POLYLINE
  5
7A
  8
FILLETEDCONTOURS
 66
     1
 10
0.0
 20
0.0
 30
0.0
 70
     1
  0
VERTEX
  5
2A4
  8
FILLETEDCONTOURS
 10
41.20621557031993
 20
-118.4057107051983
 30
0.0
 42
0.4142135623730951
  0
VERTEX
  5
2A5
  8
FILLETEDCONTOURS
 10
31.30621557031995
 20
-108.5057107051982
 30
0.0
 42
0.4142135623730951
  0
VERTEX
  5
2A6
  8
FILLETEDCONTOURS
 10
21.40621557031997
 20
-118.4057107051983
 30
0.0
 42
0.4142135623730951
  0
VERTEX
  5
2A7
  8
FILLETEDCONTOURS
 10
31.30621557031995
 20
-128.3057107051982
 30
0.0
 42
0.4142135623730951
  0
SEQEND
  5
414
  8
FILLETEDCONTOURS
  0
POLYLINE
  5
7B
  8
FILLETEDCONTOURS
 66
     1
 10
0.0
 20
0.0
 30
0.0
 70
     1
  0
VERTEX
  5
2A8
  8
FILLETEDCONTOURS
 10
71.00621557031991
 20
-58.80571070519835
 30
0.0
 42
0.4142135623730951
  0
VERTEX
  5
2A9
  8
FILLETEDCONTOURS
 10
61.10621557031993
 20
-48.90571070519832
 30
0.0
 42
0.4142135623730951
  0
VERTEX
  5
2AA
  8
FILLETEDCONTOURS
 10
51.20621557031996
 20
-58.80571070519835
 30
0.0
 42
0.4142135623730951
  0
VERTEX
  5
2AB
  8
FILLETEDCONTOURS
 10
61.10621557031993
 20
-68.70571070519833
 30
0.0
 42
0.4142135623730951
  0
SEQEND
  5
415
  8
FILLETEDCONTOURS
  0
POLYLINE
  5
7C
  8
FILLETEDCONTOURS
 66
     1
 10
0.0
 20
0.0
 30
0.0
 70
     1
  0
VERTEX
  5
2AC
  8
FILLETEDCONTOURS
 10
71.00621557031991
 20
-88.60571070519836
 30
0.0
 42
0.4142135623730951
  0
VERTEX
  5
2AD
  8
FILLETEDCONTOURS
 10
61.10621557031993
 20
-78.70571070519833
 30
0.0
 42
0.4142135623730951
  0
VERTEX
  5
2AE
  8
FILLETEDCONTOURS
 10
51.20621557031998
 20
-88.60571070519836
 30
0.0
 42
0.4142135623730951
  0
VERTEX
  5
2AF
  8
FILLETEDCONTOURS
 10
61.10621557031993
 20
-98.50571070519823
 30
0.0
 42
0.4142135623730951
  0
SEQEND
  5
416
  8
FILLETEDCONTOURS
  0
POLYLINE
  5
7D
  8
FILLETEDCONTOURS
 66
     1
 10
0.0
 20
0.0
 30
0.0
 70
     1
  0
VERTEX
  5
2B0
  8
FILLETEDCONTOURS
 10
71.00621557031991
 20
-118.4057107051983
 30
0.0
 42
0.4142135623730951
  0
VERTEX
  5
2B1
  8
FILLETEDCONTOURS
 10
61.10621557031993
 20
-108.5057107051982
 30
0.0
 42
0.4142135623730951
  0
VERTEX
  5
2B2
  8
FILLETEDCONTOURS
 10
51.20621557031996
 20
-118.4057107051983
 30
0.0
 42
0.4142135623730951
  0
VERTEX
  5
2B3
  8
FILLETEDCONTOURS
 10
61.10621557031993
 20
-128.3057107051982
 30
0.0
 42
0.4142135623730951
  0
SEQEND
  5
417
  8
FILLETEDCONTOURS
  0
POLYLINE
  5
7E
  8
FILLETEDCONTOURS
 66
     1
 10
0.0
 20
0.0
 30
0.0
 70
     1
  0
VERTEX
  5
2B4
  8
FILLETEDCONTOURS
 10
100.8062155703199
 20
-58.80571070519835
 30
0.0
 42
0.4142135623730951
  0
VERTEX
  5
2B5
  8
FILLETEDCONTOURS
 10
90.90621557031989
 20
-48.90571070519832
 30
0.0
 42
0.4142135623730951
  0
VERTEX
  5
2B6
  8
FILLETEDCONTOURS
 10
81.00621557031997
 20
-58.80571070519835
 30
0.0
 42
0.4142135623730951
  0
VERTEX
  5
2B7
  8
FILLETEDCONTOURS
 10
90.90621557031989
 20
-68.70571070519833
 30
0.0
 42
0.4142135623730951
  0
SEQEND
  5
418
  8
FILLETEDCONTOURS
  0
POLYLINE
  5
7F
  8
FILLETEDCONTOURS
 66
     1
 10
0.0
 20
0.0
 30
0.0
 70
     1
  0
VERTEX
  5
2B8
  8
FILLETEDCONTOURS
 10
100.8062155703199
 20
-88.60571070519836
 30
0.0
 42
0.4142135623730951
  0
VERTEX
  5
2B9
  8
FILLETEDCONTOURS
 10
90.90621557031989
 20
-78.70571070519833
 30
0.0
 42
0.4142135623730951
  0
VERTEX
  5
2BA
  8
FILLETEDCONTOURS
 10
81.00621557031997
 20
-88.60571070519836
 30
0.0
 42
0.4142135623730951
  0
VERTEX
  5
2BB
  8
FILLETEDCONTOURS
 10
90.90621557031989
 20
-98.50571070519823
 30
0.0
 42
0.4142135623730951
  0
SEQEND
  5
419
  8
FILLETEDCONTOURS
  0
POLYLINE
  5
80
  8
FILLETEDCONTOURS
 66
     1
 10
0.0
 20
0.0
 30
0.0
 70
     1
  0
VERTEX
  5
2BC
  8
FILLETEDCONTOURS
 10
100.8062155703199
 20
-118.4057107051983
 30
0.0
 42
0.4142135623730951
  0
VERTEX
  5
2BD
  8
FILLETEDCONTOURS
 10
90.90621557031989
 20
-108.5057107051982
 30
0.0
 42
0.4142135623730951
  0
VERTEX
  5
2BE
  8
FILLETEDCONTOURS
 10
81.00621557031997
 20
-118.4057107051983
 30
0.0
 42
0.4142135623730951
  0
VERTEX
  5
2BF
  8
FILLETEDCONTOURS
 10
90.90621557031989
 20
-128.3057107051982
 30
0.0
 42
0.4142135623730951
  0
SEQEND
  5
41A
  8
FILLETEDCONTOURS
  0
POLYLINE
  5
81
  8
FILLETEDCONTOURS
 66
     1
 10
0.0
 20
0.0
 30
0.0
 70
     1
  0
VERTEX
  5
2C0
  8
FILLETEDCONTOURS
 10
130.6062155703199
 20
-58.80571070519835
 30
0.0
 42
0.4142135623730951
  0
VERTEX
  5
2C1
  8
FILLETEDCONTOURS
 10
120.7062155703199
 20
-48.90571070519832
 30
0.0
 42
0.4142135623730951
  0
VERTEX
  5
2C2
  8
FILLETEDCONTOURS
 10
110.8062155703199
 20
-58.80571070519835
 30
0.0
 42
0.4142135623730951
  0
VERTEX
  5
2C3
  8
FILLETEDCONTOURS
 10
120.7062155703199
 20
-68.70571070519833
 30
0.0
 42
0.4142135623730951
  0
SEQEND
  5
41B
  8
FILLETEDCONTOURS
  0
POLYLINE
  5
82
  8
FILLETEDCONTOURS
 66
     1
 10
0.0
 20
0.0
 30
0.0
 70
     1
  0
VERTEX
  5
2C4
  8
FILLETEDCONTOURS
 10
130.6062155703199
 20
-88.60571070519836
 30
0.0
 42
0.4142135623730951
  0
VERTEX
  5
2C5
  8
FILLETEDCONTOURS
 10
120.7062155703199
 20
-78.70571070519833
 30
0.0
 42
0.4142135623730951
  0
VERTEX
  5
2C6
  8
FILLETEDCONTOURS
 10
110.8062155703199
 20
-88.60571070519836
 30
0.0
 42
0.4142135623730951
  0
VERTEX
  5
2C7
  8
FILLETEDCONTOURS
 10
120.7062155703199
 20
-98.50571070519823
 30
0.0
 42
0.4142135623730951
  0
SEQEND
  5
41C
  8
FILLETEDCONTOURS
  0
POLYLINE
  5
83
  8
FILLETEDCONTOURS
 66
     1
 10
0.0
 20
0.0
 30
0.0
 70
     1
  0
VERTEX
  5
2C8
  8
FILLETEDCONTOURS
 10
130.6062155703199
 20
-118.4057107051983
 30
0.0
 42
0.4142135623730951
  0
VERTEX
  5
2C9
  8
FILLETEDCONTOURS
 10
120.7062155703199
 20
-108.5057107051982
 30
0.0
 42
0.4142135623730951
  0
VERTEX
  5
2CA
  8
FILLETEDCONTOURS
 10
110.8062155703199
 20
-118.4057107051983
 30
0.0
 42
0.4142135623730951
  0
VERTEX
  5
2CB
  8
FILLETEDCONTOURS
 10
120.7062155703199
 20
-128.3057107051982
 30
0.0
 42
0.4142135623730951
  0
SEQEND
  5
41D
  8
FILLETEDCONTOURS
  0
POLYLINE
  5
84
  8
FILLETEDCONTOURS
 66
     1
 10
0.0
 20
0.0
 30
0.0
  0
VERTEX
  5
2CC
  8
FILLETEDCONTOURS
 10
0.8312155703199551
 20
-71.42424107556872
 30
0.0
  0
VERTEX
  5
2CD
  8
FILLETEDCONTOURS
 10
2.181215570319978
 20
-71.42424107556872
 30
0.0
  0
VERTEX
  5
2CE
  8
FILLETEDCONTOURS
 10
2.181215570319978
 20
-76.42424107556872
 30
0.0
  0
SEQEND
  5
41E
  8
FILLETEDCONTOURS
  0
POLYLINE
  5
85
  8
FILLETEDCONTOURS
 66
     1
 10
0.0
 20
0.0
 30
0.0
  0
VERTEX
  5
2CF
  8
FILLETEDCONTOURS
 10
29.68121557031995
 20
-72.97424107556867
 30
0.0
 42
-0.4238676972146167
  0
VERTEX
  5
2D0
  8
FILLETEDCONTOURS
 10
31.18121557031995
 20
-71.42424107556866
 30
0.0
 42
-0.4139114804918755
  0
VERTEX
  5
2D1
  8
FILLETEDCONTOURS
 10
32.68121557031995
 20
-72.92424107556866
 30
0.0
 42
-0.1946370063820205
  0
VERTEX
  5
2D2
  8
FILLETEDCONTOURS
 10
32.23121557031993
 20
-73.97424107556867
 30
0.0
  0
VERTEX
  5
2D3
  8
FILLETEDCONTOURS
 10
29.73121557031993
 20
-76.47424107556867
 30
0.0
  0
VERTEX
  5
2D4
  8
FILLETEDCONTOURS
 10
32.93121557031995
 20
-76.47424107556867
 30
0.0
  0
SEQEND
  5
41F
  8
FILLETEDCONTOURS
  0
POLYLINE
  5
86
  8
FILLETEDCONTOURS
 66
     1
 10
0.0
 20
0.0
 30
0.0
  0
VERTEX
  5
2D5
  8
FILLETEDCONTOURS
 10
59.95621557031993
 20
-72.68424107556876
 30
0.0
 42
-0.4548493327042687
  0
VERTEX
  5
2D6
  8
FILLETEDCONTOURS
 10
61.05621557031992
 20
-71.42424107556872
 30
0.0
 42
-0.4114350750726344
  0
VERTEX
  5
2D7
  8
FILLETEDCONTOURS
 10
62.15621557031994
 20
-72.53424107556873
 30
0.0
  0
VERTEX
  5
2D8
  8
FILLETEDCONTOURS
 10
62.15621557031994
 20
-72.68424107556876
 30
0.0
 42
-0.4121212121212124
  0
VERTEX
  5
2D9
  8
FILLETEDCONTOURS
 10
61.05621557031992
 20
-73.78424107556873
 30
0.0
  0
VERTEX
  5
2DA
  8
FILLETEDCONTOURS
 10
60.80621557031992
 20
-73.78424107556873
 30
0.0
  0
VERTEX
  5
2DB
  8
FILLETEDCONTOURS
 10
61.10621557031993
 20
-73.78424107556873
 30
0.0
 42
-0.4142857142857143
  0
VERTEX
  5
2DC
  8
FILLETEDCONTOURS
 10
62.50621557031994
 20
-75.18424107556876
 30
0.0
 42
-0.9462693881493045
  0
VERTEX
  5
2DD
  8
FILLETEDCONTOURS
 10
59.70621557031993
 20
-75.23424107556872
 30
0.0
  0
SEQEND
  5
420
  8
FILLETEDCONTOURS
  0
POLYLINE
  5
87
  8
FILLETEDCONTOURS
 66
     1
 10
0.0
 20
0.0
 30
0.0
  0
VERTEX
  5
2DE
  8
FILLETEDCONTOURS
 10
92.68121557031989
 20
-75.52424107556863
 30
0.0
  0
VERTEX
  5
2DF
  8
FILLETEDCONTOURS
 10
89.13121557031988
 20
-75.52424107556863
 30
0.0
  0
VERTEX
  5
2E0
  8
FILLETEDCONTOURS
 10
91.93121557031989
 20
-71.42424107556866
 30
0.0
  0
VERTEX
  5
2E1
  8
FILLETEDCONTOURS
 10
91.93121557031989
 20
-76.42424107556866
 30
0.0
  0
SEQEND
  5
421
  8
FILLETEDCONTOURS
  0
POLYLINE
  5
88
  8
FILLETEDCONTOURS
 66
     1
 10
0.0
 20
0.0
 30
0.0
  0
VERTEX
  5
2E2
  8
FILLETEDCONTOURS
 10
119.0067437028267
 20
-74.87424107556876
 30
0.0
 42
0.8576084699939476
  0
VERTEX
  5
2E3
  8
FILLETEDCONTOURS
 10
122.35007703616
 20
-75.22424107556873
 30
0.0
 42
0.8394311096568591
  0
VERTEX
  5
2E4
  8
FILLETEDCONTOURS
 10
119.3067437028267
 20
-73.82424107556864
 30
0.0
  0
VERTEX
  5
2E5
  8
FILLETEDCONTOURS
 10
119.7067437028267
 20
-71.42424107556872
 30
0.0
  0
VERTEX
  5
2E6
  8
FILLETEDCONTOURS
 10
122.0567437028267
 20
-71.42424107556872
 30
0.0
  0
SEQEND
  5
422
  8
FILLETEDCONTOURS
  0
POLYLINE
  5
89
  8
FILLETEDCONTOURS
 66
     1
 10
0.0
 20
0.0
 30
0.0
 70
     1
  0
VERTEX
  5
2E7
  8
FILLETEDCONTOURS
 10
1.507699469160627
 20
-106.3242410755686
 30
0.0
  0
VERTEX
  5
2E8
  8
FILLETEDCONTOURS
 10
1.681514593777536
 20
-106.3154641672098
 30
0.0
  0
VERTEX
  5
2E9
  8
FILLETEDCONTOURS
 10
1.850308764048748
 20
-106.2897031176955
 30
0.0
  0
VERTEX
  5
2EA
  8
FILLETEDCONTOURS
 10
2.013227466630724
 20
-106.2478124403696
 30
0.0
  0
VERTEX
  5
2EB
  8
FILLETEDCONTOURS
 10
2.169416188179895
 20
-106.1906466485751
 30
0.0
  0
VERTEX
  5
2EC
  8
FILLETEDCONTOURS
 10
2.318020415352748
 20
-106.1190602556561
 30
0.0
  0
VERTEX
  5
2ED
  8
FILLETEDCONTOURS
 10
2.458185634805716
 20
-106.0339077749558
 30
0.0
  0
VERTEX
  5
2EE
  8
FILLETEDCONTOURS
 10
2.589057333195228
 20
-105.9360437198179
 30
0.0
  0
VERTEX
  5
2EF
  8
FILLETEDCONTOURS
 10
2.709780997177774
 20
-105.8263226035858
 30
0.0
  0
VERTEX
  5
2F0
  8
FILLETEDCONTOURS
 10
2.819502113409754
 20
-105.7055989396032
 30
0.0
  0
VERTEX
  5
2F1
  8
FILLETEDCONTOURS
 10
2.917366168547687
 20
-105.5747272412137
 30
0.0
  0
VERTEX
  5
2F2
  8
FILLETEDCONTOURS
 10
3.002518649247975
 20
-105.4345620217608
 30
0.0
  0
VERTEX
  5
2F3
  8
FILLETEDCONTOURS
 10
3.074105042167076
 20
-105.2859577945881
 30
0.0
  0
VERTEX
  5
2F4
  8
FILLETEDCONTOURS
 10
3.131270833961423
 20
-105.1297690730389
 30
0.0
  0
VERTEX
  5
2F5
  8
FILLETEDCONTOURS
 10
3.173161511287503
 20
-104.9668503704568
 30
0.0
  0
VERTEX
  5
2F6
  8
FILLETEDCONTOURS
 10
3.198922560801776
 20
-104.7980562001857
 30
0.0
  0
VERTEX
  5
2F7
  8
FILLETEDCONTOURS
 10
3.207699469160644
 20
-104.6242410755688
 30
0.0
  0
VERTEX
  5
2F8
  8
FILLETEDCONTOURS
 10
3.198922560801776
 20
-104.4504259509519
 30
0.0
  0
VERTEX
  5
2F9
  8
FILLETEDCONTOURS
 10
3.173161511287503
 20
-104.2816317806805
 30
0.0
  0
VERTEX
  5
2FA
  8
FILLETEDCONTOURS
 10
3.131270833961423
 20
-104.1187130780986
 30
0.0
  0
VERTEX
  5
2FB
  8
FILLETEDCONTOURS
 10
3.074105042167076
 20
-103.9625243565495
 30
0.0
  0
VERTEX
  5
2FC
  8
FILLETEDCONTOURS
 10
3.002518649247975
 20
-103.8139201293765
 30
0.0
  0
VERTEX
  5
2FD
  8
FILLETEDCONTOURS
 10
2.917366168547687
 20
-103.6737549099236
 30
0.0
  0
VERTEX
  5
2FE
  8
FILLETEDCONTOURS
 10
2.819502113409754
 20
-103.542883211534
 30
0.0
  0
VERTEX
  5
2FF
  8
FILLETEDCONTOURS
 10
2.709780997177774
 20
-103.4221595475515
 30
0.0
  0
VERTEX
  5
300
  8
FILLETEDCONTOURS
 10
2.589057333195228
 20
-103.3124384313195
 30
0.0
  0
VERTEX
  5
301
  8
FILLETEDCONTOURS
 10
2.458185634805716
 20
-103.2145743761815
 30
0.0
  0
VERTEX
  5
302
  8
FILLETEDCONTOURS
 10
2.318020415352748
 20
-103.1294218954814
 30
0.0
  0
VERTEX
  5
303
  8
FILLETEDCONTOURS
 10
2.169416188179895
 20
-103.0578355025622
 30
0.0
  0
VERTEX
  5
304
  8
FILLETEDCONTOURS
 10
2.013227466630724
 20
-103.000669710768
 30
0.0
  0
VERTEX
  5
305
  8
FILLETEDCONTOURS
 10
1.850308764048748
 20
-102.9587790334418
 30
0.0
  0
VERTEX
  5
306
  8
FILLETEDCONTOURS
 10
1.681514593777536
 20
-102.9330179839275
 30
0.0
  0
VERTEX
  5
307
  8
FILLETEDCONTOURS
 10
1.507699469160627
 20
-102.9242410755687
 30
0.0
  0
VERTEX
  5
308
  8
FILLETEDCONTOURS
 10
1.333884344543719
 20
-102.9330179839275
 30
0.0
  0
VERTEX
  5
309
  8
FILLETEDCONTOURS
 10
1.165090174272507
 20
-102.9587790334418
 30
0.0
  0
VERTEX
  5
30A
  8
FILLETEDCONTOURS
 10
1.002171471690531
 20
-103.000669710768
 30
0.0
  0
VERTEX
  5
30B
  8
FILLETEDCONTOURS
 10
0.8459827501413599
 20
-103.0578355025622
 30
0.0
  0
VERTEX
  5
30C
  8
FILLETEDCONTOURS
 10
0.6973785229685063
 20
-103.1294218954814
 30
0.0
  0
VERTEX
  5
30D
  8
FILLETEDCONTOURS
 10
0.5572133035155673
 20
-103.2145743761815
 30
0.0
  0
VERTEX
  5
30E
  8
FILLETEDCONTOURS
 10
0.4263416051260265
 20
-103.3124384313195
 30
0.0
  0
VERTEX
  5
30F
  8
FILLETEDCONTOURS
 10
0.3056179411435096
 20
-103.4221595475515
 30
0.0
  0
VERTEX
  5
310
  8
FILLETEDCONTOURS
 10
0.1958968249115003
 20
-103.542883211534
 30
0.0
  0
VERTEX
  5
311
  8
FILLETEDCONTOURS
 10
0.0980327697735959
 20
-103.6737549099236
 30
0.0
  0
VERTEX
  5
312
  8
FILLETEDCONTOURS
 10
0.0128802890733084
 20
-103.8139201293765
 30
0.0
  0
VERTEX
  5
313
  8
FILLETEDCONTOURS
 10
-0.0587061038457932
 20
-103.9625243565495
 30
0.0
  0
VERTEX
  5
314
  8
FILLETEDCONTOURS
 10
-0.1158718956401685
 20
-104.1187130780986
 30
0.0
  0
VERTEX
  5
315
  8
FILLETEDCONTOURS
 10
-0.1577625729662486
 20
-104.2816317806805
 30
0.0
  0
VERTEX
  5
316
  8
FILLETEDCONTOURS
 10
-0.183523622480493
 20
-104.4504259509519
 30
0.0
  0
VERTEX
  5
317
  8
FILLETEDCONTOURS
 10
-0.1923005308393613
 20
-104.6242410755688
 30
0.0
  0
VERTEX
  5
318
  8
FILLETEDCONTOURS
 10
-0.183523622480493
 20
-104.7980562001857
 30
0.0
  0
VERTEX
  5
319
  8
FILLETEDCONTOURS
 10
-0.1577625729662486
 20
-104.9668503704568
 30
0.0
  0
VERTEX
  5
31A
  8
FILLETEDCONTOURS
 10
-0.1158718956401685
 20
-105.1297690730389
 30
0.0
  0
VERTEX
  5
31B
  8
FILLETEDCONTOURS
 10
-0.0587061038457932
 20
-105.2859577945881
 30
0.0
  0
VERTEX
  5
31C
  8
FILLETEDCONTOURS
 10
0.0128802890733084
 20
-105.4345620217608
 30
0.0
  0
VERTEX
  5
31D
  8
FILLETEDCONTOURS
 10
0.0980327697735959
 20
-105.5747272412137
 30
0.0
  0
VERTEX
  5
31E
  8
FILLETEDCONTOURS
 10
0.1958968249115003
 20
-105.7055989396032
 30
0.0
  0
VERTEX
  5
31F
  8
FILLETEDCONTOURS
 10
0.3056179411435096
 20
-105.8263226035858
 30
0.0
  0
VERTEX
  5
320
  8
FILLETEDCONTOURS
 10
0.4263416051260265
 20
-105.9360437198179
 30
0.0
  0
VERTEX
  5
321
  8
FILLETEDCONTOURS
 10
0.5572133035155673
 20
-106.0339077749558
 30
0.0
  0
VERTEX
  5
322
  8
FILLETEDCONTOURS
 10
0.6973785229685063
 20
-106.1190602556561
 30
0.0
  0
VERTEX
  5
323
  8
FILLETEDCONTOURS
 10
0.8459827501413599
 20
-106.1906466485751
 30
0.0
  0
VERTEX
  5
324
  8
FILLETEDCONTOURS
 10
1.002171471690531
 20
-106.2478124403696
 30
0.0
  0
VERTEX
  5
325
  8
FILLETEDCONTOURS
 10
1.165090174272507
 20
-106.2897031176955
 30
0.0
  0
VERTEX
  5
326
  8
FILLETEDCONTOURS
 10
1.333884344543719
 20
-106.3154641672098
 30
0.0
  0
SEQEND
  5
423
  8
FILLETEDCONTOURS
  0
POLYLINE
  5
8A
  8
FILLETEDCONTOURS
 66
     1
 10
0.0
 20
0.0
 30
0.0
  0
VERTEX
  5
327
  8
FILLETEDCONTOURS
 10
1.507699469160627
 20
-106.3242410755686
 30
0.0
 42
-0.5862971619980313
  0
VERTEX
  5
328
  8
FILLETEDCONTOURS
 10
0.0576994691606387
 20
-103.7242410755687
 30
0.0
  0
VERTEX
  5
329
  8
FILLETEDCONTOURS
 10
1.707699469160644
 20
-101.2242410755687
 30
0.0
  0
SEQEND
  5
424
  8
FILLETEDCONTOURS
  0
POLYLINE
  5
8B
  8
FILLETEDCONTOURS
 66
     1
 10
0.0
 20
0.0
 30
0.0
  0
VERTEX
  5
32A
  8
FILLETEDCONTOURS
 10
29.90621557031994
 20
-101.2242410755687
 30
0.0
  0
VERTEX
  5
32B
  8
FILLETEDCONTOURS
 10
32.70621557031996
 20
-101.2242410755687
 30
0.0
  0
VERTEX
  5
32C
  8
FILLETEDCONTOURS
 10
30.50621557031997
 20
-106.2242410755687
 30
0.0
  0
SEQEND
  5
425
  8
FILLETEDCONTOURS
  0
POLYLINE
  5
8C
  8
FILLETEDCONTOURS
 66
     1
 10
0.0
 20
0.0
 30
0.0
 70
     1
  0
VERTEX
  5
32D
  8
FILLETEDCONTOURS
 10
61.10621557031993
 20
-103.4242410755687
 30
0.0
  0
VERTEX
  5
32E
  8
FILLETEDCONTOURS
 10
60.99374696027371
 20
-103.4185618995717
 30
0.0
  0
VERTEX
  5
32F
  8
FILLETEDCONTOURS
 10
60.8845272030394
 20
-103.4018929851802
 30
0.0
  0
VERTEX
  5
330
  8
FILLETEDCONTOURS
 10
60.77910921901577
 20
-103.3747872527927
 30
0.0
  0
VERTEX
  5
331
  8
FILLETEDCONTOURS
 10
60.67804592860159
 20
-103.3377976228081
 30
0.0
  0
VERTEX
  5
332
  8
FILLETEDCONTOURS
 10
60.58189025219562
 20
-103.2914770156252
 30
0.0
  0
VERTEX
  5
333
  8
FILLETEDCONTOURS
 10
60.49119511019666
 20
-103.2363783516427
 30
0.0
  0
VERTEX
  5
334
  8
FILLETEDCONTOURS
 10
60.40651342300342
 20
-103.1730545512593
 30
0.0
  0
VERTEX
  5
335
  8
FILLETEDCONTOURS
 10
60.32839811101474
 20
-103.1020585348738
 30
0.0
  0
VERTEX
  5
336
  8
FILLETEDCONTOURS
 10
60.2574020946293
 20
-103.0239432228851
 30
0.0
  0
VERTEX
  5
337
  8
FILLETEDCONTOURS
 10
60.19407829424597
 20
-102.939261535692
 30
0.0
  0
VERTEX
  5
338
  8
FILLETEDCONTOURS
 10
60.13897963026341
 20
-102.8485663936929
 30
0.0
  0
VERTEX
  5
339
  8
FILLETEDCONTOURS
 10
60.09265902308047
 20
-102.7524107172869
 30
0.0
  0
VERTEX
  5
33A
  8
FILLETEDCONTOURS
 10
60.05566939309591
 20
-102.6513474268729
 30
0.0
  0
VERTEX
  5
33B
  8
FILLETEDCONTOURS
 10
60.02856366070841
 20
-102.5459294428492
 30
0.0
  0
VERTEX
  5
33C
  8
FILLETEDCONTOURS
 10
60.01189474631687
 20
-102.4367096856149
 30
0.0
  0
VERTEX
  5
33D
  8
FILLETEDCONTOURS
 10
60.00621557031994
 20
-102.3242410755686
 30
0.0
  0
VERTEX
  5
33E
  8
FILLETEDCONTOURS
 10
60.01189474631687
 20
-102.2117724655225
 30
0.0
  0
VERTEX
  5
33F
  8
FILLETEDCONTOURS
 10
60.02856366070841
 20
-102.1025527082882
 30
0.0
  0
VERTEX
  5
340
  8
FILLETEDCONTOURS
 10
60.05566939309591
 20
-101.9971347242645
 30
0.0
  0
VERTEX
  5
341
  8
FILLETEDCONTOURS
 10
60.09265902308047
 20
-101.8960714338504
 30
0.0
  0
VERTEX
  5
342
  8
FILLETEDCONTOURS
 10
60.13897963026341
 20
-101.7999157574444
 30
0.0
  0
VERTEX
  5
343
  8
FILLETEDCONTOURS
 10
60.19407829424597
 20
-101.7092206154454
 30
0.0
  0
VERTEX
  5
344
  8
FILLETEDCONTOURS
 10
60.2574020946293
 20
-101.624538928252
 30
0.0
  0
VERTEX
  5
345
  8
FILLETEDCONTOURS
 10
60.32839811101474
 20
-101.5464236162634
 30
0.0
  0
VERTEX
  5
346
  8
FILLETEDCONTOURS
 10
60.40651342300342
 20
-101.4754275998781
 30
0.0
  0
VERTEX
  5
347
  8
FILLETEDCONTOURS
 10
60.49119511019666
 20
-101.4121037994946
 30
0.0
  0
VERTEX
  5
348
  8
FILLETEDCONTOURS
 10
60.58189025219562
 20
-101.3570051355122
 30
0.0
  0
VERTEX
  5
349
  8
FILLETEDCONTOURS
 10
60.67804592860159
 20
-101.3106845283293
 30
0.0
  0
VERTEX
  5
34A
  8
FILLETEDCONTOURS
 10
60.77910921901577
 20
-101.2736948983447
 30
0.0
  0
VERTEX
  5
34B
  8
FILLETEDCONTOURS
 10
60.8845272030394
 20
-101.2465891659571
 30
0.0
  0
VERTEX
  5
34C
  8
FILLETEDCONTOURS
 10
60.99374696027371
 20
-101.2299202515654
 30
0.0
  0
VERTEX
  5
34D
  8
FILLETEDCONTOURS
 10
61.10621557031993
 20
-101.2242410755687
 30
0.0
  0
VERTEX
  5
34E
  8
FILLETEDCONTOURS
 10
61.21868418036615
 20
-101.2299202515654
 30
0.0
  0
VERTEX
  5
34F
  8
FILLETEDCONTOURS
 10
61.32790393760047
 20
-101.2465891659571
 30
0.0
  0
VERTEX
  5
350
  8
FILLETEDCONTOURS
 10
61.4333219216241
 20
-101.2736948983447
 30
0.0
  0
VERTEX
  5
351
  8
FILLETEDCONTOURS
 10
61.53438521203827
 20
-101.3106845283293
 30
0.0
  0
VERTEX
  5
352
  8
FILLETEDCONTOURS
 10
61.63054088844424
 20
-101.3570051355122
 30
0.0
  0
VERTEX
  5
353
  8
FILLETEDCONTOURS
 10
61.72123603044321
 20
-101.4121037994946
 30
0.0
  0
VERTEX
  5
354
  8
FILLETEDCONTOURS
 10
61.80591771763645
 20
-101.4754275998781
 30
0.0
  0
VERTEX
  5
355
  8
FILLETEDCONTOURS
 10
61.88403302962513
 20
-101.5464236162634
 30
0.0
  0
VERTEX
  5
356
  8
FILLETEDCONTOURS
 10
61.95502904601057
 20
-101.624538928252
 30
0.0
  0
VERTEX
  5
357
  8
FILLETEDCONTOURS
 10
62.0183528463939
 20
-101.7092206154454
 30
0.0
  0
VERTEX
  5
358
  8
FILLETEDCONTOURS
 10
62.07345151037646
 20
-101.7999157574444
 30
0.0
  0
VERTEX
  5
359
  8
FILLETEDCONTOURS
 10
62.11977211755939
 20
-101.8960714338504
 30
0.0
  0
VERTEX
  5
35A
  8
FILLETEDCONTOURS
 10
62.15676174754395
 20
-101.9971347242645
 30
0.0
  0
VERTEX
  5
35B
  8
FILLETEDCONTOURS
 10
62.18386747993145
 20
-102.1025527082882
 30
0.0
  0
VERTEX
  5
35C
  8
FILLETEDCONTOURS
 10
62.200536394323
 20
-102.2117724655225
 30
0.0
  0
VERTEX
  5
35D
  8
FILLETEDCONTOURS
 10
62.20621557031993
 20
-102.3242410755686
 30
0.0
  0
VERTEX
  5
35E
  8
FILLETEDCONTOURS
 10
62.200536394323
 20
-102.4367096856149
 30
0.0
  0
VERTEX
  5
35F
  8
FILLETEDCONTOURS
 10
62.18386747993145
 20
-102.5459294428492
 30
0.0
  0
VERTEX
  5
360
  8
FILLETEDCONTOURS
 10
62.15676174754395
 20
-102.6513474268729
 30
0.0
  0
VERTEX
  5
361
  8
FILLETEDCONTOURS
 10
62.11977211755939
 20
-102.7524107172869
 30
0.0
  0
VERTEX
  5
362
  8
FILLETEDCONTOURS
 10
62.07345151037646
 20
-102.8485663936929
 30
0.0
  0
VERTEX
  5
363
  8
FILLETEDCONTOURS
 10
62.0183528463939
 20
-102.939261535692
 30
0.0
  0
VERTEX
  5
364
  8
FILLETEDCONTOURS
 10
61.95502904601057
 20
-103.0239432228851
 30
0.0
  0
VERTEX
  5
365
  8
FILLETEDCONTOURS
 10
61.88403302962513
 20
-103.1020585348738
 30
0.0
  0
VERTEX
  5
366
  8
FILLETEDCONTOURS
 10
61.80591771763645
 20
-103.1730545512593
 30
0.0
  0
VERTEX
  5
367
  8
FILLETEDCONTOURS
 10
61.72123603044321
 20
-103.2363783516427
 30
0.0
  0
VERTEX
  5
368
  8
FILLETEDCONTOURS
 10
61.63054088844424
 20
-103.2914770156252
 30
0.0
  0
VERTEX
  5
369
  8
FILLETEDCONTOURS
 10
61.53438521203827
 20
-103.3377976228081
 30
0.0
  0
VERTEX
  5
36A
  8
FILLETEDCONTOURS
 10
61.4333219216241
 20
-103.3747872527927
 30
0.0
  0
VERTEX
  5
36B
  8
FILLETEDCONTOURS
 10
61.32790393760047
 20
-103.4018929851802
 30
0.0
  0
VERTEX
  5
36C
  8
FILLETEDCONTOURS
 10
61.21868418036615
 20
-103.4185618995717
 30
0.0
  0
SEQEND
  5
426
  8
FILLETEDCONTOURS
  0
POLYLINE
  5
8D
  8
FILLETEDCONTOURS
 66
     1
 10
0.0
 20
0.0
 30
0.0
 70
     1
  0
VERTEX
  5
36D
  8
FILLETEDCONTOURS
 10
61.10621557031993
 20
-103.4242410755687
 30
0.0
 42
-0.4142857142857143
  0
VERTEX
  5
36E
  8
FILLETEDCONTOURS
 10
62.50621557031994
 20
-104.8242410755686
 30
0.0
  0
VERTEX
  5
36F
  8
FILLETEDCONTOURS
 10
62.50621557031994
 20
-104.9242410755687
 30
0.0
 42
-1.0
  0
VERTEX
  5
370
  8
FILLETEDCONTOURS
 10
59.70621557031993
 20
-104.9242410755687
 30
0.0
  0
VERTEX
  5
371
  8
FILLETEDCONTOURS
 10
59.70621557031993
 20
-104.8242410755686
 30
0.0
 42
-0.4142857142857144
  0
SEQEND
  5
427
  8
FILLETEDCONTOURS
  0
POLYLINE
  5
8E
  8
FILLETEDCONTOURS
 66
     1
 10
0.0
 20
0.0
 30
0.0
  0
VERTEX
  5
372
  8
FILLETEDCONTOURS
 10
90.7062155703199
 20
-106.2742410755686
 30
0.0
  0
VERTEX
  5
373
  8
FILLETEDCONTOURS
 10
92.35621557031988
 20
-103.7742410755686
 30
0.0
 42
0.1380051253523702
  0
VERTEX
  5
374
  8
FILLETEDCONTOURS
 10
92.60621557031988
 20
-102.9242410755687
 30
0.0
 42
1.0
  0
VERTEX
  5
375
  8
FILLETEDCONTOURS
 10
89.2062155703199
 20
-102.9242410755687
 30
0.0
 42
0.7699957824736615
  0
VERTEX
  5
376
  8
FILLETEDCONTOURS
 10
92.35621557031988
 20
-103.7742410755686
 30
0.0
  0
SEQEND
  5
428
  8
FILLETEDCONTOURS
  0
POLYLINE
  5
8F
  8
FILLETEDCONTOURS
 66
     1
 10
0.0
 20
0.0
 30
0.0
  0
VERTEX
  5
377
  8
FILLETEDCONTOURS
 10
117.0062155703199
 20
-101.2242410755687
 30
0.0
  0
VERTEX
  5
378
  8
FILLETEDCONTOURS
 10
118.3562155703199
 20
-101.2242410755687
 30
0.0
  0
VERTEX
  5
379
  8
FILLETEDCONTOURS
 10
118.3562155703199
 20
-106.2242410755687
 30
0.0
  0
SEQEND
  5
429
  8
FILLETEDCONTOURS
  0
POLYLINE
  5
90
  8
FILLETEDCONTOURS
 66
     1
 10
0.0
 20
0.0
 30
0.0
 70
     1
  0
VERTEX
  5
37A
  8
FILLETEDCONTOURS
 10
121.8562155703199
 20
-106.2742410755686
 30
0.0
  0
VERTEX
  5
37B
  8
FILLETEDCONTOURS
 10
121.9062155703199
 20
-106.2742410755686
 30
0.0
 42
0.4133333333333333
  0
VERTEX
  5
37C
  8
FILLETEDCONTOURS
 10
124.4062155703199
 20
-103.7742410755686
 30
0.0
  0
VERTEX
  5
37D
  8
FILLETEDCONTOURS
 10
124.4062155703199
 20
-103.7242410755687
 30
0.0
 42
0.4133333333333333
  0
VERTEX
  5
37E
  8
FILLETEDCONTOURS
 10
121.9062155703199
 20
-101.2242410755687
 30
0.0
  0
VERTEX
  5
37F
  8
FILLETEDCONTOURS
 10
121.8562155703199
 20
-101.2242410755687
 30
0.0
 42
0.4133333333333333
  0
VERTEX
  5
380
  8
FILLETEDCONTOURS
 10
119.3562155703199
 20
-103.7242410755687
 30
0.0
  0
VERTEX
  5
381
  8
FILLETEDCONTOURS
 10
119.3562155703199
 20
-103.7742410755686
 30
0.0
 42
0.4133333333333333
  0
SEQEND
  5
42A
  8
FILLETEDCONTOURS
  0
POLYLINE
  5
91
  8
FILLETEDCONTOURS
 66
     1
 10
0.0
 20
0.0
 30
0.0
  0
VERTEX
  5
382
  8
FILLETEDCONTOURS
 10
-0.3437844296799994
 20
-131.0242410755686
 30
0.0
  0
VERTEX
  5
383
  8
FILLETEDCONTOURS
 10
1.006215570319995
 20
-131.0242410755686
 30
0.0
  0
VERTEX
  5
384
  8
FILLETEDCONTOURS
 10
1.006215570319995
 20
-136.0242410755686
 30
0.0
  0
SEQEND
  5
42B
  8
FILLETEDCONTOURS
  0
POLYLINE
  5
92
  8
FILLETEDCONTOURS
 66
     1
 10
0.0
 20
0.0
 30
0.0
  0
VERTEX
  5
385
  8
FILLETEDCONTOURS
 10
2.006215570319966
 20
-131.0242410755686
 30
0.0
  0
VERTEX
  5
386
  8
FILLETEDCONTOURS
 10
3.356215570319989
 20
-131.0242410755686
 30
0.0
  0
VERTEX
  5
387
  8
FILLETEDCONTOURS
 10
3.356215570319989
 20
-136.0242410755686
 30
0.0
  0
SEQEND
  5
42C
  8
FILLETEDCONTOURS
  0
POLYLINE
  5
93
  8
FILLETEDCONTOURS
 66
     1
 10
0.0
 20
0.0
 30
0.0
  0
VERTEX
  5
388
  8
FILLETEDCONTOURS
 10
28.50621557031997
 20
-131.0742410755686
 30
0.0
  0
VERTEX
  5
389
  8
FILLETEDCONTOURS
 10
29.85621557031993
 20
-131.0742410755686
 30
0.0
  0
VERTEX
  5
38A
  8
FILLETEDCONTOURS
 10
29.85621557031993
 20
-136.0742410755686
 30
0.0
  0
SEQEND
  5
42D
  8
FILLETEDCONTOURS
  0
POLYLINE
  5
94
  8
FILLETEDCONTOURS
 66
     1
 10
0.0
 20
0.0
 30
0.0
  0
VERTEX
  5
38B
  8
FILLETEDCONTOURS
 10
30.85621557031996
 20
-132.5742410755686
 30
0.0
 42
-0.4238676972146167
  0
VERTEX
  5
38C
  8
FILLETEDCONTOURS
 10
32.35621557031996
 20
-131.0242410755686
 30
0.0
 42
-0.4139114804918755
  0
VERTEX
  5
38D
  8
FILLETEDCONTOURS
 10
33.85621557031996
 20
-132.5242410755686
 30
0.0
 42
-0.1946370063820205
  0
VERTEX
  5
38E
  8
FILLETEDCONTOURS
 10
33.40621557031994
 20
-133.5742410755686
 30
0.0
  0
VERTEX
  5
38F
  8
FILLETEDCONTOURS
 10
30.90621557031994
 20
-136.0742410755686
 30
0.0
  0
VERTEX
  5
390
  8
FILLETEDCONTOURS
 10
34.10621557031996
 20
-136.0742410755686
 30
0.0
  0
SEQEND
  5
42E
  8
FILLETEDCONTOURS
  0
POLYLINE
  5
95
  8
FILLETEDCONTOURS
 66
     1
 10
0.0
 20
0.0
 30
0.0
  0
VERTEX
  5
391
  8
FILLETEDCONTOURS
 10
58.53288223698661
 20
-131.0842410755686
 30
0.0
  0
VERTEX
  5
392
  8
FILLETEDCONTOURS
 10
59.88288223698663
 20
-131.0842410755686
 30
0.0
  0
VERTEX
  5
393
  8
FILLETEDCONTOURS
 10
59.88288223698663
 20
-136.0842410755686
 30
0.0
  0
SEQEND
  5
42F
  8
FILLETEDCONTOURS
  0
POLYLINE
  5
96
  8
FILLETEDCONTOURS
 66
     1
 10
0.0
 20
0.0
 30
0.0
  0
VERTEX
  5
394
  8
FILLETEDCONTOURS
 10
61.12954890365327
 20
-132.2842410755686
 30
0.0
 42
-0.4548493327042687
  0
VERTEX
  5
395
  8
FILLETEDCONTOURS
 10
62.22954890365327
 20
-131.0242410755686
 30
0.0
 42
-0.4114350750726344
  0
VERTEX
  5
396
  8
FILLETEDCONTOURS
 10
63.32954890365329
 20
-132.1342410755686
 30
0.0
  0
VERTEX
  5
397
  8
FILLETEDCONTOURS
 10
63.32954890365329
 20
-132.2842410755686
 30
0.0
 42
-0.4121212121212124
  0
VERTEX
  5
398
  8
FILLETEDCONTOURS
 10
62.22954890365327
 20
-133.3842410755686
 30
0.0
  0
VERTEX
  5
399
  8
FILLETEDCONTOURS
 10
61.97954890365327
 20
-133.3842410755686
 30
0.0
  0
VERTEX
  5
39A
  8
FILLETEDCONTOURS
 10
62.27954890365328
 20
-133.3842410755686
 30
0.0
 42
-0.4142857142857143
  0
VERTEX
  5
39B
  8
FILLETEDCONTOURS
 10
63.67954890365328
 20
-134.7842410755686
 30
0.0
 42
-0.9462693881493045
  0
VERTEX
  5
39C
  8
FILLETEDCONTOURS
 10
60.87954890365327
 20
-134.8342410755686
 30
0.0
  0
SEQEND
  5
430
  8
FILLETEDCONTOURS
  0
POLYLINE
  5
97
  8
FILLETEDCONTOURS
 66
     1
 10
0.0
 20
0.0
 30
0.0
  0
VERTEX
  5
39D
  8
FILLETEDCONTOURS
 10
116.2562155703199
 20
-131.0742410755686
 30
0.0
  0
VERTEX
  5
39E
  8
FILLETEDCONTOURS
 10
117.6062155703199
 20
-131.0742410755686
 30
0.0
  0
VERTEX
  5
39F
  8
FILLETEDCONTOURS
 10
117.6062155703199
 20
-136.0742410755686
 30
0.0
  0
SEQEND
  5
431
  8
FILLETEDCONTOURS
  0
POLYLINE
  5
98
  8
FILLETEDCONTOURS
 66
     1
 10
0.0
 20
0.0
 30
0.0
  0
VERTEX
  5
3A0
  8
FILLETEDCONTOURS
 10
118.6062155703199
 20
-136.0742410755686
 30
0.0
  0
VERTEX
  5
3A1
  8
FILLETEDCONTOURS
 10
121.3562155703199
 20
-131.0742410755686
 30
0.0
  0
SEQEND
  5
432
  8
FILLETEDCONTOURS
  0
POLYLINE
  5
99
  8
FILLETEDCONTOURS
 66
     1
 10
0.0
 20
0.0
 30
0.0
 70
     1
  0
VERTEX
  5
3A2
  8
FILLETEDCONTOURS
 10
123.7562155703199
 20
-133.2242410755687
 30
0.0
  0
VERTEX
  5
3A3
  8
FILLETEDCONTOURS
 10
123.6437469602736
 20
-133.2185618995717
 30
0.0
  0
VERTEX
  5
3A4
  8
FILLETEDCONTOURS
 10
123.5345272030393
 20
-133.2018929851802
 30
0.0
  0
VERTEX
  5
3A5
  8
FILLETEDCONTOURS
 10
123.4291092190157
 20
-133.1747872527927
 30
0.0
  0
VERTEX
  5
3A6
  8
FILLETEDCONTOURS
 10
123.3280459286015
 20
-133.137797622808
 30
0.0
  0
VERTEX
  5
3A7
  8
FILLETEDCONTOURS
 10
123.2318902521955
 20
-133.0914770156251
 30
0.0
  0
VERTEX
  5
3A8
  8
FILLETEDCONTOURS
 10
123.1411951101966
 20
-133.0363783516427
 30
0.0
  0
VERTEX
  5
3A9
  8
FILLETEDCONTOURS
 10
123.0565134230034
 20
-132.9730545512592
 30
0.0
  0
VERTEX
  5
3AA
  8
FILLETEDCONTOURS
 10
122.9783981110147
 20
-132.9020585348738
 30
0.0
  0
VERTEX
  5
3AB
  8
FILLETEDCONTOURS
 10
122.9074020946293
 20
-132.8239432228851
 30
0.0
  0
VERTEX
  5
3AC
  8
FILLETEDCONTOURS
 10
122.8440782942459
 20
-132.7392615356919
 30
0.0
  0
VERTEX
  5
3AD
  8
FILLETEDCONTOURS
 10
122.7889796302634
 20
-132.6485663936929
 30
0.0
  0
VERTEX
  5
3AE
  8
FILLETEDCONTOURS
 10
122.7426590230804
 20
-132.5524107172869
 30
0.0
  0
VERTEX
  5
3AF
  8
FILLETEDCONTOURS
 10
122.7056693930958
 20
-132.4513474268729
 30
0.0
  0
VERTEX
  5
3B0
  8
FILLETEDCONTOURS
 10
122.6785636607083
 20
-132.3459294428491
 30
0.0
  0
VERTEX
  5
3B1
  8
FILLETEDCONTOURS
 10
122.6618947463168
 20
-132.2367096856149
 30
0.0
  0
VERTEX
  5
3B2
  8
FILLETEDCONTOURS
 10
122.6562155703199
 20
-132.1242410755686
 30
0.0
  0
VERTEX
  5
3B3
  8
FILLETEDCONTOURS
 10
122.6618947463168
 20
-132.0117724655224
 30
0.0
  0
VERTEX
  5
3B4
  8
FILLETEDCONTOURS
 10
122.6785636607083
 20
-131.9025527082882
 30
0.0
  0
VERTEX
  5
3B5
  8
FILLETEDCONTOURS
 10
122.7056693930958
 20
-131.7971347242644
 30
0.0
  0
VERTEX
  5
3B6
  8
FILLETEDCONTOURS
 10
122.7426590230804
 20
-131.6960714338504
 30
0.0
  0
VERTEX
  5
3B7
  8
FILLETEDCONTOURS
 10
122.7889796302634
 20
-131.5999157574444
 30
0.0
  0
VERTEX
  5
3B8
  8
FILLETEDCONTOURS
 10
122.8440782942459
 20
-131.5092206154454
 30
0.0
  0
VERTEX
  5
3B9
  8
FILLETEDCONTOURS
 10
122.9074020946293
 20
-131.4245389282522
 30
0.0
  0
VERTEX
  5
3BA
  8
FILLETEDCONTOURS
 10
122.9783981110147
 20
-131.3464236162635
 30
0.0
  0
VERTEX
  5
3BB
  8
FILLETEDCONTOURS
 10
123.0565134230034
 20
-131.2754275998781
 30
0.0
  0
VERTEX
  5
3BC
  8
FILLETEDCONTOURS
 10
123.1411951101966
 20
-131.2121037994946
 30
0.0
  0
VERTEX
  5
3BD
  8
FILLETEDCONTOURS
 10
123.2318902521955
 20
-131.1570051355121
 30
0.0
  0
VERTEX
  5
3BE
  8
FILLETEDCONTOURS
 10
123.3280459286015
 20
-131.1106845283292
 30
0.0
  0
VERTEX
  5
3BF
  8
FILLETEDCONTOURS
 10
123.4291092190157
 20
-131.0736948983446
 30
0.0
  0
VERTEX
  5
3C0
  8
FILLETEDCONTOURS
 10
123.5345272030393
 20
-131.0465891659571
 30
0.0
  0
VERTEX
  5
3C1
  8
FILLETEDCONTOURS
 10
123.6437469602736
 20
-131.0299202515656
 30
0.0
  0
VERTEX
  5
3C2
  8
FILLETEDCONTOURS
 10
123.7562155703199
 20
-131.0242410755686
 30
0.0
  0
VERTEX
  5
3C3
  8
FILLETEDCONTOURS
 10
123.8686841803661
 20
-131.0299202515656
 30
0.0
  0
VERTEX
  5
3C4
  8
FILLETEDCONTOURS
 10
123.9779039376004
 20
-131.0465891659571
 30
0.0
  0
VERTEX
  5
3C5
  8
FILLETEDCONTOURS
 10
124.083321921624
 20
-131.0736948983446
 30
0.0
  0
VERTEX
  5
3C6
  8
FILLETEDCONTOURS
 10
124.1843852120382
 20
-131.1106845283292
 30
0.0
  0
VERTEX
  5
3C7
  8
FILLETEDCONTOURS
 10
124.2805408884442
 20
-131.1570051355121
 30
0.0
  0
VERTEX
  5
3C8
  8
FILLETEDCONTOURS
 10
124.3712360304432
 20
-131.2121037994946
 30
0.0
  0
VERTEX
  5
3C9
  8
FILLETEDCONTOURS
 10
124.4559177176364
 20
-131.2754275998781
 30
0.0
  0
VERTEX
  5
3CA
  8
FILLETEDCONTOURS
 10
124.5340330296251
 20
-131.3464236162635
 30
0.0
  0
VERTEX
  5
3CB
  8
FILLETEDCONTOURS
 10
124.6050290460105
 20
-131.4245389282522
 30
0.0
  0
VERTEX
  5
3CC
  8
FILLETEDCONTOURS
 10
124.6683528463938
 20
-131.5092206154454
 30
0.0
  0
VERTEX
  5
3CD
  8
FILLETEDCONTOURS
 10
124.7234515103764
 20
-131.5999157574444
 30
0.0
  0
VERTEX
  5
3CE
  8
FILLETEDCONTOURS
 10
124.7697721175593
 20
-131.6960714338504
 30
0.0
  0
VERTEX
  5
3CF
  8
FILLETEDCONTOURS
 10
124.8067617475439
 20
-131.7971347242644
 30
0.0
  0
VERTEX
  5
3D0
  8
FILLETEDCONTOURS
 10
124.8338674799314
 20
-131.9025527082882
 30
0.0
  0
VERTEX
  5
3D1
  8
FILLETEDCONTOURS
 10
124.8505363943229
 20
-132.0117724655224
 30
0.0
  0
VERTEX
  5
3D2
  8
FILLETEDCONTOURS
 10
124.8562155703199
 20
-132.1242410755686
 30
0.0
  0
VERTEX
  5
3D3
  8
FILLETEDCONTOURS
 10
124.8505363943229
 20
-132.2367096856149
 30
0.0
  0
VERTEX
  5
3D4
  8
FILLETEDCONTOURS
 10
124.8338674799314
 20
-132.3459294428491
 30
0.0
  0
VERTEX
  5
3D5
  8
FILLETEDCONTOURS
 10
124.8067617475439
 20
-132.4513474268729
 30
0.0
  0
VERTEX
  5
3D6
  8
FILLETEDCONTOURS
 10
124.7697721175593
 20
-132.5524107172869
 30
0.0
  0
VERTEX
  5
3D7
  8
FILLETEDCONTOURS
 10
124.7234515103764
 20
-132.6485663936929
 30
0.0
  0
VERTEX
  5
3D8
  8
FILLETEDCONTOURS
 10
124.6683528463938
 20
-132.7392615356919
 30
0.0
  0
VERTEX
  5
3D9
  8
FILLETEDCONTOURS
 10
124.6050290460105
 20
-132.8239432228851
 30
0.0
  0
VERTEX
  5
3DA
  8
FILLETEDCONTOURS
 10
124.5340330296251
 20
-132.9020585348738
 30
0.0
  0
VERTEX
  5
3DB
  8
FILLETEDCONTOURS
 10
124.4559177176364
 20
-132.9730545512592
 30
0.0
  0
VERTEX
  5
3DC
  8
FILLETEDCONTOURS
 10
124.3712360304432
 20
-133.0363783516427
 30
0.0
  0
VERTEX
  5
3DD
  8
FILLETEDCONTOURS
 10
124.2805408884442
 20
-133.0914770156251
 30
0.0
  0
VERTEX
  5
3DE
  8
FILLETEDCONTOURS
 10
124.1843852120382
 20
-133.137797622808
 30
0.0
  0
VERTEX
  5
3DF
  8
FILLETEDCONTOURS
 10
124.083321921624
 20
-133.1747872527927
 30
0.0
  0
VERTEX
  5
3E0
  8
FILLETEDCONTOURS
 10
123.9779039376004
 20
-133.2018929851802
 30
0.0
  0
VERTEX
  5
3E1
  8
FILLETEDCONTOURS
 10
123.8686841803661
 20
-133.2185618995717
 30
0.0
  0
SEQEND
  5
433
  8
FILLETEDCONTOURS
  0
POLYLINE
  5
9A
  8
FILLETEDCONTOURS
 66
     1
 10
0.0
 20
0.0
 30
0.0
 70
     1
  0
VERTEX
  5
3E2
  8
FILLETEDCONTOURS
 10
123.7562155703199
 20
-133.2242410755687
 30
0.0
 42
-0.4142857142857143
  0
VERTEX
  5
3E3
  8
FILLETEDCONTOURS
 10
125.1562155703199
 20
-134.6242410755686
 30
0.0
  0
VERTEX
  5
3E4
  8
FILLETEDCONTOURS
 10
125.1562155703199
 20
-134.7242410755687
 30
0.0
 42
-1.0
  0
VERTEX
  5
3E5
  8
FILLETEDCONTOURS
 10
122.3562155703199
 20
-134.7242410755687
 30
0.0
  0
VERTEX
  5
3E6
  8
FILLETEDCONTOURS
 10
122.3562155703199
 20
-134.6242410755686
 30
0.0
 42
-0.4142857142857144
  0
SEQEND
  5
434
  8
FILLETEDCONTOURS
  0
POLYLINE
  5
9B
  8
FILLETEDCONTOURS
 66
     1
 10
0.0
 20
0.0
 30
0.0
  0
VERTEX
  5
3E7
  8
FILLETEDCONTOURS
 10
86.0812155703199
 20
-131.0242410755686
 30
0.0
  0
VERTEX
  5
3E8
  8
FILLETEDCONTOURS
 10
87.43121557031989
 20
-131.0242410755686
 30
0.0
  0
VERTEX
  5
3E9
  8
FILLETEDCONTOURS
 10
87.43121557031989
 20
-136.0242410755686
 30
0.0
  0
SEQEND
  5
435
  8
FILLETEDCONTOURS
  0
POLYLINE
  5
9C
  8
FILLETEDCONTOURS
 66
     1
 10
0.0
 20
0.0
 30
0.0
  0
VERTEX
  5
3EA
  8
FILLETEDCONTOURS
 10
88.43121557031989
 20
-136.0242410755686
 30
0.0
  0
VERTEX
  5
3EB
  8
FILLETEDCONTOURS
 10
91.18121557031989
 20
-131.0242410755686
 30
0.0
  0
SEQEND
  5
436
  8
FILLETEDCONTOURS
  0
POLYLINE
  5
9D
  8
FILLETEDCONTOURS
 66
     1
 10
0.0
 20
0.0
 30
0.0
  0
VERTEX
  5
3EC
  8
FILLETEDCONTOURS
 10
95.73121557031988
 20
-135.1242410755686
 30
0.0
  0
VERTEX
  5
3ED
  8
FILLETEDCONTOURS
 10
92.18121557031989
 20
-135.1242410755686
 30
0.0
  0
VERTEX
  5
3EE
  8
FILLETEDCONTOURS
 10
94.98121557031988
 20
-131.0242410755686
 30
0.0
  0
VERTEX
  5
3EF
  8
FILLETEDCONTOURS
 10
94.98121557031988
 20
-136.0242410755686
 30
0.0
  0
SEQEND
  5
437
  8
FILLETEDCONTOURS
  0
POLYLINE
  5
9E
  8
FILLETEDCONTOURS
 66
     1
 10
0.0
 20
0.0
 30
0.0
 70
     1
  0
VERTEX
  5
3F0
  8
FILLETEDCONTOURS
 10
-18.89378442968007
 20
-137.1160053554041
 30
0.0
 42
0.4142135623730951
  0
VERTEX
  5
3F1
  8
FILLETEDCONTOURS
 10
-15.89378442968007
 20
-140.1160053554041
 30
0.0
  0
VERTEX
  5
3F2
  8
FILLETEDCONTOURS
 10
138.1062155703199
 20
-140.1160053554041
 30
0.0
 42
0.4142135623730951
  0
VERTEX
  5
3F3
  8
FILLETEDCONTOURS
 10
141.1062155703199
 20
-137.1160053554041
 30
0.0
  0
VERTEX
  5
3F4
  8
FILLETEDCONTOURS
 10
141.1062155703199
 20
-43.11600535540407
 30
0.0
 42
0.4142135623730951
  0
VERTEX
  5
3F5
  8
FILLETEDCONTOURS
 10
138.1062155703199
 20
-40.11600535540407
 30
0.0
  0
VERTEX
  5
3F6
  8
FILLETEDCONTOURS
 10
-15.89378442968007
 20
-40.11600535540407
 30
0.0
 42
0.4142135623730951
  0
VERTEX
  5
3F7
  8
FILLETEDCONTOURS
 10
-18.89378442968007
 20
-43.11600535540407
 30
0.0
  0
SEQEND
  5
438
  8
FILLETEDCONTOURS
  0
POLYLINE
  5
9F
  8
FILLETEDCONTOURS
 66
     1
 10
0.0
 20
0.0
 30
0.0
 70
     1
  0
VERTEX
  5
3F8
  8
FILLETEDCONTOURS
 10
-173.8193676037338
 20
-182.2483081791626
 30
0.0
 42
0.4142135623730951
  0
VERTEX
  5
3F9
  8
FILLETEDCONTOURS
 10
-172.8193676037338
 20
-183.2483081791626
 30
0.0
  0
VERTEX
  5
3FA
  8
FILLETEDCONTOURS
 10
-61.51936760373377
 20
-183.2483081791626
 30
0.0
 42
0.4142135623730951
  0
VERTEX
  5
3FB
  8
FILLETEDCONTOURS
 10
-60.51936760373377
 20
-182.2483081791626
 30
0.0
  0
VERTEX
  5
3FC
  8
FILLETEDCONTOURS
 10
-60.51936760373377
 20
-10.94830817916252
 30
0.0
 42
0.4142135623730951
  0
VERTEX
  5
3FD
  8
FILLETEDCONTOURS
 10
-61.51936760373377
 20
-9.948308179162524
 30
0.0
  0
VERTEX
  5
3FE
  8
FILLETEDCONTOURS
 10
-172.8193676037338
 20
-9.948308179162524
 30
0.0
 42
0.4142135623730951
  0
VERTEX
  5
3FF
  8
FILLETEDCONTOURS
 10
-173.8193676037338
 20
-10.94830817916252
 30
0.0
  0
SEQEND
  5
439
  8
FILLETEDCONTOURS
  0
POLYLINE
  5
A0
  8
FILLETEDCONTOURS
 66
     1
 10
0.0
 20
0.0
 30
0.0
 70
     1
  0
VERTEX
  5
400
  8
FILLETEDCONTOURS
 10
-167.2693676037338
 20
-173.6983081791626
 30
0.0
 42
0.4142135623730951
  0
VERTEX
  5
401
  8
FILLETEDCONTOURS
 10
-164.2693676037338
 20
-176.6983081791626
 30
0.0
  0
VERTEX
  5
402
  8
FILLETEDCONTOURS
 10
-70.06936760373378
 20
-176.6983081791626
 30
0.0
 42
0.4142135623730951
  0
VERTEX
  5
403
  8
FILLETEDCONTOURS
 10
-67.06936760373378
 20
-173.6983081791626
 30
0.0
  0
VERTEX
  5
404
  8
FILLETEDCONTOURS
 10
-67.06936760373378
 20
-19.49830817916256
 30
0.0
 42
0.4142135623730951
  0
VERTEX
  5
405
  8
FILLETEDCONTOURS
 10
-70.06936760373378
 20
-16.49830817916256
 30
0.0
  0
VERTEX
  5
406
  8
FILLETEDCONTOURS
 10
-164.2693676037338
 20
-16.49830817916256
 30
0.0
 42
0.4142135623730951
  0
VERTEX
  5
407
  8
FILLETEDCONTOURS
 10
-167.2693676037338
 20
-19.49830817916256
 30
0.0
  0
SEQEND
  5
43A
  8
FILLETEDCONTOURS
  0
ENDSEC
  0
EOF
