  0
SECTION
  2
HEADER
  9
$ACADVER
  1
AC1015
  9
$ACADMAINTVER
 70
     6
  9
$DWGCODEPAGE
  3
DOS850
  9
$INSBASE
 10
0.0
 20
0.0
 30
0.0
  9
$EXTMIN
 10
-33.99742
 20
-2.20387
 30
1.000000E+20
  9
$EXTMAX
 10
34.88713
 20
2.80957
 30
-1.000000E+20
  9
$LIMMIN
 10
0.0
 20
0.0
  9
$LIMMAX
 10
0.0
 20
0.0
  9
$ORTHOMODE
 70
     0
  9
$REGENMODE
 70
     1
  9
$FILLMODE
 70
     1
  9
$QTEXTMODE
 70
     0
  9
$MIRRTEXT
 70
     1
  9
$LTSCALE
 40
1.0
  9
$ATTMODE
 70
     1
  9
$TEXTSIZE
 40
0.2
  9
$TRACEWID
 40
0.05
  9
$TEXTSTYLE
  7
Standard
  9
$CLAYER
  8
0
  9
$CELTYPE
  6
Continuous
  9
$CECOLOR
 62
   256
  9
$CELTSCALE
 40
1.0
  9
$DISPSILH
 70
     0
  9
$DIMSCALE
 40
1.0
  9
$DIMASZ
 40
0.18
  9
$DIMEXO
 40
0.0625
  9
$DIMDLI
 40
0.38
  9
$DIMRND
 40
0.0
  9
$DIMDLE
 40
0.0
  9
$DIMEXE
 40
0.18
  9
$DIMTP
 40
0.0
  9
$DIMTM
 40
0.0
  9
$DIMTXT
 40
0.18
  9
$DIMCEN
 40
0.09
  9
$DIMTSZ
 40
0.0
  9
$DIMTOL
 70
     0
  9
$DIMLIM
 70
     0
  9
$DIMTIH
 70
     1
  9
$DIMTOH
 70
     1
  9
$DIMSE1
 70
     0
  9
$DIMSE2
 70
     0
  9
$DIMTAD
 70
     0
  9
$DIMZIN
 70
     0
  9
$DIMBLK
  1

  9
$DIMASO
 70
     1
  9
$DIMSHO
 70
     1
  9
$DIMPOST
  1

  9
$DIMAPOST
  1

  9
$DIMALT
 70
     0
  9
$DIMALTD
 70
     2
  9
$DIMALTF
 40
25.4
  9
$DIMLFAC
 40
1.0
  9
$DIMTOFL
 70
     0
  9
$DIMTVP
 40
0.0
  9
$DIMTIX
 70
     0
  9
$DIMSOXD
 70
     0
  9
$DIMSAH
 70
     0
  9
$DIMBLK1
  1

  9
$DIMBLK2
  1

  9
$DIMSTYLE
  2
Standard
  9
$DIMCLRD
 70
     0
  9
$DIMCLRE
 70
     0
  9
$DIMCLRT
 70
     0
  9
$DIMTFAC
 40
1.0
  9
$DIMGAP
 40
0.09
  9
$DIMJUST
 70
     0
  9
$DIMSD1
 70
     0
  9
$DIMSD2
 70
     0
  9
$DIMTOLJ
 70
     1
  9
$DIMTZIN
 70
     0
  9
$DIMALTZ
 70
     0
  9
$DIMALTTZ
 70
     0
  9
$DIMUPT
 70
     0
  9
$DIMDEC
 70
     4
  9
$DIMTDEC
 70
     4
  9
$DIMALTU
 70
     2
  9
$DIMALTTD
 70
     2
  9
$DIMTXSTY
  7
Standard
  9
$DIMAUNIT
 70
     0
  9
$DIMADEC
 70
     0
  9
$DIMALTRND
 40
0.0
  9
$DIMAZIN
 70
     0
  9
$DIMDSEP
 70
     0
  9
$DIMATFIT
 70
     3
  9
$DIMFRAC
 70
     0
  9
$DIMLDRBLK
  1

  9
$DIMLUNIT
 70
     2
  9
$DIMLWD
 70
     0
  9
$DIMLWE
 70
     0
  9
$DIMTMOVE
 70
     0
  9
$LUNITS
 70
     2
  9
$LUPREC
 70
     4
  9
$SKETCHINC
 40
0.1
  9
$FILLETRAD
 40
0.0
  9
$AUNITS
 70
     0
  9
$AUPREC
 70
     0
  9
$MENU
  1
acad
  9
$ELEVATION
 40
0.0
  9
$PELEVATION
 40
0.0
  9
$THICKNESS
 40
0.0
  9
$LIMCHECK
 70
     0
  9
$CHAMFERA
 40
0.0
  9
$CHAMFERB
 40
0.0
  9
$CHAMFERC
 40
0.0
  9
$CHAMFERD
 40
0.0
  9
$SKPOLY
 70
     0
  9
$TDCREATE
 40
0.000000000
  9
$TDUCREATE
 40
0.000000000
  9
$TDUPDATE
 40
0.000000000
  9
$TDUUPDATE
 40
0.000000000
  9
$TDINDWG
 40
0.0000000000
  9
$TDUSRTIMER
 40
0.0000000000
  9
$USRTIMER
 70
     1
  9
$ANGBASE
 50
0.0
  9
$ANGDIR
 70
     0
  9
$PDMODE
 70
     0
  9
$PDSIZE
 40
0.0
  9
$PLINEWID
 40
0.0
  9
$SPLFRAME
 70
     0
  9
$SPLINETYPE
 70
     6
  9
$SPLINESEGS
 70
     8
  9
$HANDSEED
  5
6C
  9
$SURFTAB1
 70
     6
  9
$SURFTAB2
 70
     6
  9
$SURFTYPE
 70
     6
  9
$SURFU
 70
     6
  9
$SURFV
 70
     6
  9
$UCSBASE
  2

  9
$UCSNAME
  2

  9
$UCSORG
 10
0.0
 20
0.0
 30
0.0
  9
$UCSXDIR
 10
1.0
 20
0.0
 30
0.0
  9
$UCSYDIR
 10
0.0
 20
1.0
 30
0.0
  9
$UCSORTHOREF
  2

  9
$UCSORTHOVIEW
 70
     0
  9
$UCSORGTOP
 10
0.0
 20
0.0
 30
0.0
  9
$UCSORGBOTTOM
 10
0.0
 20
0.0
 30
0.0
  9
$UCSORGLEFT
 10
0.0
 20
0.0
 30
0.0
  9
$UCSORGRIGHT
 10
0.0
 20
0.0
 30
0.0
  9
$UCSORGFRONT
 10
0.0
 20
0.0
 30
0.0
  9
$UCSORGBACK
 10
0.0
 20
0.0
 30
0.0
  9
$PUCSBASE
  2

  9
$PUCSNAME
  2

  9
$PUCSORG
 10
0.0
 20
0.0
 30
0.0
  9
$PUCSXDIR
 10
1.0
 20
0.0
 30
0.0
  9
$PUCSYDIR
 10
0.0
 20
1.0
 30
0.0
  9
$PUCSORTHOREF
  2

  9
$PUCSORTHOVIEW
 70
     0
  9
$PUCSORGTOP
 10
0.0
 20
0.0
 30
0.0
  9
$PUCSORGBOTTOM
 10
0.0
 20
0.0
 30
0.0
  9
$PUCSORGLEFT
 10
0.0
 20
0.0
 30
0.0
  9
$PUCSORGRIGHT
 10
0.0
 20
0.0
 30
0.0
  9
$PUCSORGFRONT
 10
0.0
 20
0.0
 30
0.0
  9
$PUCSORGBACK
 10
0.0
 20
0.0
 30
0.0
  9
$USERI1
 70
     0
  9
$USERI2
 70
     0
  9
$USERI3
 70
     0
  9
$USERI4
 70
     0
  9
$USERI5
 70
     0
  9
$USERR1
 40
0.0
  9
$USERR2
 40
0.0
  9
$USERR3
 40
0.0
  9
$USERR4
 40
0.0
  9
$USERR5
 40
0.0
  9
$WORLDVIEW
 70
     1
  9
$SHADEDGE
 70
     3
  9
$SHADEDIF
 70
    70
  9
$TILEMODE
 70
     1
  9
$MAXACTVP
 70
    16
  9
$PINSBASE
 10
0.0
 20
0.0
 30
0.0
  9
$PLIMCHECK
 70
     0
  9
$PEXTMIN
 10
1.000000E+20
 20
1.000000E+20
 30
1.000000E+20
  9
$PEXTMAX
 10
-1.000000E+20
 20
-1.000000E+20
 30
-1.000000E+20
  9
$PLIMMIN
 10
0.0
 20
0.0
  9
$PLIMMAX
 10
12.0
 20
9.0
  9
$UNITMODE
 70
     0
  9
$VISRETAIN
 70
     0
  9
$PLINEGEN
 70
     1
  9
$PSLTSCALE
 70
     0
  9
$TREEDEPTH
 70
  3020
  9
$CMLSTYLE
  2
Standard
  9
$CMLJUST
 70
     0
  9
$CMLSCALE
 40
1.0
  9
$PROXYGRAPHICS
 70
     0
  9
$MEASUREMENT
 70
     0
  9
$CELWEIGHT
370
     0
  9
$ENDCAPS
280
     0
  9
$JOINSTYLE
280
     0
  9
$LWDISPLAY
290
     0
  9
$INSUNITS
 70
     5
  9
$HYPERLINKBASE
  1

  9
$XEDIT
290
     1
  9
$CEPSNTYPE
380
     0
  9
$PSTYLEMODE
290
     1
  9
$FINGERPRINTGUID
  2

  9
$VERSIONGUID
  2

  9
$EXTNAMES
290
     1
  9
$PSVPSCALE
 40
0.0
  0
ENDSEC
  0
SECTION
  2
CLASSES
  0
CLASS
  1
LWPOLYLINE
  2
AcDbPolyline
  3
AutoCAD 2000
 90
        0
280
     0
281
     1
  0
CLASS
  1
IMAGE
  2
AcDbRasterImage
  3
ISM
 90
    32895
280
     0
281
     1
  0
CLASS
  1
OLE2FRAME
  2
AcDbOle2Frame
  3
AutoCAD 2000
 90
    32768
280
     0
281
     1
  0
CLASS
  1
HATCH
  2
AcDbHatch
  3
AutoCAD 2000
 90
    32768
280
     0
281
     1
  0
CLASS
  1
DICTIONARYVAR
  2
AcDbDictionaryVar
  3
AutoCAD 2000
 90
    32768
280
     0
281
     0
  0
CLASS
  1
RASTERVARIABLES
  2
AcDbRasterVariables
  3
ISM
 90
    32768
280
     0
281
     0
  0
CLASS
  1
IMAGEDEF
  2
AcDbRasterImageDef
  3
ISM
 90
    32768
280
     0
281
     0
  0
CLASS
  1
IMAGEDEF_REACTOR
  2
AcDbRasterImageDefReactor
  3
ISM
 90
    32769
280
     0
281
     0
  0
CLASS
  1
IDBUFFER
  2
AcDbIdBuffer
  3
AutoCAD 2000
 90
    32768
280
     0
281
     0
  0
CLASS
  1
SPATIAL_FILTER
  2
AcDbSpatialFilter
  3
AutoCAD 2000
 90
    32768
280
     0
281
     0
  0
CLASS
  1
XRECORD
  2
AcDbXrecord
  3
AutoCAD 2000
 90
    32768
280
     0
281
     0
  0
CLASS
  1
SORTENTSTABLE
  2
AcDbSortentsTable
  3
AutoCAD 2000
 90
    32768
280
     0
281
     0
  0
CLASS
  1
LAYER_INDEX
  2
AcDbLayerIndex
  3
AutoCAD 2000
 90
    32768
280
     0
281
     0
  0
CLASS
  1
SPATIAL_INDEX
  2
AcDbSpatialIndex
  3
AutoCAD 2000
 90
    32768
280
     0
281
     0
  0
CLASS
  1
OBJECT_PTR
  2
CAseDLPNTableRecord
  3
"ASE-LPNTableRecord"
 90
    32769
280
     0
281
     0
  0
CLASS
  1
LAYOUT
  2
AcDbLayout
  3
AutoCAD 2000
 90
        0
280
     0
281
     0
  0
CLASS
  1
PLOTSETTINGS
  2
AcDbPlotSettings
  3
AutoCAD 2000
 90
    32768
280
     0
281
     0
  0
CLASS
  1
ACDBDICTIONARYWDFLT
  2
AcDbDictionaryWithDefault
  3
AutoCAD 2000
 90
        0
280
     0
281
     0
  0
CLASS
  1
ACDBPLACEHOLDER
  2
AcDbPlaceHolder
  3
AutoCAD 2000
 90
        0
280
     0
281
     0
  0
CLASS
  1
VBA_PROJECT
  2
AcDbVbaProject
  3
acadvba
 90
    32768
280
     0
281
     0
  0
CLASS
  1
WIPEOUT
  2
AcDbWipeout
  3
WipeOut|AutoCAD Express Tool|expresstools@autodesk.com
 90
    32895
280
     0
281
     1
  0
CLASS
  1
WIPEOUTVARIABLES
  2
AcDbWipeoutVariables
  3
WipeOut|AutoCAD Express Tool|expresstools@autodesk.com
 90
        0
280
     0
281
     0
  0
CLASS
  1
RTEXT
  2
RText
  3
RText|AutoCAD Express Tool|expresstools@autodesk.com
 90
    32768
280
     0
281
     1
  0
CLASS
  1
ARCALIGNEDTEXT
  2
AcDbArcAlignedText
  3
ATEXT|AutoCAD Express Tool|expresstools@autodesk.com
 90
    32768
280
     0
281
     1
  0
ENDSEC
  0
SECTION
  2
TABLES
  0
TABLE
  2
VPORT
  5
7
100
AcDbSymbolTable
 70
     1
  0
VPORT
  5
15
100
AcDbSymbolTableRecord
100
AcDbViewportTableRecord
  2
*ACTIVE
 70
     0
 10
0.0
 20
0.0
 11
1.0
 21
1.0
 12
6.591288
 22
4.579184
 13
0.0
 23
0.0
 14
1.0
 24
1.0
 15
0.0
 25
0.0
 16
0.0
 26
0.0
 36
1.0
 17
0.0
 27
0.0
 37
0.0
 40
9.158369
 41
0.688564
 42
50.0
 43
0.0
 44
0.0
 50
0.0
 51
0.0
 71
     0
 72
   100
 73
     1
 74
     1
 75
     0
 76
     0
 77
     0
 78
     0
281
     0
 65
     0
110
0.0
120
0.0
130
0.0
111
1.0
121
0.0
131
0.0
112
0.0
122
1.0
132
0.0
345
0
346
0
 79
     0
146
0.0
  0
ENDTAB
  0
TABLE
  2
LTYPE
  5
4
100
AcDbSymbolTable
 70
     3
  0
LTYPE
  5
11
100
AcDbSymbolTableRecord
100
AcDbLinetypeTableRecord
  2
ByBlock
 70
    64
  3

 72
    65
 73
     0
 40
0.0
  0
LTYPE
  5
12
100
AcDbSymbolTableRecord
100
AcDbLinetypeTableRecord
  2
ByLayer
 70
    64
  3

 72
    65
 73
     0
 40
0.0
  0
LTYPE
  5
13
100
AcDbSymbolTableRecord
100
AcDbLinetypeTableRecord
  2
Continuous
 70
    64
  3
Solid line
 72
    65
 73
     0
 40
0.0
  0
ENDTAB
  0
TABLE
  2
LAYER
  5
2
100
AcDbSymbolTable
 70
     2
  0
LAYER
  5
14
100
AcDbSymbolTableRecord
100
AcDbLayerTableRecord
  2
0
 70
     0
 62
     7
  6
Continuous
290
     1
370
    -3
390
1D
  0
LAYER
  5
24
100
AcDbSymbolTableRecord
100
AcDbLayerTableRecord
  2
Livello 1
 70
     0
 62
     7
  6
Continuous
290
     1
370
    -3
390
1F
  0
ENDTAB
  0
TABLE
  2
STYLE
  5
3
100
AcDbSymbolTable
 70
     1
  0
STYLE
  5
17
100
AcDbSymbolTableRecord
100
AcDbTextStyleTableRecord
  2
Standard
 70
     0
 40
0.0
 41
1.0
 50
0.0
 71
     0
 42
0.0
  3
txt
  4

  0
ENDTAB
  0
TABLE
  2
VIEW
  5
5
100
AcDbSymbolTable
 70
     0
  0
ENDTAB
  0
TABLE
  2
UCS
  5
6
100
AcDbSymbolTable
 70
     0
  0
ENDTAB
  0
TABLE
  2
APPID
  5
8
100
AcDbSymbolTable
 70
     1
  0
APPID
  5
16
100
AcDbSymbolTableRecord
100
AcDbRegAppTableRecord
  2
ACAD
 70
     0
  0
ENDTAB
  0
TABLE
  2
DIMSTYLE
  5
9
100
AcDbSymbolTable
 70
     1
100
AcDbDimStyleTable
 71
     0
  0
DIMSTYLE
105
18
100
AcDbSymbolTableRecord
100
AcDbDimStyleTableRecord
  2
Standard
 70
     0
  3

  4

 40
1.0
 41
0.18
 42
0.0625
 43
0.38
 44
0.18
 45
0.0
 46
0.0
 47
0.0
 48
0.0
 71
     0
 72
     0
 73
     1
 74
     1
 75
     0
 76
     0
 77
     0
 78
     0
 79
     0
140
0.18
141
0.09
142
0.0
143
25.4
144
1.0
145
0.0
146
1.0
147
0.09
148
0.0
170
     0
171
     2
172
     0
173
     0
174
     0
175
     0
176
     0
177
     0
178
     0
179
     0
271
     4
272
     4
273
     2
274
     2
275
     0
276
     0
277
     2
278
    46
279
     0
280
     0
281
     0
282
     0
283
     1
284
     0
285
     0
286
     0
288
     0
340
17
341
0
342
0
343
0
344
0
371
    -2
372
    -2
  0
ENDTAB
  0
TABLE
  2
BLOCK_RECORD
  5
1
100
AcDbSymbolTable
 70
     0
  0
BLOCK_RECORD
  5
A
100
AcDbSymbolTableRecord
100
AcDbBlockTableRecord
  2
*MODEL_SPACE
340
20
  0
BLOCK_RECORD
  5
B
100
AcDbSymbolTableRecord
100
AcDbBlockTableRecord
  2
*PAPER_SPACE
340
21
  0
ENDTAB
  0
ENDSEC
  0
SECTION
  2
BLOCKS
  0
BLOCK
  5
D
100
AcDbEntity
  8
0
100
AcDbBlockBegin
  2
*MODEL_SPACE
 70
     0
 10
0.0
 20
0.0
 30
0.0
  3
*MODEL_SPACE
  1

  0
ENDBLK
  5
E
100
AcDbEntity
  8
0
100
AcDbBlockEnd
  0
BLOCK
  5
F
100
AcDbEntity
 67
     1
  8
0
100
AcDbBlockBegin
  2
*PAPER_SPACE
 70
     0
 10
0.0
 20
0.0
 30
0.0
  3
*PAPER_SPACE
  1

  0
ENDBLK
  5
10
100
AcDbEntity
 67
     1
  8
0
100
AcDbBlockEnd
  0
ENDSEC
  0
SECTION
  2
ENTITIES
  0
LWPOLYLINE
  5
25
100
AcDbEntity
  8
Livello 1
370
     5
100
AcDbPolyline
 90
        5
 70
     1
 10
-28.03512
 20
1.791
 10
-27.03216
 20
1.791
 10
-27.03216
 20
2.5074
 10
-28.03512
 20
2.5074
 10
-28.03512
 20
1.791
  0
LWPOLYLINE
  5
26
100
AcDbEntity
  8
Livello 1
370
     5
100
AcDbPolyline
 90
        5
 70
     1
 10
-26.00532
 20
1.81488
 10
-25.00236
 20
1.81488
 10
-25.00236
 20
2.5074
 10
-26.00532
 20
2.5074
 10
-26.00532
 20
1.81488
  0
LWPOLYLINE
  5
27
100
AcDbEntity
  8
Livello 1
370
     5
100
AcDbPolyline
 90
        5
 70
     1
 10
-23.9994
 20
1.83876
 10
-22.99644
 20
1.83876
 10
-22.99644
 20
2.5074
 10
-23.9994
 20
2.5074
 10
-23.9994
 20
1.83876
  0
LWPOLYLINE
  5
28
100
AcDbEntity
  8
Livello 1
370
     5
100
AcDbPolyline
 90
        5
 70
     1
 10
-21.9696
 20
1.81488
 10
-20.91888
 20
1.81488
 10
-20.91888
 20
2.5074
 10
-21.9696
 20
2.5074
 10
-21.9696
 20
1.81488
  0
LWPOLYLINE
  5
29
100
AcDbEntity
  8
Livello 1
370
     5
100
AcDbPolyline
 90
        5
 70
     1
 10
-9.97997
 20
1.76417
 10
-8.95313
 20
1.76417
 10
-8.95313
 20
2.45669
 10
-9.97997
 20
2.45669
 10
-9.97997
 20
1.76417
  0
LWPOLYLINE
  5
2A
100
AcDbEntity
  8
Livello 1
370
     5
100
AcDbPolyline
 90
        5
 70
     1
 10
-17.98164
 20
1.76712
 10
-16.9548
 20
1.76712
 10
-16.9548
 20
2.48352
 10
-17.98164
 20
2.48352
 10
-17.98164
 20
1.76712
  0
LWPOLYLINE
  5
2B
100
AcDbEntity
  8
Livello 1
370
     5
100
AcDbPolyline
 90
        5
 70
     1
 10
-15.97572
 20
1.74324
 10
-14.99664
 20
1.74324
 10
-14.99664
 20
2.48352
 10
-15.97572
 20
2.48352
 10
-15.97572
 20
1.74324
  0
LWPOLYLINE
  5
2C
100
AcDbEntity
  8
Livello 1
370
     5
100
AcDbPolyline
 90
        5
 70
     1
 10
-20.01144
 20
0.2388
 10
-19.03236
 20
0.2388
 10
-19.03236
 20
0.97908
 10
-20.01144
 20
0.97908
 10
-20.01144
 20
0.2388
  0
LWPOLYLINE
  5
2D
100
AcDbEntity
  8
Livello 1
370
     5
100
AcDbPolyline
 90
        5
 70
     1
 10
-17.98164
 20
0.26268
 10
-16.97868
 20
0.26268
 10
-16.97868
 20
0.97908
 10
-17.98164
 20
0.97908
 10
-17.98164
 20
0.26268
  0
LWPOLYLINE
  5
2E
100
AcDbEntity
  8
Livello 1
370
     5
100
AcDbPolyline
 90
        5
 70
     1
 10
-15.9996
 20
0.26268
 10
-14.925
 20
0.26268
 10
-14.925
 20
0.97908
 10
-15.9996
 20
0.97908
 10
-15.9996
 20
0.26268
  0
LWPOLYLINE
  5
2F
100
AcDbEntity
  8
Livello 1
370
     5
100
AcDbPolyline
 90
        5
 70
     1
 10
-13.9698
 20
1.74324
 10
-12.94296
 20
1.74324
 10
-12.94296
 20
2.48352
 10
-13.9698
 20
2.48352
 10
-13.9698
 20
1.74324
  0
LWPOLYLINE
  5
30
100
AcDbEntity
  8
Livello 1
370
     5
100
AcDbPolyline
 90
        5
 70
     1
 10
-13.99368
 20
0.26268
 10
-12.94296
 20
0.26268
 10
-12.94296
 20
0.9552
 10
-13.99368
 20
0.9552
 10
-13.99368
 20
0.26268
  0
LWPOLYLINE
  5
31
100
AcDbEntity
  8
Livello 1
370
     5
100
AcDbPolyline
 90
        5
 70
     1
 10
-12.01164
 20
1.74324
 10
-11.03256
 20
1.74324
 10
-11.03256
 20
2.48352
 10
-12.01164
 20
2.48352
 10
-12.01164
 20
1.74324
  0
LWPOLYLINE
  5
32
100
AcDbEntity
  8
Livello 1
370
     5
100
AcDbPolyline
 90
        5
 70
     1
 10
-11.96388
 20
0.2388
 10
-10.96092
 20
0.2388
 10
-10.96092
 20
0.9552
 10
-11.96388
 20
0.9552
 10
-11.96388
 20
0.2388
  0
LWPOLYLINE
  5
33
100
AcDbEntity
  8
Livello 1
370
     5
100
AcDbPolyline
 90
        5
 70
     1
 10
-22.01736
 20
0.26268
 10
-20.99052
 20
0.26268
 10
-20.99052
 20
0.97908
 10
-22.01736
 20
0.97908
 10
-22.01736
 20
0.26268
  0
LWPOLYLINE
  5
34
100
AcDbEntity
  8
Livello 1
370
     5
100
AcDbPolyline
 90
        5
 70
     1
 10
0.00482
 20
0.26169
 10
1.03166
 20
0.26169
 10
1.03166
 20
0.97809
 10
0.00482
 20
0.97809
 10
0.00482
 20
0.26169
  0
LWPOLYLINE
  5
35
100
AcDbEntity
  8
Livello 1
370
     5
100
AcDbPolyline
 90
        5
 70
     1
 10
-10.00572
 20
0.26268
 10
-9.00276
 20
0.26268
 10
-9.00276
 20
1.02684
 10
-10.00572
 20
1.02684
 10
-10.00572
 20
0.26268
  0
LWPOLYLINE
  5
36
100
AcDbEntity
  8
Livello 1
370
     5
100
AcDbPolyline
 90
        5
 70
     1
 10
-8.04756
 20
1.791
 10
-7.02072
 20
1.791
 10
-7.02072
 20
2.5074
 10
-8.04756
 20
2.5074
 10
-8.04756
 20
1.791
  0
LWPOLYLINE
  5
37
100
AcDbEntity
  8
Livello 1
370
     5
100
AcDbPolyline
 90
        5
 70
     1
 10
-7.97592
 20
0.26268
 10
-7.02072
 20
0.26268
 10
-7.02072
 20
1.00296
 10
-7.97592
 20
1.00296
 10
-7.97592
 20
0.26268
  0
LWPOLYLINE
  5
38
100
AcDbEntity
  8
Livello 1
370
     5
100
AcDbPolyline
 90
        5
 70
     1
 10
-6.01272
 20
1.7895
 10
-5.0106
 20
1.7895
 10
-5.0106
 20
2.45758
 10
-6.01272
 20
2.45758
 10
-6.01272
 20
1.7895
  0
LWPOLYLINE
  5
39
100
AcDbEntity
  8
Livello 1
370
     5
100
AcDbPolyline
 90
        5
 70
     1
 10
-5.98886
 20
0.28632
 10
-4.96288
 20
0.28632
 10
-4.96288
 20
0.97826
 10
-5.98886
 20
0.97826
 10
-5.98886
 20
0.28632
  0
LWPOLYLINE
  5
3A
100
AcDbEntity
  8
Livello 1
370
     5
100
AcDbPolyline
 90
        5
 70
     1
 10
-3.96076
 20
1.7895
 10
-3.00636
 20
1.7895
 10
-3.00636
 20
2.45758
 10
-3.96076
 20
2.45758
 10
-3.96076
 20
1.7895
  0
LWPOLYLINE
  5
3B
100
AcDbEntity
  8
Livello 1
370
     5
100
AcDbPolyline
 90
        5
 70
     1
 10
-4.00848
 20
0.28632
 10
-3.00636
 20
0.28632
 10
-3.00636
 20
0.97826
 10
-4.00848
 20
0.97826
 10
-4.00848
 20
0.28632
  0
LWPOLYLINE
  5
3C
100
AcDbEntity
  8
Livello 1
370
     5
100
AcDbPolyline
 90
        5
 70
     1
 10
-1.98038
 20
1.7895
 10
-0.97826
 20
1.7895
 10
-0.97826
 20
2.45758
 10
-1.98038
 20
2.45758
 10
-1.98038
 20
1.7895
  0
LWPOLYLINE
  5
3D
100
AcDbEntity
  8
Livello 1
370
     5
100
AcDbPolyline
 90
        5
 70
     1
 10
-2.0281
 20
0.28632
 10
-0.97826
 20
0.28632
 10
-0.97826
 20
1.00212
 10
-2.0281
 20
1.00212
 10
-2.0281
 20
0.28632
  0
LWPOLYLINE
  5
3E
100
AcDbEntity
  8
Livello 1
370
     5
100
AcDbPolyline
 90
        5
 70
     1
 10
0.0
 20
1.76564
 10
0.97826
 20
1.76564
 10
0.97826
 20
2.48144
 10
0.0
 20
2.48144
 10
0.0
 20
1.76564
  0
LWPOLYLINE
  5
3F
100
AcDbEntity
  8
Livello 1
370
     5
100
AcDbPolyline
 90
        5
 70
     1
 10
4.03234
 20
0.31018
 10
5.05832
 20
0.31018
 10
5.05832
 20
0.97826
 10
4.03234
 20
0.97826
 10
4.03234
 20
0.31018
  0
LWPOLYLINE
  5
40
100
AcDbEntity
  8
Livello 1
370
     5
100
AcDbPolyline
 90
        5
 70
     1
 10
2.00424
 20
1.76564
 10
3.00636
 20
1.76564
 10
3.00636
 20
2.48144
 10
2.00424
 20
2.48144
 10
2.00424
 20
1.76564
  0
LWPOLYLINE
  5
41
100
AcDbEntity
  8
Livello 1
370
     5
100
AcDbPolyline
 90
        5
 70
     1
 10
2.0281
 20
0.26246
 10
2.9825
 20
0.26246
 10
2.9825
 20
0.9544
 10
2.0281
 20
0.9544
 10
2.0281
 20
0.26246
  0
LWPOLYLINE
  5
42
100
AcDbEntity
  8
Livello 1
370
     5
100
AcDbPolyline
 90
        5
 70
     1
 10
-20.02419
 20
1.46961
 10
-18.75961
 20
1.46961
 10
-18.75961
 20
2.80577
 10
-20.02419
 20
2.80577
 10
-20.02419
 20
1.46961
  0
LWPOLYLINE
  5
43
100
AcDbEntity
  8
Livello 1
370
     5
100
AcDbPolyline
 90
        5
 70
     1
 10
4.03234
 20
1.76564
 10
5.03446
 20
1.76564
 10
5.03446
 20
2.5053
 10
4.03234
 20
2.5053
 10
4.03234
 20
1.76564
  0
LWPOLYLINE
  5
44
100
AcDbEntity
  8
Livello 1
370
     5
100
AcDbPolyline
 90
        5
 70
     1
 10
6.01272
 20
1.76564
 10
7.0387
 20
1.76564
 10
7.0387
 20
2.45758
 10
6.01272
 20
2.45758
 10
6.01272
 20
1.76564
  0
LWPOLYLINE
  5
45
100
AcDbEntity
  8
Livello 1
370
     5
100
AcDbPolyline
 90
        5
 70
     1
 10
6.03658
 20
0.28632
 10
6.99098
 20
0.28632
 10
6.99098
 20
1.00212
 10
6.03658
 20
1.00212
 10
6.03658
 20
0.28632
  0
LWPOLYLINE
  5
46
100
AcDbEntity
  8
Livello 1
370
     5
100
AcDbPolyline
 90
        5
 70
     1
 10
7.94538
 20
1.76564
 10
8.97136
 20
1.76564
 10
8.97136
 20
2.48144
 10
7.94538
 20
2.48144
 10
7.94538
 20
1.76564
  0
LWPOLYLINE
  5
47
100
AcDbEntity
  8
Livello 1
370
     5
100
AcDbPolyline
 90
        5
 70
     1
 10
8.01696
 20
0.28632
 10
9.01908
 20
0.28632
 10
9.01908
 20
0.93054
 10
8.01696
 20
0.93054
 10
8.01696
 20
0.28632
  0
LWPOLYLINE
  5
48
100
AcDbEntity
  8
Livello 1
370
     5
100
AcDbPolyline
 90
        5
 70
     1
 10
9.99734
 20
1.76564
 10
11.02332
 20
1.76564
 10
11.02332
 20
2.45758
 10
9.99734
 20
2.45758
 10
9.99734
 20
1.76564
  0
LWPOLYLINE
  5
49
100
AcDbEntity
  8
Livello 1
370
     5
100
AcDbPolyline
 90
        5
 70
     1
 10
9.94962
 20
0.28632
 10
11.04718
 20
0.28632
 10
11.04718
 20
0.9544
 10
9.94962
 20
0.9544
 10
9.94962
 20
0.28632
  0
LWPOLYLINE
  5
4A
100
AcDbEntity
  8
Livello 1
370
     5
100
AcDbPolyline
 90
        5
 70
     1
 10
12.02544
 20
1.7895
 10
12.97984
 20
1.7895
 10
12.97984
 20
2.48144
 10
12.02544
 20
2.48144
 10
12.02544
 20
1.7895
  0
LWPOLYLINE
  5
4B
100
AcDbEntity
  8
Livello 1
370
     5
100
AcDbPolyline
 90
        5
 70
     1
 10
12.02544
 20
0.28632
 10
13.05142
 20
0.28632
 10
13.05142
 20
0.9544
 10
12.02544
 20
0.9544
 10
12.02544
 20
0.28632
  0
LWPOLYLINE
  5
4C
100
AcDbEntity
  8
Livello 1
370
     5
100
AcDbPolyline
 90
        5
 70
     1
 10
-21.51402
 20
-1.72386
 10
-20.0347
 20
-1.72386
 10
-20.0347
 20
-0.55472
 10
-21.51402
 20
-0.55472
 10
-21.51402
 20
-1.72386
  0
LWPOLYLINE
  5
4D
100
AcDbEntity
  8
Livello 1
370
     5
100
AcDbPolyline
 90
        5
 70
     1
 10
14.02968
 20
1.7895
 10
15.05566
 20
1.7895
 10
15.05566
 20
2.45758
 10
14.02968
 20
2.45758
 10
14.02968
 20
1.7895
  0
LWPOLYLINE
  5
4E
100
AcDbEntity
  8
Livello 1
370
     5
100
AcDbPolyline
 90
        5
 70
     1
 10
14.00582
 20
0.28632
 10
15.00794
 20
0.28632
 10
15.00794
 20
0.97826
 10
14.00582
 20
0.97826
 10
14.00582
 20
0.28632
  0
LWPOLYLINE
  5
4F
100
AcDbEntity
  8
Livello 1
370
     5
100
AcDbPolyline
 90
        5
 70
     1
 10
15.96234
 20
1.76564
 10
16.98832
 20
1.76564
 10
16.98832
 20
2.45758
 10
15.96234
 20
2.45758
 10
15.96234
 20
1.76564
  0
LWPOLYLINE
  5
50
100
AcDbEntity
  8
Livello 1
370
     5
100
AcDbPolyline
 90
        5
 70
     1
 10
16.01006
 20
0.26246
 10
17.0599
 20
0.26246
 10
17.0599
 20
0.97826
 10
16.01006
 20
0.97826
 10
16.01006
 20
0.26246
  0
LWPOLYLINE
  5
51
100
AcDbEntity
  8
Livello 1
370
     5
100
AcDbPolyline
 90
        5
 70
     1
 10
18.0143
 20
1.71792
 10
19.01642
 20
1.71792
 10
19.01642
 20
2.5053
 10
18.0143
 20
2.5053
 10
18.0143
 20
1.71792
  0
LWPOLYLINE
  5
52
100
AcDbEntity
  8
Livello 1
370
     5
100
AcDbPolyline
 90
        5
 70
     1
 10
17.96658
 20
0.2386
 10
18.9687
 20
0.2386
 10
18.9687
 20
0.9544
 10
17.96658
 20
0.9544
 10
17.96658
 20
0.2386
  0
LWPOLYLINE
  5
53
100
AcDbEntity
  8
Livello 1
370
     5
100
AcDbPolyline
 90
        5
 70
     1
 10
20.01854
 20
1.76564
 10
20.97294
 20
1.76564
 10
20.97294
 20
2.48144
 10
20.01854
 20
2.48144
 10
20.01854
 20
1.76564
  0
LWPOLYLINE
  5
54
100
AcDbEntity
  8
Livello 1
370
     5
100
AcDbPolyline
 90
        5
 70
     1
 10
19.97082
 20
0.2386
 10
20.94908
 20
0.2386
 10
20.94908
 20
0.97826
 10
19.97082
 20
0.97826
 10
19.97082
 20
0.2386
  0
LWPOLYLINE
  5
55
100
AcDbEntity
  8
Livello 1
370
     5
100
AcDbPolyline
 90
        5
 70
     1
 10
22.02278
 20
1.7895
 10
22.97718
 20
1.7895
 10
22.97718
 20
2.48144
 10
22.02278
 20
2.48144
 10
22.02278
 20
1.7895
  0
LWPOLYLINE
  5
56
100
AcDbEntity
  8
Livello 1
370
     5
100
AcDbPolyline
 90
        5
 70
     1
 10
21.99892
 20
0.28632
 10
22.97718
 20
0.28632
 10
22.97718
 20
0.97826
 10
21.99892
 20
0.97826
 10
21.99892
 20
0.28632
  0
LWPOLYLINE
  5
57
100
AcDbEntity
  8
Livello 1
370
     5
100
AcDbPolyline
 90
        5
 70
     1
 10
24.00316
 20
1.81336
 10
25.02914
 20
1.81336
 10
25.02914
 20
2.48144
 10
24.00316
 20
2.48144
 10
24.00316
 20
1.81336
  0
LWPOLYLINE
  5
58
100
AcDbEntity
  8
Livello 1
370
     5
100
AcDbPolyline
 90
        5
 70
     1
 10
24.02702
 20
0.26246
 10
25.02914
 20
0.26246
 10
25.02914
 20
0.97826
 10
24.02702
 20
0.97826
 10
24.02702
 20
0.26246
  0
LWPOLYLINE
  5
59
100
AcDbEntity
  8
Livello 1
370
     5
100
AcDbPolyline
 90
        5
 70
     1
 10
25.95968
 20
1.76564
 10
26.93794
 20
1.76564
 10
26.93794
 20
2.48144
 10
25.95968
 20
2.48144
 10
25.95968
 20
1.76564
  0
LWPOLYLINE
  5
5A
100
AcDbEntity
  8
Livello 1
370
     5
100
AcDbPolyline
 90
        5
 70
     1
 10
26.03126
 20
0.26246
 10
27.05724
 20
0.26246
 10
27.05724
 20
1.00212
 10
26.03126
 20
1.00212
 10
26.03126
 20
0.26246
  0
LWPOLYLINE
  5
5B
100
AcDbEntity
  8
Livello 1
370
     5
100
AcDbPolyline
 90
        5
 70
     1
 10
28.01164
 20
1.74178
 10
29.06148
 20
1.74178
 10
29.06148
 20
2.48144
 10
28.01164
 20
2.48144
 10
28.01164
 20
1.74178
  0
LWPOLYLINE
  5
5C
100
AcDbEntity
  8
Livello 1
370
     5
100
AcDbPolyline
 90
        5
 70
     1
 10
29.99202
 20
1.74178
 10
30.99414
 20
1.74178
 10
30.99414
 20
2.48144
 10
29.99202
 20
2.48144
 10
29.99202
 20
1.74178
  0
LWPOLYLINE
  5
5D
100
AcDbEntity
  8
Livello 1
370
     5
100
AcDbPolyline
 90
        5
 70
     1
 10
32.04398
 20
1.7895
 10
33.0461
 20
1.7895
 10
33.0461
 20
2.48144
 10
32.04398
 20
2.48144
 10
32.04398
 20
1.7895
  0
LWPOLYLINE
  5
5E
100
AcDbEntity
  8
Livello 1
370
     5
100
AcDbPolyline
 90
        5
 70
     1
 10
33.85734
 20
1.74178
 10
34.88332
 20
1.74178
 10
34.88332
 20
2.5053
 10
33.85734
 20
2.5053
 10
33.85734
 20
1.74178
  0
LWPOLYLINE
  5
5F
100
AcDbEntity
  8
Livello 1
370
     5
100
AcDbPolyline
 90
        5
 70
     1
 10
-30.02276
 20
1.82444
 10
-29.03006
 20
1.82444
 10
-29.03006
 20
2.52202
 10
-30.02276
 20
2.52202
 10
-30.02276
 20
1.82444
  0
LWPOLYLINE
  5
60
100
AcDbEntity
  8
Livello 1
370
     5
100
AcDbPolyline
 90
        5
 70
     1
 10
-31.98136
 20
1.82445
 10
-31.01548
 20
1.82445
 10
-31.01548
 20
2.49519
 10
-31.98136
 20
2.49519
 10
-31.98136
 20
1.82445
  0
LWPOLYLINE
  5
61
100
AcDbEntity
  8
Livello 1
370
     5
100
AcDbPolyline
 90
        5
 70
     1
 10
-33.9936
 20
1.77078
 10
-33.0009
 20
1.77078
 10
-33.0009
 20
2.46836
 10
-33.9936
 20
2.46836
 10
-33.9936
 20
1.77078
  0
LWPOLYLINE
  5
62
100
AcDbEntity
  8
Livello 1
370
     5
100
AcDbPolyline
 90
        5
 70
     1
 10
-33.96678
 20
0.26831
 10
-32.94724
 20
0.26831
 10
-32.94724
 20
0.93905
 10
-33.96678
 20
0.93905
 10
-33.96678
 20
0.26831
  0
LWPOLYLINE
  5
63
100
AcDbEntity
  8
Livello 1
370
     5
100
AcDbPolyline
 90
        5
 70
     1
 10
-31.95453
 20
0.26831
 10
-30.93499
 20
0.26831
 10
-30.93499
 20
0.99271
 10
-31.95453
 20
0.99271
 10
-31.95453
 20
0.26831
  0
LWPOLYLINE
  5
64
100
AcDbEntity
  8
Livello 1
370
     5
100
AcDbPolyline
 90
        5
 70
     1
 10
-29.99594
 20
0.29514
 10
-29.03006
 20
0.29514
 10
-29.03006
 20
1.01954
 10
-29.99594
 20
1.01954
 10
-29.99594
 20
0.29514
  0
LWPOLYLINE
  5
65
100
AcDbEntity
  8
Livello 1
370
     5
100
AcDbPolyline
 90
        5
 70
     1
 10
-27.98369
 20
0.29513
 10
-27.01781
 20
0.29513
 10
-27.01781
 20
0.99271
 10
-27.98369
 20
0.99271
 10
-27.98369
 20
0.29513
  0
LWPOLYLINE
  5
66
100
AcDbEntity
  8
Livello 1
370
     5
100
AcDbPolyline
 90
        5
 70
     1
 10
-26.0251
 20
0.29514
 10
-24.97874
 20
0.29514
 10
-24.97874
 20
0.96588
 10
-26.0251
 20
0.96588
 10
-26.0251
 20
0.29514
  0
LWPOLYLINE
  5
67
100
AcDbEntity
  8
Livello 1
370
     5
100
AcDbPolyline
 90
        5
 70
     1
 10
-23.98602
 20
0.24147
 10
-23.02014
 20
0.24147
 10
-23.02014
 20
0.99271
 10
-23.98602
 20
0.99271
 10
-23.98602
 20
0.24147
  0
LWPOLYLINE
  5
68
100
AcDbEntity
  8
Livello 1
370
     5
100
AcDbPolyline
 90
        5
 70
     1
 10
-12.52961
 20
-1.74395
 10
-10.97347
 20
-1.74395
 10
-10.97347
 20
-0.50977
 10
-12.52961
 20
-0.50977
 10
-12.52961
 20
-1.74395
  0
LWPOLYLINE
  5
69
100
AcDbEntity
  8
Livello 1
370
     5
100
AcDbPolyline
 90
        5
 70
     1
 10
4.05133
 20
-1.66346
 10
5.01721
 20
-1.66346
 10
5.01721
 20
-1.01954
 10
4.05133
 20
-1.01954
 10
4.05133
 20
-1.66346
  0
LWPOLYLINE
  5
6A
100
AcDbEntity
  8
Livello 1
370
     5
100
AcDbPolyline
 90
        5
 70
     1
 10
8.07583
 20
-2.17322
 10
9.04171
 20
-2.17322
 10
9.04171
 20
-1.50248
 10
8.07583
 20
-1.50248
 10
8.07583
 20
-2.17322
  0
LWPOLYLINE
  5
6B
100
AcDbEntity
  8
Livello 1
370
     5
100
AcDbPolyline
 90
        5
 70
     1
 10
15.99068
 20
-2.20006
 10
16.95656
 20
-2.20006
 10
16.95656
 20
-1.50248
 10
15.99068
 20
-1.50248
 10
15.99068
 20
-2.20006
  0
ENDSEC
  0
SECTION
  2
OBJECTS
  0
DICTIONARY
  5
19
100
AcDbDictionary
280
     0
281
     1
  3
ACAD_GROUP
350
1A
  3
ACAD_MLINESTYLE
350
1B
  3
ACAD_LAYOUT
350
1E
  3
ACAD_PLOTSETTINGS
350
22
  3
ACAD_PLOTSTYLENAME
350
1F
  3
ACAD_WIPEOUT_VARS
350
23
  0
DICTIONARY
  5
1A
102
{ACAD_REACTORS
330
19
102
}
100
AcDbDictionary
280
     0
281
     1
  0
DICTIONARY
  5
1B
102
{ACAD_REACTORS
330
19
102
}
100
AcDbDictionary
280
     0
281
     1
  3
Standard
350
1C
  0
MLINESTYLE
  5
1C
102
{ACAD_REACTORS
330
1B
102
}
100
AcDbMlineStyle
  2
Standard
 70
     0
  3

 62
     0
 51
90.0
 52
90.0
 71
     2
 49
0.5
 62
   256
  6
BYLAYER
 49
-0.5
 62
   256
  6
BYLAYER
  0
ACDBDICTIONARYWDFLT
  5
1F
102
{ACAD_REACTORS
330
19
102
}
100
AcDbDictionary
281
     1
  3
Normal
350
1D
100
AcDbDictionaryWithDefault
340
1D
  0
ACDBPLACEHOLDER
  5
1D
102
{ACAD_REACTORS
330
1F
102
}
  0
LAYOUT
  5
20
102
{ACAD_REACTORS
330
1E
102
}
100
AcDbPlotSettings
  1

  2

  4

  6

 40
0.0
 41
0.0
 42
0.0
 43
0.0
 44
0.0
 45
0.0
 46
0.0
 47
0.0
 48
0.0
 49
0.0
140
0.0
141
0.0
142
1.0
143
1.0
 70
  1024
 72
     0
 73
     0
 74
     0
  7

 75
     0
147
1.0
148
0.0
149
0.0
100
AcDbLayout
  1
Model
 70
     0
 71
     0
 10
0.0
 20
0.0
 11
0.0
 21
0.0
 12
0.0
 22
0.0
 32
0.0
 14
0.0
 24
0.0
 34
0.0
 15
0.0
 25
0.0
 35
0.0
146
0.0
 13
0.0
 23
0.0
 33
0.0
 16
0.0
 26
0.0
 36
0.0
 17
0.0
 27
0.0
 37
0.0
 76
     0
330
A
331
0
345
0
346
0
  0
LAYOUT
  5
21
102
{ACAD_REACTORS
330
1E
102
}
100
AcDbPlotSettings
  1

  2

  4

  6

 40
0.0
 41
0.0
 42
0.0
 43
0.0
 44
0.0
 45
0.0
 46
0.0
 47
0.0
 48
0.0
 49
0.0
140
0.0
141
0.0
142
1.0
143
1.0
 70
     0
 72
     0
 73
     0
 74
     0
  7

 75
     0
147
1.0
148
0.0
149
0.0
100
AcDbLayout
  1
Layout1
 70
     0
 71
     0
 10
0.0
 20
0.0
 11
0.0
 21
0.0
 12
0.0
 22
0.0
 32
0.0
 14
0.0
 24
0.0
 34
0.0
 15
0.0
 25
0.0
 35
0.0
146
0.0
 13
0.0
 23
0.0
 33
0.0
 16
0.0
 26
0.0
 36
0.0
 17
0.0
 27
0.0
 37
0.0
 76
     0
330
B
331
0
345
0
346
0
  0
DICTIONARY
  5
1E
102
{ACAD_REACTORS
330
19
102
}
100
AcDbDictionary
280
     0
281
     1
  3
Layout1
350
21
  3
Model
350
20
  0
DICTIONARY
  5
22
102
{ACAD_REACTORS
330
19
102
}
100
AcDbDictionary
280
     0
281
     1
  0
WIPEOUTVARIABLES
  5
23
100
AcDbWipeoutVariables
 70
     1
  0
ENDSEC
  0
EOF
