  0
SECTION
  2
HEADER
  9
$ACADVER
  1
AC1014
  9
$ACADMAINTVER
 70
     9
  9
$DWGCODEPAGE
  3
ANSI_1252
  9
$INSBASE
 10
0.0
 20
0.0
 30
0.0
  9
$EXTMIN
 10
0.0
 20
-0.0000000000002251
 30
-0.0000000000014211
  9
$EXTMAX
 10
500.0
 20
99.99999999999994
 30
0.0000000000002851
  9
$LIMMIN
 10
0.0
 20
0.0
  9
$LIMMAX
 10
12.0
 20
9.0
  9
$ORTHOMODE
 70
     1
  9
$REGENMODE
 70
     1
  9
$FILLMODE
 70
     1
  9
$QTEXTMODE
 70
     0
  9
$MIRRTEXT
 70
     1
  9
$DRAGMODE
 70
     2
  9
$LTSCALE
 40
1.0
  9
$OSMODE
 70
     7
  9
$ATTMODE
 70
     1
  9
$TEXTSIZE
 40
0.2
  9
$TRACEWID
 40
0.05
  9
$TEXTSTYLE
  7
STANDARD
  9
$CLAYER
  8
0
  9
$CELTYPE
  6
BYLAYER
  9
$CECOLOR
 62
   256
  9
$CELTSCALE
 40
1.0
  9
$DELOBJ
 70
     1
  9
$DISPSILH
 70
     0
  9
$DIMSCALE
 40
1.0
  9
$DIMASZ
 40
5.0
  9
$DIMEXO
 40
0.2
  9
$DIMDLI
 40
0.38
  9
$DIMRND
 40
0.0
  9
$DIMDLE
 40
0.0
  9
$DIMEXE
 40
0.2
  9
$DIMTP
 40
0.0
  9
$DIMTM
 40
0.0
  9
$DIMTXT
 40
10.0
  9
$DIMCEN
 40
1.0
  9
$DIMTSZ
 40
0.0
  9
$DIMTOL
 70
     0
  9
$DIMLIM
 70
     0
  9
$DIMTIH
 70
     1
  9
$DIMTOH
 70
     1
  9
$DIMSE1
 70
     0
  9
$DIMSE2
 70
     0
  9
$DIMTAD
 70
     0
  9
$DIMZIN
 70
     0
  9
$DIMBLK
  1

  9
$DIMASO
 70
     1
  9
$DIMSHO
 70
     1
  9
$DIMPOST
  1

  9
$DIMAPOST
  1

  9
$DIMALT
 70
     0
  9
$DIMALTD
 70
     2
  9
$DIMALTF
 40
25.4
  9
$DIMLFAC
 40
1.0
  9
$DIMTOFL
 70
     0
  9
$DIMTVP
 40
0.0
  9
$DIMTIX
 70
     0
  9
$DIMSOXD
 70
     0
  9
$DIMSAH
 70
     0
  9
$DIMBLK1
  1

  9
$DIMBLK2
  1

  9
$DIMSTYLE
  2
STANDARD
  9
$DIMCLRD
 70
     5
  9
$DIMCLRE
 70
     5
  9
$DIMCLRT
 70
     2
  9
$DIMTFAC
 40
1.0
  9
$DIMGAP
 40
0.1
  9
$DIMJUST
 70
     0
  9
$DIMSD1
 70
     0
  9
$DIMSD2
 70
     0
  9
$DIMTOLJ
 70
     1
  9
$DIMTZIN
 70
     0
  9
$DIMALTZ
 70
     0
  9
$DIMALTTZ
 70
     0
  9
$DIMFIT
 70
     3
  9
$DIMUPT
 70
     0
  9
$DIMUNIT
 70
     2
  9
$DIMDEC
 70
     4
  9
$DIMTDEC
 70
     4
  9
$DIMALTU
 70
     2
  9
$DIMALTTD
 70
     2
  9
$DIMTXSTY
  7
STANDARD
  9
$DIMAUNIT
 70
     0
  9
$LUNITS
 70
     2
  9
$LUPREC
 70
     4
  9
$SKETCHINC
 40
0.1
  9
$FILLETRAD
 40
5.0
  9
$AUNITS
 70
     0
  9
$AUPREC
 70
     0
  9
$MENU
  1
.
  9
$ELEVATION
 40
0.0
  9
$PELEVATION
 40
0.0
  9
$THICKNESS
 40
0.0
  9
$LIMCHECK
 70
     0
  9
$BLIPMODE
 70
     0
  9
$CHAMFERA
 40
0.0
  9
$CHAMFERB
 40
0.0
  9
$CHAMFERC
 40
0.0
  9
$CHAMFERD
 40
0.0
  9
$SKPOLY
 70
     0
  9
$TDCREATE
 40
2452507.628483449
  9
$TDUPDATE
 40
2453066.824895023
  9
$TDINDWG
 40
0.0511094907
  9
$TDUSRTIMER
 40
0.0511094907
  9
$USRTIMER
 70
     1
  9
$ANGBASE
 50
0.0
  9
$ANGDIR
 70
     0
  9
$PDMODE
 70
     0
  9
$PDSIZE
 40
0.0
  9
$PLINEWID
 40
0.0
  9
$COORDS
 70
     1
  9
$SPLFRAME
 70
     0
  9
$SPLINETYPE
 70
     6
  9
$SPLINESEGS
 70
     8
  9
$ATTDIA
 70
     0
  9
$ATTREQ
 70
     1
  9
$HANDLING
 70
 12289
  9
$HANDSEED
  5
881
  9
$SURFTAB1
 70
     6
  9
$SURFTAB2
 70
     6
  9
$SURFTYPE
 70
     6
  9
$SURFU
 70
     6
  9
$SURFV
 70
     6
  9
$UCSNAME
  2

  9
$UCSORG
 10
0.0
 20
0.0
 30
0.0
  9
$UCSXDIR
 10
1.0
 20
0.0
 30
0.0
  9
$UCSYDIR
 10
0.0
 20
1.0
 30
0.0
  9
$PUCSNAME
  2

  9
$PUCSORG
 10
0.0
 20
0.0
 30
0.0
  9
$PUCSXDIR
 10
1.0
 20
0.0
 30
0.0
  9
$PUCSYDIR
 10
0.0
 20
1.0
 30
0.0
  9
$USERI1
 70
     0
  9
$USERI2
 70
     0
  9
$USERI3
 70
     0
  9
$USERI4
 70
     0
  9
$USERI5
 70
     0
  9
$USERR1
 40
0.0
  9
$USERR2
 40
0.0
  9
$USERR3
 40
0.0
  9
$USERR4
 40
0.0
  9
$USERR5
 40
0.0
  9
$WORLDVIEW
 70
     1
  9
$SHADEDGE
 70
     3
  9
$SHADEDIF
 70
    70
  9
$TILEMODE
 70
     1
  9
$MAXACTVP
 70
    64
  9
$PINSBASE
 10
0.0
 20
0.0
 30
0.0
  9
$PLIMCHECK
 70
     0
  9
$PEXTMIN
 10
1.000000000000000E+20
 20
1.000000000000000E+20
 30
1.000000000000000E+20
  9
$PEXTMAX
 10
-1.000000000000000E+20
 20
-1.000000000000000E+20
 30
-1.000000000000000E+20
  9
$PLIMMIN
 10
0.0
 20
0.0
  9
$PLIMMAX
 10
12.0
 20
9.0
  9
$UNITMODE
 70
     0
  9
$VISRETAIN
 70
     1
  9
$PLINEGEN
 70
     0
  9
$PSLTSCALE
 70
     1
  9
$TREEDEPTH
 70
  3020
  9
$PICKSTYLE
 70
     1
  9
$CMLSTYLE
  2
STANDARD
  9
$CMLJUST
 70
     0
  9
$CMLSCALE
 40
1.0
  9
$PROXYGRAPHICS
 70
     1
  9
$MEASUREMENT
 70
     0
  0
ENDSEC
  0
SECTION
  2
CLASSES
  0
CLASS
  1
ACDBDICTIONARYWDFLT
  2
AcDbDictionaryWithDefault
  3
AutoCAD 2000
 90
        0
280
     0
281
     0
  0
CLASS
  1
ACDBPLACEHOLDER
  2
AcDbPlaceHolder
  3
AutoCAD 2000
 90
        0
280
     0
281
     0
  0
CLASS
  1
LAYOUT
  2
AcDbLayout
  3
AutoCAD 2000
 90
        0
280
     0
281
     0
  0
CLASS
  1
LONG_TRANSACTION
  2
AcDbLongTransaction
  3
AutoCAD 2000
 90
        0
280
     0
281
     0
  0
CLASS
  1
LWPOLYLINE
  2
AcDbPolyline
  3
AutoCAD 2000
 90
        0
280
     0
281
     1
  0
CLASS
  1
HATCH
  2
AcDbHatch
  3
AutoCAD 2000
 90
        0
280
     0
281
     1
  0
CLASS
  1
XRECORD
  2
AcDbXrecord
  3
AutoCAD 2000
 90
        0
280
     0
281
     0
  0
ENDSEC
  0
SECTION
  2
TABLES
  0
TABLE
  2
VPORT
  5
8
330
0
100
AcDbSymbolTable
 70
     2
  0
VPORT
  5
85C
330
8
100
AcDbSymbolTableRecord
100
AcDbViewportTableRecord
  2
*ACTIVE
 70
     0
 10
0.0
 20
0.0
 11
1.0
 21
1.0
 12
474.3963195741933
 22
167.5024952687459
 13
0.0
 23
0.0
 14
1.0
 24
1.0
 15
0.0
 25
0.0
 16
0.0
 26
0.0
 36
1.0
 17
-224.3924993470933
 27
-117.5024945702116
 37
209.823418587875
 40
299.1423959301974
 41
1.682481751824817
 42
50.0
 43
0.0
 44
0.0
 50
0.0
 51
0.0
 71
     0
 72
   100
 73
     1
 74
     3
 75
     0
 76
     0
 77
     0
 78
     0
  0
ENDTAB
  0
TABLE
  2
LTYPE
  5
5
330
0
100
AcDbSymbolTable
 70
     1
  0
LTYPE
  5
13
330
5
100
AcDbSymbolTableRecord
100
AcDbLinetypeTableRecord
  2
BYBLOCK
 70
     0
  3

 72
    65
 73
     0
 40
0.0
  0
LTYPE
  5
14
330
5
100
AcDbSymbolTableRecord
100
AcDbLinetypeTableRecord
  2
BYLAYER
 70
     0
  3

 72
    65
 73
     0
 40
0.0
  0
LTYPE
  5
15
330
5
100
AcDbSymbolTableRecord
100
AcDbLinetypeTableRecord
  2
CONTINUOUS
 70
     0
  3
Solid line
 72
    65
 73
     0
 40
0.0
  0
ENDTAB
  0
TABLE
  2
LAYER
  5
2
330
0
100
AcDbSymbolTable
 70
     3
  0
LAYER
  5
10
330
2
100
AcDbSymbolTableRecord
100
AcDbLayerTableRecord
  2
0
 70
     0
 62
     7
  6
CONTINUOUS
  0
LAYER
  5
22
330
2
100
AcDbSymbolTableRecord
100
AcDbLayerTableRecord
  2
1
 70
     0
 62
     7
  6
CONTINUOUS
  0
LAYER
  5
84
330
2
100
AcDbSymbolTableRecord
100
AcDbLayerTableRecord
  2
DEFPOINTS
 70
     0
 62
     7
  6
CONTINUOUS
  0
ENDTAB
  0
TABLE
  2
STYLE
  5
3
330
0
100
AcDbSymbolTable
 70
     1
  0
STYLE
  5
11
330
3
100
AcDbSymbolTableRecord
100
AcDbTextStyleTableRecord
  2
STANDARD
 70
     0
 40
0.0
 41
1.0
 50
0.0
 71
     0
 42
0.2
  3
txt
  4

  0
ENDTAB
  0
TABLE
  2
VIEW
  5
6
330
0
100
AcDbSymbolTable
 70
     0
  0
ENDTAB
  0
TABLE
  2
UCS
  5
7
330
0
100
AcDbSymbolTable
 70
     0
  0
ENDTAB
  0
TABLE
  2
APPID
  5
9
330
0
100
AcDbSymbolTable
 70
     1
  0
APPID
  5
12
330
9
100
AcDbSymbolTableRecord
100
AcDbRegAppTableRecord
  2
ACAD
 70
     0
  0
ENDTAB
  0
TABLE
  2
DIMSTYLE
  5
A
330
0
100
AcDbSymbolTable
 70
     1
  0
DIMSTYLE
105
62
330
A
100
AcDbSymbolTableRecord
100
AcDbDimStyleTableRecord
  2
STANDARD
 70
     0
  3

  4

  5

  6

  7

 40
1.0
 41
5.0
 42
0.2
 43
0.38
 44
0.2
 45
0.0
 46
0.0
 47
0.0
 48
0.0
140
10.0
141
1.0
142
0.0
143
25.4
144
1.0
145
0.0
146
1.0
147
0.1
 71
     0
 72
     0
 73
     1
 74
     1
 75
     0
 76
     0
 77
     0
 78
     0
170
     0
171
     2
172
     0
173
     0
174
     0
175
     0
176
     5
177
     5
178
     2
270
     2
271
     4
272
     4
273
     2
274
     2
340
11
275
     0
280
     0
281
     0
282
     0
283
     1
284
     0
285
     0
286
     0
287
     3
288
     0
  0
ENDTAB
  0
TABLE
  2
BLOCK_RECORD
  5
1
330
0
100
AcDbSymbolTable
 70
     0
  0
BLOCK_RECORD
  5
1E
102
{ACAD_XDICTIONARY
360
87F
102
}
330
1
100
AcDbSymbolTableRecord
100
AcDbBlockTableRecord
  2
*MODEL_SPACE
  0
BLOCK_RECORD
  5
1A
102
{ACAD_XDICTIONARY
360
87D
102
}
330
1
100
AcDbSymbolTableRecord
100
AcDbBlockTableRecord
  2
*PAPER_SPACE
  0
ENDTAB
  0
ENDSEC
  0
SECTION
  2
BLOCKS
  0
BLOCK
  5
1F
330
1E
100
AcDbEntity
  8
0
100
AcDbBlockBegin
  2
*MODEL_SPACE
 70
     0
 10
0.0
 20
0.0
 30
0.0
  3
*MODEL_SPACE
  1

  0
ENDBLK
  5
20
330
1E
100
AcDbEntity
  8
0
100
AcDbBlockEnd
  0
BLOCK
  5
1B
330
1A
100
AcDbEntity
 67
     1
  8
0
100
AcDbBlockBegin
  2
*PAPER_SPACE
 70
     0
 10
0.0
 20
0.0
 30
0.0
  3
*PAPER_SPACE
  1

  0
ENDBLK
  5
1C
330
1A
100
AcDbEntity
 67
     1
  8
0
100
AcDbBlockEnd
  0
ENDSEC
  0
SECTION
  2
ENTITIES
  0
LWPOLYLINE
  5
569
330
1E
100
AcDbEntity
  8
0
100
AcDbPolyline
 90
        2
 70
     0
 43
0.0
 10
499.9999999999998
 20
4.99999999999989
 10
500.0
 20
94.99999999999984
  0
LINE
  5
59B
330
1E
100
AcDbEntity
  8
1
100
AcDbLine
 10
154.8900456479216
 20
36.41463992570635
 30
-0.0000000000008527
 11
139.5946456479217
 21
37.47173992570634
 31
-0.0000000000007958
  0
LINE
  5
59C
330
1E
100
AcDbEntity
  8
1
100
AcDbLine
 10
140.1061456479215
 20
8.685139925706266
 30
-0.0000000000008527
 11
156.4989456479214
 21
9.379539925706296
 31
-0.0000000000009095
  0
LINE
  5
59D
330
1E
100
AcDbEntity
  8
1
100
AcDbLine
 10
248.6278449993306
 20
14.41690538712941
 30
-0.0000000000009663
 11
264.5075456479215
 21
15.81915150937794
 31
-0.0000000000010232
  0
LINE
  5
59E
330
1E
100
AcDbEntity
  8
1
100
AcDbLine
 10
258.053118947674
 20
22.88959934414583
 30
-0.0000000000009663
 11
246.1323456479213
 21
24.98493992570621
 31
-0.0000000000009663
  0
LINE
  5
59F
330
1E
100
AcDbEntity
  8
1
100
AcDbLine
 10
264.5075456479215
 20
21.81915150937794
 30
-0.0000000000010232
 11
258.053118947674
 21
22.88959934414583
 31
-0.0000000000009663
  0
LINE
  5
5A0
330
1E
100
AcDbEntity
  8
0
100
AcDbLine
 10
264.5075456479215
 20
15.81915150937794
 30
-0.0000000000010232
 11
264.5075456479215
 21
21.81915150937794
 31
-0.0000000000010232
  0
LINE
  5
5A1
330
1E
100
AcDbEntity
  8
0
100
AcDbLine
 10
264.5075456479215
 20
21.81915150937794
 30
-0.0000000000010232
 11
264.5075456479215
 21
15.81915150937794
 31
-0.0000000000010232
  0
LINE
  5
5A2
330
1E
100
AcDbEntity
  8
1
100
AcDbLine
 10
189.6069456479215
 20
10.91713992570623
 30
-0.0000000000009095
 11
205.9191456479214
 21
11.70763992570624
 31
-0.0000000000009095
  0
LINE
  5
5A3
330
1E
100
AcDbEntity
  8
1
100
AcDbLine
 10
221.8035456479215
 20
12.47953992570626
 30
-0.0000000000009663
 11
236.1613771350846
 21
13.41349705304219
 31
-0.0000000000009663
  0
LINE
  5
5A4
330
1E
100
AcDbEntity
  8
1
100
AcDbLine
 10
236.1613771350846
 20
13.41349705304219
 30
-0.0000000000009663
 11
248.6278449993306
 21
14.41690538712941
 31
-0.0000000000009663
  0
LINE
  5
5A5
330
1E
100
AcDbEntity
  8
1
100
AcDbLine
 10
205.9191456479214
 20
11.70763992570624
 30
-0.0000000000009095
 11
221.8035456479215
 21
12.47953992570626
 31
-0.0000000000009663
  0
LINE
  5
5A6
330
1E
100
AcDbEntity
  8
1
100
AcDbLine
 10
156.4989456479214
 20
9.379539925706296
 30
-0.0000000000009095
 11
173.0653456479215
 21
10.13283992570626
 31
-0.0000000000009095
  0
LINE
  5
5A7
330
1E
100
AcDbEntity
  8
1
100
AcDbLine
 10
173.0653456479215
 20
10.13283992570626
 30
-0.0000000000009095
 11
189.6069456479215
 21
10.91713992570623
 31
-0.0000000000009095
  0
LINE
  5
5A8
330
1E
100
AcDbEntity
  8
1
100
AcDbLine
 10
201.3621456479214
 20
31.44533992570626
 30
-0.0000000000009095
 11
185.8962456479217
 21
33.37353992570632
 31
-0.0000000000009095
  0
LINE
  5
5A9
330
1E
100
AcDbEntity
  8
1
100
AcDbLine
 10
231.6274456479214
 20
27.13323992570627
 30
-0.0000000000009663
 11
216.6482456479214
 21
29.33113992570628
 31
-0.0000000000009095
  0
LINE
  5
5AA
330
1E
100
AcDbEntity
  8
1
100
AcDbLine
 10
246.1323456479213
 20
24.98493992570621
 30
-0.0000000000009663
 11
231.6274456479214
 21
27.13323992570627
 31
-0.0000000000009663
  0
LINE
  5
5AB
330
1E
100
AcDbEntity
  8
1
100
AcDbLine
 10
216.6482456479214
 20
29.33113992570628
 30
-0.0000000000009095
 11
201.3621456479214
 21
31.44533992570626
 31
-0.0000000000009095
  0
LINE
  5
5AC
330
1E
100
AcDbEntity
  8
1
100
AcDbLine
 10
185.8962456479217
 20
33.37353992570632
 30
-0.0000000000009095
 11
170.3683456479216
 21
35.04133992570626
 31
-0.0000000000008527
  0
LINE
  5
5AD
330
1E
100
AcDbEntity
  8
1
100
AcDbLine
 10
170.3683456479216
 20
35.04133992570626
 30
-0.0000000000008527
 11
154.8900456479216
 21
36.41463992570635
 31
-0.0000000000008527
  0
LINE
  5
5AE
330
1E
100
AcDbEntity
  8
1
100
AcDbLine
 10
40.02264564792159
 20
33.19993992570636
 30
-0.0000000000006821
 11
32.01224564792147
 21
31.12603992570632
 31
-0.0000000000006821
  0
LINE
  5
5AF
330
1E
100
AcDbEntity
  8
1
100
AcDbLine
 10
27.52654564792152
 20
10.6784399257063
 30
-0.000000000000739
 11
35.4501456479216
 21
9.463239925706318
 31
-0.000000000000739
  0
LINE
  5
5B0
330
1E
100
AcDbEntity
  8
1
100
AcDbLine
 10
79.9351456479215
 20
7.2529399257063
 30
-0.0000000000007958
 11
93.83554564792149
 21
7.339739925706282
 31
-0.0000000000007958
  0
LINE
  5
5B1
330
1E
100
AcDbEntity
  8
1
100
AcDbLine
 10
111.5075456479215
 20
7.714106979581742
 30
-0.0000000000007958
 11
124.0822456479214
 21
8.086839925706271
 31
-0.0000000000008527
  0
LINE
  5
5B2
330
1E
100
AcDbEntity
  8
1
100
AcDbLine
 10
124.0822456479214
 20
8.086839925706271
 30
-0.0000000000008527
 11
140.1061456479215
 21
8.685139925706266
 31
-0.0000000000008527
  0
LINE
  5
5B3
330
1E
100
AcDbEntity
  8
1
100
AcDbLine
 10
93.83554564792149
 20
7.339739925706282
 30
-0.0000000000007958
 11
105.5075456479215
 21
7.567593829988425
 31
-0.0000000000007958
  0
LINE
  5
5B4
330
1E
100
AcDbEntity
  8
0
100
AcDbLine
 10
105.5075456479215
 20
13.57424879954021
 30
-0.0000000000007958
 11
111.5075456479215
 21
13.71410697958174
 31
-0.0000000000007958
  0
LINE
  5
5B5
330
1E
100
AcDbEntity
  8
0
100
AcDbLine
 10
111.5075456479215
 20
13.71410697958174
 30
-0.0000000000007958
 11
111.5075456479215
 21
7.714106979581742
 31
-0.0000000000007958
  0
LINE
  5
5B6
330
1E
100
AcDbEntity
  8
0
100
AcDbLine
 10
105.5075456479215
 20
13.57424879954021
 30
-0.0000000000007958
 11
105.5075456479215
 21
7.567593829988425
 31
-0.0000000000007958
  0
LINE
  5
5B7
330
1E
100
AcDbEntity
  8
1
100
AcDbLine
 10
55.27464564792154
 20
7.807839925706275
 30
-0.000000000000739
 11
67.04224564792145
 21
7.398639925706277
 31
-0.0000000000007958
  0
LINE
  5
5B8
330
1E
100
AcDbEntity
  8
1
100
AcDbLine
 10
67.04224564792145
 20
7.398639925706277
 30
-0.0000000000007958
 11
79.9351456479215
 21
7.2529399257063
 31
-0.0000000000007958
  0
LINE
  5
5B9
330
1E
100
AcDbEntity
  8
1
100
AcDbLine
 10
44.7191456479216
 20
8.499139925706288
 30
-0.000000000000739
 11
55.27464564792154
 21
7.807839925706275
 31
-0.000000000000739
  0
LINE
  5
5BA
330
1E
100
AcDbEntity
  8
1
100
AcDbLine
 10
35.4501456479216
 20
9.463239925706318
 30
-0.000000000000739
 11
44.7191456479216
 21
8.499139925706288
 31
-0.000000000000739
  0
LINE
  5
5BB
330
1E
100
AcDbEntity
  8
1
100
AcDbLine
 10
96.25974564792143
 20
38.62803992570633
 30
-0.0000000000007958
 11
83.12814564792148
 21
38.2839399257063
 31
-0.000000000000739
  0
LINE
  5
5BC
330
1E
100
AcDbEntity
  8
1
100
AcDbLine
 10
124.6278456479217
 20
38.20643992570632
 30
-0.0000000000007958
 11
111.5075456479217
 21
38.56005656741757
 31
-0.0000000000007958
  0
LINE
  5
5BD
330
1E
100
AcDbEntity
  8
1
100
AcDbLine
 10
139.5946456479217
 20
37.47173992570634
 30
-0.0000000000007958
 11
124.6278456479217
 21
38.20643992570632
 31
-0.0000000000007958
  0
LINE
  5
5BE
330
1E
100
AcDbEntity
  8
1
100
AcDbLine
 10
105.5075456479217
 20
38.60737906779746
 30
-0.0000000000007958
 11
96.25974564792143
 21
38.62803992570633
 31
-0.0000000000007958
  0
LINE
  5
5BF
330
1E
100
AcDbEntity
  8
0
100
AcDbLine
 10
105.5075456479215
 20
32.58624046165084
 30
-0.0000000000007958
 11
111.5075456479215
 21
32.56005656741757
 31
-0.0000000000007958
  0
LINE
  5
5C0
330
1E
100
AcDbEntity
  8
0
100
AcDbLine
 10
111.5075456479215
 20
32.56005656741757
 30
-0.0000000000007958
 11
111.5075456479217
 21
38.56005656741757
 31
-0.0000000000007958
  0
LINE
  5
5C1
330
1E
100
AcDbEntity
  8
0
100
AcDbLine
 10
105.5075456479215
 20
32.58624046165084
 30
-0.0000000000007958
 11
105.5075456479217
 21
38.60737906779746
 31
-0.0000000000007958
  0
LINE
  5
5C2
330
1E
100
AcDbEntity
  8
1
100
AcDbLine
 10
70.84904564792151
 20
37.55543992570625
 30
-0.000000000000739
 11
59.51544564792158
 21
36.44873992570632
 31
-0.000000000000739
  0
LINE
  5
5C3
330
1E
100
AcDbEntity
  8
1
100
AcDbLine
 10
83.12814564792148
 20
38.2839399257063
 30
-0.000000000000739
 11
70.84904564792151
 21
37.55543992570625
 31
-0.000000000000739
  0
LINE
  5
5C4
330
1E
100
AcDbEntity
  8
1
100
AcDbLine
 10
49.2141456479215
 20
34.98553992570629
 30
-0.000000000000739
 11
40.02264564792159
 21
33.19993992570636
 31
-0.0000000000006821
  0
LINE
  5
5C5
330
1E
100
AcDbEntity
  8
1
100
AcDbLine
 10
59.51544564792158
 20
36.44873992570632
 30
-0.000000000000739
 11
49.2141456479215
 21
34.98553992570629
 31
-0.000000000000739
  0
LINE
  5
5C6
330
1E
100
AcDbEntity
  8
0
100
AcDbLine
 10
14.25326690776415
 20
14.44566118554877
 30
-0.0000000000006821
 11
18.00754564792151
 21
18.1999399257063
 31
-0.000000000000739
  0
LINE
  5
5C7
330
1E
100
AcDbEntity
  8
1
100
AcDbLine
 10
21.00724564792159
 20
12.09203992570633
 30
-0.0000000000006821
 11
27.52654564792152
 21
10.6784399257063
 31
-0.000000000000739
  0
LINE
  5
5C8
330
1E
100
AcDbEntity
  8
1
100
AcDbLine
 10
14.25326690776415
 20
14.44566118554877
 30
-0.0000000000006821
 11
15.96354564792142
 21
13.64823992570632
 31
-0.0000000000006821
  0
LINE
  5
5C9
330
1E
100
AcDbEntity
  8
1
100
AcDbLine
 10
15.96354564792142
 20
13.64823992570632
 30
-0.0000000000006821
 11
21.00724564792159
 21
12.09203992570633
 31
-0.0000000000006821
  0
LINE
  5
5CA
330
1E
100
AcDbEntity
  8
1
100
AcDbLine
 10
25.23254564792142
 20
28.80103992570633
 30
-0.0000000000006821
 11
19.69904564792142
 21
26.28383992570633
 31
-0.0000000000006821
  0
LINE
  5
5CB
330
1E
100
AcDbEntity
  8
1
100
AcDbLine
 10
32.01224564792147
 20
31.12603992570632
 30
-0.0000000000006821
 11
25.23254564792142
 21
28.80103992570633
 31
-0.0000000000006821
  0
LINE
  5
5CC
330
1E
100
AcDbEntity
  8
1
100
AcDbLine
 10
15.43344564792147
 20
23.67983992570628
 30
-0.0000000000006821
 11
13.87289344736433
 21
22.33459212626337
 31
-0.0000000000006821
  0
LINE
  5
5CD
330
1E
100
AcDbEntity
  8
0
100
AcDbLine
 10
13.87289344736433
 20
22.33459212626337
 30
-0.0000000000006821
 11
18.00754564792151
 21
18.1999399257063
 31
-0.000000000000739
  0
LINE
  5
5CE
330
1E
100
AcDbEntity
  8
1
100
AcDbLine
 10
19.69904564792142
 20
26.28383992570633
 30
-0.0000000000006821
 11
15.43344564792147
 21
23.67983992570628
 31
-0.0000000000006821
  0
LINE
  5
669
330
1E
100
AcDbEntity
  8
1
100
AcDbLine
 10
198.8558044014381
 20
81.9960433927452
 30
-0.0000000000009095
 11
185.8094044014381
 21
83.91034339274511
 31
-0.0000000000009095
  0
LINE
  5
66A
330
1E
100
AcDbEntity
  8
1
100
AcDbLine
 10
190.2995044014381
 20
69.23314339274515
 30
-0.0000000000009095
 11
202.2617901104245
 21
70.10245240980049
 31
-0.0000000000009095
  0
LINE
  5
66B
330
1E
100
AcDbEntity
  8
1
100
AcDbLine
 10
219.3217056293149
 20
78.79744434370633
 30
-0.0000000000009663
 11
211.489104401438
 21
80.12494339274514
 31
-0.0000000000009095
  0
LINE
  5
66C
330
1E
100
AcDbEntity
  8
1
100
AcDbLine
 10
202.2617901104245
 20
70.10245240980049
 30
-0.0000000000009095
 11
215.7106383308019
 21
71.04322589858572
 31
-0.0000000000009663
  0
LINE
  5
66D
330
1E
100
AcDbEntity
  8
0
100
AcDbLine
 10
224.2675044014379
 20
77.89915497641681
 30
-0.0000000000009663
 11
224.2675044014379
 21
71.89915497641692
 31
-0.0000000000009663
  0
LINE
  5
66E
330
1E
100
AcDbEntity
  8
0
100
AcDbLine
 10
224.2675044014379
 20
71.89915497641692
 30
-0.0000000000009663
 11
224.2675044014379
 21
77.89915497641692
 31
-0.0000000000009663
  0
LINE
  5
66F
330
1E
100
AcDbEntity
  8
1
100
AcDbLine
 10
215.7106383308019
 20
71.04322589858572
 30
-0.0000000000009663
 11
224.2675044014379
 21
71.89915497641692
 31
-0.0000000000009663
  0
LINE
  5
670
330
1E
100
AcDbEntity
  8
1
100
AcDbLine
 10
224.2675044014379
 20
77.89915497641692
 30
-0.0000000000009663
 11
219.3217056293149
 21
78.79744434370633
 31
-0.0000000000009663
  0
LINE
  5
671
330
1E
100
AcDbEntity
  8
1
100
AcDbLine
 10
211.489104401438
 20
80.12494339274514
 30
-0.0000000000009095
 11
198.8558044014381
 21
81.9960433927452
 31
-0.0000000000009095
  0
LINE
  5
672
330
1E
100
AcDbEntity
  8
1
100
AcDbLine
 10
89.26750440143797
 20
91.98907190034123
 30
-0.0000000000007958
 11
80.95490440143777
 21
92.00764339274526
 31
-0.000000000000739
  0
LINE
  5
673
330
1E
100
AcDbEntity
  8
1
100
AcDbLine
 10
78.843504401438
 20
64.75654339274519
 30
-0.0000000000007958
 11
89.26750440143797
 21
64.96003457662419
 31
-0.0000000000007958
  0
LINE
  5
674
330
1E
100
AcDbEntity
  8
1
100
AcDbLine
 10
133.421304401438
 20
66.5331433927451
 30
-0.0000000000008527
 11
147.8501044014381
 21
67.18924339274514
 31
-0.0000000000009095
  0
LINE
  5
675
330
1E
100
AcDbEntity
  8
1
100
AcDbLine
 10
145.5011044014379
 20
88.8837433927452
 30
-0.0000000000008527
 11
132.020004401438
 21
90.07984339274509
 31
-0.0000000000008527
  0
LINE
  5
676
330
1E
100
AcDbEntity
  8
1
100
AcDbLine
 10
172.4957044014379
 20
85.75174339274514
 30
-0.0000000000009095
 11
159.025404401438
 21
87.43114339274512
 31
-0.0000000000008527
  0
LINE
  5
677
330
1E
100
AcDbEntity
  8
1
100
AcDbLine
 10
162.257304401438
 20
67.87234339274511
 30
-0.0000000000009095
 11
176.464704401438
 21
68.56084339274508
 31
-0.0000000000009095
  0
LINE
  5
678
330
1E
100
AcDbEntity
  8
1
100
AcDbLine
 10
185.8094044014381
 20
83.91034339274511
 30
-0.0000000000009095
 11
172.4957044014379
 21
85.75174339274514
 31
-0.0000000000009095
  0
LINE
  5
679
330
1E
100
AcDbEntity
  8
1
100
AcDbLine
 10
176.464704401438
 20
68.56084339274508
 30
-0.0000000000009095
 11
190.2995044014381
 21
69.23314339274515
 31
-0.0000000000009095
  0
LINE
  5
67A
330
1E
100
AcDbEntity
  8
1
100
AcDbLine
 10
159.025404401438
 20
87.43114339274512
 30
-0.0000000000008527
 11
145.5011044014379
 21
88.8837433927452
 31
-0.0000000000008527
  0
LINE
  5
67B
330
1E
100
AcDbEntity
  8
1
100
AcDbLine
 10
147.8501044014381
 20
67.18924339274514
 30
-0.0000000000009095
 11
162.257304401438
 21
67.87234339274511
 31
-0.0000000000009095
  0
LINE
  5
67C
330
1E
100
AcDbEntity
  8
0
100
AcDbLine
 10
95.26750440143798
 20
85.92061079381466
 30
-0.0000000000007958
 11
95.26750440143798
 21
91.92061079381465
 31
-0.0000000000007958
  0
LINE
  5
67D
330
1E
100
AcDbEntity
  8
0
100
AcDbLine
 10
89.26750440143797
 20
85.94679468804798
 30
-0.0000000000007958
 11
89.26750440143797
 21
91.98907190034123
 31
-0.0000000000007958
  0
LINE
  5
67E
330
1E
100
AcDbEntity
  8
1
100
AcDbLine
 10
132.020004401438
 20
90.07984339274509
 30
-0.0000000000008527
 11
118.6982044014381
 21
91.00054339274521
 31
-0.0000000000007958
  0
LINE
  5
67F
330
1E
100
AcDbEntity
  8
1
100
AcDbLine
 10
105.187404401438
 20
65.4072433927451
 30
-0.0000000000008527
 11
119.1437044014381
 21
65.92834339274515
 31
-0.0000000000008527
  0
LINE
  5
680
330
1E
100
AcDbEntity
  8
1
100
AcDbLine
 10
119.1437044014381
 20
65.92834339274515
 30
-0.0000000000008527
 11
133.421304401438
 21
66.5331433927451
 31
-0.0000000000008527
  0
LINE
  5
681
330
1E
100
AcDbEntity
  8
1
100
AcDbLine
 10
95.26750440143798
 20
65.11320269576941
 30
-0.0000000000007958
 11
105.187404401438
 21
65.4072433927451
 31
-0.0000000000008527
  0
LINE
  5
682
330
1E
100
AcDbEntity
  8
0
100
AcDbLine
 10
89.26750440143797
 20
70.97334451572788
 30
-0.0000000000007958
 11
95.26750440143798
 21
71.11320269576942
 31
-0.0000000000007958
  0
LINE
  5
683
330
1E
100
AcDbEntity
  8
0
100
AcDbLine
 10
95.26750440143798
 20
71.11320269576942
 30
-0.0000000000007958
 11
95.26750440143798
 21
65.11320269576941
 31
-0.0000000000007958
  0
LINE
  5
684
330
1E
100
AcDbEntity
  8
0
100
AcDbLine
 10
89.26750440143797
 20
70.97334451572788
 30
-0.0000000000007958
 11
89.26750440143797
 21
64.96003457662419
 31
-0.0000000000007958
  0
LINE
  5
685
330
1E
100
AcDbEntity
  8
0
100
AcDbLine
 10
89.26750440143797
 20
85.94679468804798
 30
-0.0000000000007958
 11
95.26750440143798
 21
85.92061079381466
 31
-0.0000000000007958
  0
LINE
  5
686
330
1E
100
AcDbEntity
  8
1
100
AcDbLine
 10
118.6982044014381
 20
91.00054339274521
 30
-0.0000000000007958
 11
105.6626044014381
 21
91.64044339274511
 31
-0.0000000000007958
  0
LINE
  5
687
330
1E
100
AcDbEntity
  8
1
100
AcDbLine
 10
105.6626044014381
 20
91.64044339274511
 30
-0.0000000000007958
 11
95.26750440143798
 21
91.92061079381465
 31
-0.0000000000007958
  0
LINE
  5
688
330
1E
100
AcDbEntity
  8
1
100
AcDbLine
 10
27.99170440143786
 20
66.6060433927451
 30
-0.000000000000739
 11
36.06470440143795
 21
65.76634339274511
 31
-0.000000000000739
  0
LINE
  5
689
330
1E
100
AcDbEntity
  8
1
100
AcDbLine
 10
39.97970440143791
 20
88.83514339274512
 30
-0.0000000000006821
 11
31.97420440143793
 21
87.27994339274522
 31
-0.0000000000006821
  0
LINE
  5
68A
330
1E
100
AcDbEntity
  8
1
100
AcDbLine
 10
58.82300440143791
 20
91.0734433927451
 30
-0.000000000000739
 11
48.95180440143787
 21
90.10954339274514
 31
-0.000000000000739
  0
LINE
  5
68B
330
1E
100
AcDbEntity
  8
1
100
AcDbLine
 10
55.50740440143778
 20
64.80784339274515
 30
-0.000000000000739
 11
66.73670440143798
 21
64.68094339274518
 31
-0.0000000000007958
  0
LINE
  5
68C
330
1E
100
AcDbEntity
  8
1
100
AcDbLine
 10
66.73670440143798
 20
64.68094339274518
 30
-0.0000000000007958
 11
78.843504401438
 21
64.75654339274519
 31
-0.0000000000007958
  0
LINE
  5
68D
330
1E
100
AcDbEntity
  8
1
100
AcDbLine
 10
45.25820440143781
 20
65.16424339274516
 30
-0.000000000000739
 11
55.50740440143778
 21
64.80784339274515
 31
-0.000000000000739
  0
LINE
  5
68E
330
1E
100
AcDbEntity
  8
1
100
AcDbLine
 10
48.95180440143787
 20
90.10954339274514
 30
-0.000000000000739
 11
39.97970440143791
 21
88.83514339274512
 31
-0.0000000000006821
  0
LINE
  5
68F
330
1E
100
AcDbEntity
  8
1
100
AcDbLine
 10
36.06470440143795
 20
65.76634339274511
 30
-0.000000000000739
 11
45.25820440143781
 21
65.16424339274516
 31
-0.000000000000739
  0
LINE
  5
690
330
1E
100
AcDbEntity
  8
1
100
AcDbLine
 10
69.51770440143793
 20
91.70794339274522
 30
-0.000000000000739
 11
58.82300440143791
 21
91.0734433927451
 31
-0.000000000000739
  0
LINE
  5
691
330
1E
100
AcDbEntity
  8
1
100
AcDbLine
 10
80.95490440143777
 20
92.00764339274526
 30
-0.000000000000739
 11
69.51770440143793
 21
91.70794339274522
 31
-0.000000000000739
  0
LINE
  5
692
330
1E
100
AcDbEntity
  8
1
100
AcDbLine
 10
24.99740440143801
 20
85.47364339274514
 30
-0.0000000000006821
 11
19.09250440143779
 21
83.44864339274517
 31
-0.0000000000006821
  0
LINE
  5
693
330
1E
100
AcDbEntity
  8
1
100
AcDbLine
 10
15.41240440143798
 20
68.89564339274517
 30
-0.0000000000006821
 11
21.09050440143783
 21
67.66444339274523
 31
-0.0000000000006821
  0
LINE
  5
694
330
1E
100
AcDbEntity
  8
1
100
AcDbLine
 10
21.09050440143783
 20
67.66444339274523
 30
-0.0000000000006821
 11
27.99170440143786
 21
66.6060433927451
 31
-0.000000000000739
  0
LINE
  5
695
330
1E
100
AcDbEntity
  8
1
100
AcDbLine
 10
31.97420440143793
 20
87.27994339274522
 30
-0.0000000000006821
 11
24.99740440143801
 21
85.47364339274514
 31
-0.0000000000006821
  0
LINE
  5
696
330
1E
100
AcDbEntity
  8
0
100
AcDbLine
 10
9.752985237092389
 20
78.29446255709064
 30
-0.000000000000739
 11
13.76750440143797
 21
74.27994339274511
 31
-0.000000000000739
  0
LINE
  5
697
330
1E
100
AcDbEntity
  8
0
100
AcDbLine
 10
10.14591663644694
 20
70.65835562775425
 30
-0.000000000000739
 11
13.76750440143797
 21
74.27994339274511
 31
-0.000000000000739
  0
LINE
  5
698
330
1E
100
AcDbEntity
  8
1
100
AcDbLine
 10
11.01950440143787
 20
70.2510433927452
 30
-0.000000000000739
 11
15.41240440143798
 21
68.89564339274517
 31
-0.0000000000006821
  0
LINE
  5
699
330
1E
100
AcDbEntity
  8
1
100
AcDbLine
 10
10.14591663644694
 20
70.65835562775425
 30
-0.000000000000739
 11
11.01950440143787
 21
70.2510433927452
 31
-0.000000000000739
  0
LINE
  5
69A
330
1E
100
AcDbEntity
  8
1
100
AcDbLine
 10
14.27300440143795
 20
81.25624339274514
 30
-0.0000000000006821
 11
10.55780440143792
 21
78.98824339274511
 31
-0.0000000000006821
  0
LINE
  5
69B
330
1E
100
AcDbEntity
  8
1
100
AcDbLine
 10
19.09250440143779
 20
83.44864339274517
 30
-0.0000000000006821
 11
14.27300440143795
 21
81.25624339274514
 31
-0.0000000000006821
  0
LINE
  5
69C
330
1E
100
AcDbEntity
  8
1
100
AcDbLine
 10
10.55780440143792
 20
78.98824339274511
 30
-0.0000000000006821
 11
9.752985237092389
 21
78.29446255709064
 31
-0.0000000000006821
  0
LINE
  5
69D
330
1E
100
AcDbEntity
  8
1
100
AcDbLine
 10
195.1314745684745
 20
41.0931259605739
 30
-0.0000000000007958
 11
201.610245997046
 21
41.07865149357524
 31
-0.0000000000007958
  0
LINE
  5
69E
330
1E
100
AcDbEntity
  8
1
100
AcDbLine
 10
203.0960459970458
 20
60.25535149357523
 30
-0.0000000000008527
 11
195.1314745684745
 21
60.09987182462959
 31
-0.0000000000008527
  0
LINE
  5
69F
330
1E
100
AcDbEntity
  8
1
100
AcDbLine
 10
184.223345997046
 20
41.3370514935753
 30
-0.0000000000007958
 11
189.1314745684745
 21
41.20476824223834
 31
-0.0000000000007958
  0
LINE
  5
6A0
330
1E
100
AcDbEntity
  8
0
100
AcDbLine
 10
195.1314745684745
 20
47.17858434800501
 30
-0.0000000000007958
 11
195.1314745684745
 21
41.0931259605739
 31
-0.0000000000007958
  0
LINE
  5
6A1
330
1E
100
AcDbEntity
  8
0
100
AcDbLine
 10
189.1314745684745
 20
47.20476824223834
 30
-0.0000000000007958
 11
189.1314745684745
 21
41.20476824223834
 31
-0.0000000000007958
  0
LINE
  5
6A2
330
1E
100
AcDbEntity
  8
1
100
AcDbLine
 10
118.6429459970459
 20
48.12385149357538
 30
-0.0000000000006821
 11
127.823745997046
 21
46.77675149357532
 31
-0.0000000000006821
  0
LINE
  5
6A3
330
1E
100
AcDbEntity
  8
1
100
AcDbLine
 10
124.6640459970459
 20
57.1051514935753
 30
-0.0000000000006821
 11
115.6126257724632
 21
56.47932570551091
 31
-0.0000000000006821
  0
LINE
  5
6A4
330
1E
100
AcDbEntity
  8
0
100
AcDbLine
 10
108.168045997046
 20
55.78633990990358
 30
-0.000000000000739
 11
108.168045997046
 21
49.78633990990358
 31
-0.000000000000739
  0
LINE
  5
6A5
330
1E
100
AcDbEntity
  8
0
100
AcDbLine
 10
108.168045997046
 20
49.78633990990357
 30
-0.0000000000006253
 11
108.168045997046
 21
55.78633990990358
 31
-0.0000000000006253
  0
LINE
  5
6A6
330
1E
100
AcDbEntity
  8
1
100
AcDbLine
 10
115.6126257724632
 20
56.47932570551091
 30
-0.0000000000006821
 11
108.168045997046
 21
55.78633990990358
 31
-0.000000000000739
  0
LINE
  5
6A7
330
1E
100
AcDbEntity
  8
1
100
AcDbLine
 10
108.168045997046
 20
49.78633990990357
 30
-0.0000000000006253
 11
111.6743047381165
 21
49.33301009039059
 31
-0.0000000000006821
  0
LINE
  5
6A8
330
1E
100
AcDbEntity
  8
1
100
AcDbLine
 10
111.6743047381165
 20
49.33301009039059
 30
-0.0000000000006821
 11
118.6429459970459
 21
48.12385149357538
 31
-0.0000000000006821
  0
LINE
  5
6A9
330
1E
100
AcDbEntity
  8
1
100
AcDbLine
 10
164.6894459970458
 20
59.00515149357528
 30
-0.0000000000007958
 11
154.535845997046
 21
58.54345149357533
 31
-0.000000000000739
  0
LINE
  5
6AA
330
1E
100
AcDbEntity
  8
1
100
AcDbLine
 10
156.188845997046
 20
43.27695149357526
 30
-0.000000000000739
 11
165.6755459970459
 21
42.43525149357521
 31
-0.000000000000739
  0
LINE
  5
6AB
330
1E
100
AcDbEntity
  8
1
100
AcDbLine
 10
137.1926459970459
 20
45.48095149357533
 30
-0.000000000000739
 11
146.6717459970459
 21
44.29915149357526
 31
-0.000000000000739
  0
LINE
  5
6AC
330
1E
100
AcDbEntity
  8
1
100
AcDbLine
 10
144.3974459970459
 20
58.06275149357526
 30
-0.000000000000739
 11
134.3996459970458
 21
57.57825149357524
 31
-0.000000000000739
  0
LINE
  5
6AD
330
1E
100
AcDbEntity
  8
1
100
AcDbLine
 10
134.3996459970458
 20
57.57825149357524
 30
-0.000000000000739
 11
124.6640459970459
 21
57.1051514935753
 31
-0.0000000000006821
  0
LINE
  5
6AE
330
1E
100
AcDbEntity
  8
1
100
AcDbLine
 10
127.823745997046
 20
46.77675149357532
 30
-0.0000000000006821
 11
137.1926459970459
 21
45.48095149357533
 31
-0.000000000000739
  0
LINE
  5
6AF
330
1E
100
AcDbEntity
  8
1
100
AcDbLine
 10
154.535845997046
 20
58.54345149357533
 30
-0.000000000000739
 11
144.3974459970459
 21
58.06275149357526
 31
-0.000000000000739
  0
LINE
  5
6B0
330
1E
100
AcDbEntity
  8
1
100
AcDbLine
 10
146.6717459970459
 20
44.29915149357526
 30
-0.000000000000739
 11
156.188845997046
 21
43.27695149357526
 31
-0.000000000000739
  0
LINE
  5
6B1
330
1E
100
AcDbEntity
  8
1
100
AcDbLine
 10
184.5577459970459
 20
59.79745149357523
 30
-0.0000000000007958
 11
174.7366459970458
 21
59.4307514935752
 31
-0.0000000000007958
  0
LINE
  5
6B2
330
1E
100
AcDbEntity
  8
1
100
AcDbLine
 10
175.0501459970458
 20
41.78735149357527
 30
-0.0000000000007958
 11
184.223345997046
 21
41.3370514935753
 31
-0.0000000000007958
  0
LINE
  5
6B3
330
1E
100
AcDbEntity
  8
1
100
AcDbLine
 10
174.7366459970458
 20
59.4307514935752
 30
-0.0000000000007958
 11
164.6894459970458
 21
59.00515149357528
 31
-0.0000000000007958
  0
LINE
  5
6B4
330
1E
100
AcDbEntity
  8
1
100
AcDbLine
 10
165.6755459970459
 20
42.43525149357521
 30
-0.000000000000739
 11
175.0501459970458
 21
41.78735149357527
 31
-0.0000000000007958
  0
LINE
  5
6B5
330
1E
100
AcDbEntity
  8
0
100
AcDbLine
 10
195.1314745684745
 20
54.07288184036445
 30
-0.0000000000007958
 11
189.1314745684745
 21
53.93302366032305
 31
-0.0000000000007958
  0
LINE
  5
6B6
330
1E
100
AcDbEntity
  8
1
100
AcDbLine
 10
189.1314745684745
 20
59.93302366032304
 30
-0.0000000000007958
 11
184.5577459970459
 21
59.79745149357523
 31
-0.0000000000007958
  0
LINE
  5
6B7
330
1E
100
AcDbEntity
  8
0
100
AcDbLine
 10
195.1314745684745
 20
54.07288184036445
 30
-0.0000000000007958
 11
195.1314745684745
 21
60.09987182462959
 31
-0.0000000000008527
  0
LINE
  5
6B8
330
1E
100
AcDbEntity
  8
0
100
AcDbLine
 10
189.1314745684745
 20
53.93302366032305
 30
-0.0000000000007958
 11
189.1314745684745
 21
59.93302366032304
 31
-0.0000000000007958
  0
LINE
  5
6B9
330
1E
100
AcDbEntity
  8
0
100
AcDbLine
 10
195.1314745684745
 20
47.17858434800501
 30
-0.0000000000007958
 11
189.1314745684745
 21
47.20476824223834
 31
-0.0000000000007958
  0
LINE
  5
6BA
330
1E
100
AcDbEntity
  8
1
100
AcDbLine
 10
209.6586459970458
 20
41.28955149357517
 30
-0.0000000000008527
 11
217.1845459970459
 21
41.73605149357519
 31
-0.0000000000008527
  0
LINE
  5
6BB
330
1E
100
AcDbEntity
  8
1
100
AcDbLine
 10
238.8806459970458
 20
58.9538514935752
 30
-0.0000000000009095
 11
233.1996459970458
 21
59.54475149357524
 31
-0.0000000000009095
  0
LINE
  5
6BC
330
1E
100
AcDbEntity
  8
1
100
AcDbLine
 10
236.0781459970458
 20
44.40555149357516
 30
-0.0000000000008527
 11
240.987745997046
 21
45.6766514935752
 31
-0.0000000000009663
  0
LINE
  5
6BD
330
1E
100
AcDbEntity
  8
1
100
AcDbLine
 10
217.1845459970459
 20
41.73605149357519
 30
-0.0000000000008527
 11
224.130945997046
 21
42.41435149357522
 31
-0.0000000000008527
  0
LINE
  5
6BE
330
1E
100
AcDbEntity
  8
1
100
AcDbLine
 10
219.517745997046
 20
60.21925149357532
 30
-0.0000000000008527
 11
211.615645997046
 21
60.30855149357518
 31
-0.0000000000008527
  0
LINE
  5
6BF
330
1E
100
AcDbEntity
  8
1
100
AcDbLine
 10
211.615645997046
 20
60.30855149357518
 30
-0.0000000000008527
 11
203.0960459970458
 21
60.25535149357523
 31
-0.0000000000008527
  0
LINE
  5
6C0
330
1E
100
AcDbEntity
  8
1
100
AcDbLine
 10
233.1996459970458
 20
59.54475149357524
 30
-0.0000000000009095
 11
226.7301459970458
 21
59.96845149357529
 31
-0.0000000000009095
  0
LINE
  5
6C1
330
1E
100
AcDbEntity
  8
1
100
AcDbLine
 10
226.7301459970458
 20
59.96845149357529
 30
-0.0000000000009095
 11
219.517745997046
 21
60.21925149357532
 31
-0.0000000000008527
  0
LINE
  5
6C2
330
1E
100
AcDbEntity
  8
1
100
AcDbLine
 10
230.4446459970459
 20
43.31115149357521
 30
-0.0000000000008527
 11
236.0781459970458
 21
44.40555149357516
 31
-0.0000000000008527
  0
LINE
  5
6C3
330
1E
100
AcDbEntity
  8
1
100
AcDbLine
 10
224.130945997046
 20
42.41435149357522
 30
-0.0000000000008527
 11
230.4446459970459
 21
43.31115149357521
 31
-0.0000000000008527
  0
LINE
  5
6C4
330
1E
100
AcDbEntity
  8
0
100
AcDbLine
 10
250.3319149501144
 20
49.74168254050659
 30
-0.0000000000009095
 11
246.668045997046
 21
53.40555149357516
 31
-0.0000000000009095
  0
LINE
  5
6C5
330
1E
100
AcDbEntity
  8
1
100
AcDbLine
 10
249.9278586320859
 20
56.66536412861518
 30
-0.0000000000009663
 11
247.7327459970459
 21
57.34265149357526
 31
-0.0000000000009663
  0
LINE
  5
6C6
330
1E
100
AcDbEntity
  8
1
100
AcDbLine
 10
247.7327459970459
 20
57.34265149357526
 30
-0.0000000000009663
 11
243.7370459970459
 21
58.20905149357526
 31
-0.0000000000009663
  0
LINE
  5
6C7
330
1E
100
AcDbEntity
  8
0
100
AcDbLine
 10
249.9278586320859
 20
56.66536412861518
 30
-0.0000000000009095
 11
246.668045997046
 21
53.40555149357516
 31
-0.0000000000009095
  0
LINE
  5
6C8
330
1E
100
AcDbEntity
  8
1
100
AcDbLine
 10
243.7370459970459
 20
58.20905149357526
 30
-0.0000000000009663
 11
238.8806459970458
 21
58.9538514935752
 31
-0.0000000000009095
  0
LINE
  5
6C9
330
1E
100
AcDbEntity
  8
1
100
AcDbLine
 10
248.5345459970458
 20
48.64445149357521
 30
-0.0000000000009663
 11
250.3319149501144
 21
49.74168254050659
 31
-0.0000000000009663
  0
LINE
  5
6CA
330
1E
100
AcDbEntity
  8
1
100
AcDbLine
 10
240.987745997046
 20
45.6766514935752
 30
-0.0000000000009663
 11
245.1430459970459
 21
47.10165149357528
 31
-0.0000000000009663
  0
LINE
  5
6CB
330
1E
100
AcDbEntity
  8
1
100
AcDbLine
 10
245.1430459970459
 20
47.10165149357528
 30
-0.0000000000009663
 11
248.5345459970458
 21
48.64445149357521
 31
-0.0000000000009663
  0
LINE
  5
6CC
330
1E
100
AcDbEntity
  8
1
100
AcDbLine
 10
201.610245997046
 20
41.07865149357524
 30
-0.0000000000007958
 11
209.6586459970458
 21
41.28955149357517
 31
-0.0000000000008527
  0
LINE
  5
6CD
330
1E
100
AcDbEntity
  8
1
100
AcDbLine
 10
344.2181996791301
 20
55.67335793291812
 30
-0.0000000000010232
 11
335.0449996791301
 21
56.12365793291821
 31
-0.0000000000010232
  0
LINE
  5
6CE
330
1E
100
AcDbEntity
  8
1
100
AcDbLine
 10
334.7105996791299
 20
37.66325793291815
 30
-0.0000000000010232
 11
344.5316996791301
 21
38.02995793291808
 31
-0.00000000000108
  0
LINE
  5
6CF
330
1E
100
AcDbEntity
  8
1
100
AcDbLine
 10
338.2524195507683
 20
12.39362501041284
 30
-0.0000000000011369
 11
351.7767195507683
 21
10.94102501041288
 31
-0.0000000000011369
  0
LINE
  5
6D0
330
1E
100
AcDbEntity
  8
1
100
AcDbLine
 10
349.4277195507682
 20
32.63552501041283
 30
-0.0000000000011937
 11
335.0205195507683
 21
31.95242501041287
 31
-0.0000000000011369
  0
LINE
  5
6D1
330
1E
100
AcDbEntity
  8
1
100
AcDbLine
 10
346.592652494295
 20
89.71528826739376
 30
-0.0000000000011937
 11
330.0262524942948
 21
88.96198826739379
 31
-0.0000000000011369
  0
LINE
  5
6D2
330
1E
100
AcDbEntity
  8
1
100
AcDbLine
 10
332.7232524942949
 20
64.05348826739379
 30
-0.0000000000011369
 11
348.2015524942949
 21
62.68018826739382
 31
-0.0000000000011369
  0
LINE
  5
6D3
330
1E
100
AcDbEntity
  8
1
100
AcDbLine
 10
298.4220195507683
 20
17.82872501041288
 30
-0.00000000000108
 11
311.4684195507682
 21
15.91442501041285
 31
-0.00000000000108
  0
LINE
  5
6D4
330
1E
100
AcDbEntity
  8
1
100
AcDbLine
 10
266.9302210071317
 20
85.6813311400578
 30
-0.0000000000010232
 11
254.4637531428857
 21
84.67792280597057
 31
-0.0000000000010232
  0
LINE
  5
6D5
330
1E
100
AcDbEntity
  8
1
100
AcDbLine
 10
256.9592524942948
 20
74.10988826739373
 30
-0.0000000000009663
 11
271.4641524942949
 21
71.96158826739377
 31
-0.0000000000010232
  0
LINE
  5
6D6
330
1E
100
AcDbEntity
  8
1
100
AcDbLine
 10
238.5840524942949
 20
77.27567668372199
 30
-0.0000000000009663
 11
245.0384791945424
 21
76.20522884895416
 31
-0.0000000000009663
  0
LINE
  5
6D7
330
1E
100
AcDbEntity
  8
1
100
AcDbLine
 10
254.4637531428857
 20
84.67792280597057
 30
-0.0000000000010232
 11
238.5840524942949
 21
83.275676683722
 31
-0.0000000000009663
  0
LINE
  5
6D8
330
1E
100
AcDbEntity
  8
0
100
AcDbLine
 10
238.5840524942949
 20
83.275676683722
 30
-0.0000000000009663
 11
238.5840524942949
 21
77.27567668372199
 31
-0.0000000000009663
  0
LINE
  5
6D9
330
1E
100
AcDbEntity
  8
0
100
AcDbLine
 10
238.5840524942949
 20
77.27567668372199
 30
-0.0000000000009663
 11
238.5840524942949
 21
83.275676683722
 31
-0.0000000000009663
  0
LINE
  5
6DA
330
1E
100
AcDbEntity
  8
1
100
AcDbLine
 10
245.0384791945424
 20
76.20522884895416
 30
-0.0000000000009663
 11
256.9592524942948
 21
74.10988826739373
 31
-0.0000000000009663
  0
LINE
  5
6DB
330
1E
100
AcDbEntity
  8
0
100
AcDbLine
 10
324.1368711077014
 20
50.28212507848838
 30
-0.0000000000010232
 11
324.1368711077014
 21
56.3675834659196
 31
-0.0000000000010232
  0
LINE
  5
6DC
330
1E
100
AcDbEntity
  8
1
100
AcDbLine
 10
309.60969967913
 20
56.1711579329181
 30
-0.0000000000009663
 11
302.0837996791299
 21
55.72465793291809
 31
-0.0000000000009663
  0
LINE
  5
6DD
330
1E
100
AcDbEntity
  8
0
100
AcDbLine
 10
330.1368711077014
 20
50.25594118425505
 30
-0.0000000000010232
 11
330.1368711077014
 21
56.25594118425505
 31
-0.0000000000010232
  0
LINE
  5
6DE
330
1E
100
AcDbEntity
  8
1
100
AcDbLine
 10
301.729452494295
 20
67.64948826739379
 30
-0.00000000000108
 11
317.1953524942949
 21
65.72128826739373
 31
-0.00000000000108
  0
LINE
  5
6DF
330
1E
100
AcDbEntity
  8
1
100
AcDbLine
 10
313.4846524942948
 20
88.17768826739376
 30
-0.00000000000108
 11
297.1724524942949
 21
87.38718826739381
 31
-0.00000000000108
  0
LINE
  5
6E0
330
1E
100
AcDbEntity
  8
1
100
AcDbLine
 10
297.1724524942949
 20
87.38718826739381
 30
-0.00000000000108
 11
281.288052494295
 21
86.61528826739374
 31
-0.0000000000010232
  0
LINE
  5
6E1
330
1E
100
AcDbEntity
  8
1
100
AcDbLine
 10
281.288052494295
 20
86.61528826739374
 30
-0.0000000000010232
 11
266.9302210071317
 21
85.6813311400578
 31
-0.0000000000010232
  0
LINE
  5
6E2
330
1E
100
AcDbEntity
  8
1
100
AcDbLine
 10
271.4641524942949
 20
71.96158826739377
 30
-0.0000000000010232
 11
286.4433524942949
 21
69.76368826739378
 31
-0.0000000000010232
  0
LINE
  5
6E3
330
1E
100
AcDbEntity
  8
1
100
AcDbLine
 10
286.4433524942949
 20
69.76368826739378
 30
-0.0000000000010232
 11
301.729452494295
 21
67.64948826739379
 31
-0.00000000000108
  0
LINE
  5
6E4
330
1E
100
AcDbEntity
  8
1
100
AcDbLine
 10
330.0262524942948
 20
88.96198826739379
 30
-0.0000000000011369
 11
313.4846524942948
 21
88.17768826739376
 31
-0.00000000000108
  0
LINE
  5
6E5
330
1E
100
AcDbEntity
  8
1
100
AcDbLine
 10
324.1368711077014
 20
56.3675834659196
 30
-0.0000000000010232
 11
317.6580996791299
 21
56.38205793291814
 31
-0.0000000000009663
  0
LINE
  5
6E6
330
1E
100
AcDbEntity
  8
1
100
AcDbLine
 10
317.1953524942949
 20
65.72128826739373
 30
-0.00000000000108
 11
332.7232524942949
 21
64.05348826739379
 31
-0.0000000000011369
  0
LINE
  5
6E7
330
1E
100
AcDbEntity
  8
1
100
AcDbLine
 10
317.6580996791299
 20
56.38205793291814
 30
-0.0000000000009663
 11
309.60969967913
 21
56.1711579329181
 31
-0.0000000000009663
  0
LINE
  5
6E8
330
1E
100
AcDbEntity
  8
1
100
AcDbLine
 10
335.0449996791301
 20
56.12365793291821
 30
-0.0000000000010232
 11
330.1368711077014
 21
56.25594118425505
 31
-0.0000000000010232
  0
LINE
  5
6E9
330
1E
100
AcDbEntity
  8
1
100
AcDbLine
 10
299.7505996791299
 20
37.24145793291819
 30
-0.0000000000009663
 11
307.6526996791299
 21
37.1521579329181
 31
-0.0000000000010232
  0
LINE
  5
6EA
330
1E
100
AcDbEntity
  8
1
100
AcDbLine
 10
306.9783195507682
 20
30.59162501041282
 30
-0.00000000000108
 11
295.0160338417818
 21
29.7223159933576
 31
-0.00000000000108
  0
LINE
  5
6EB
330
1E
100
AcDbEntity
  8
1
100
AcDbLine
 10
280.38769967913
 20
38.50685793291819
 30
-0.0000000000009663
 11
286.0686996791299
 21
37.91595793291816
 31
-0.0000000000009663
  0
LINE
  5
6EC
330
1E
100
AcDbEntity
  8
1
100
AcDbLine
 10
288.82369967913
 20
54.14955793291818
 30
-0.0000000000009663
 11
283.1901996791301
 21
53.05515793291812
 31
-0.0000000000009663
  0
LINE
  5
6ED
330
1E
100
AcDbEntity
  8
0
100
AcDbLine
 10
268.9364307260614
 20
47.71902688598681
 30
-0.0000000000009663
 11
272.6002996791301
 21
44.05515793291812
 31
-0.0000000000009663
  0
LINE
  5
6EE
330
1E
100
AcDbEntity
  8
1
100
AcDbLine
 10
274.12529967913
 20
50.35905793291823
 30
-0.0000000000010232
 11
270.73379967913
 21
48.81625793291817
 31
-0.0000000000010232
  0
LINE
  5
6EF
330
1E
100
AcDbEntity
  8
1
100
AcDbLine
 10
278.2805996791301
 20
51.78405793291819
 30
-0.0000000000010232
 11
274.12529967913
 21
50.35905793291823
 31
-0.0000000000010232
  0
LINE
  5
6F0
330
1E
100
AcDbEntity
  8
1
100
AcDbLine
 10
283.1901996791301
 20
53.05515793291812
 30
-0.0000000000009663
 11
278.2805996791301
 21
51.78405793291819
 31
-0.0000000000010232
  0
LINE
  5
6F1
330
1E
100
AcDbEntity
  8
1
100
AcDbLine
 10
270.73379967913
 20
48.81625793291817
 30
-0.0000000000010232
 11
268.9364307260614
 21
47.71902688598681
 31
-0.0000000000009663
  0
LINE
  5
6F2
330
1E
100
AcDbEntity
  8
1
100
AcDbLine
 10
271.53559967913
 20
40.11805793291824
 30
-0.0000000000010232
 11
275.5312996791299
 21
39.25165793291813
 31
-0.0000000000010232
  0
LINE
  5
6F3
330
1E
100
AcDbEntity
  8
1
100
AcDbLine
 10
275.5312996791299
 20
39.25165793291813
 30
-0.0000000000010232
 11
280.38769967913
 21
38.50685793291819
 31
-0.0000000000009663
  0
LINE
  5
6F4
330
1E
100
AcDbEntity
  8
1
100
AcDbLine
 10
269.34048704409
 20
40.79534529787821
 30
-0.0000000000010232
 11
271.53559967913
 21
40.11805793291824
 31
-0.0000000000010232
  0
LINE
  5
6F5
330
1E
100
AcDbEntity
  8
0
100
AcDbLine
 10
269.34048704409
 20
40.79534529787821
 30
-0.0000000000009663
 11
272.6002996791301
 21
44.05515793291812
 31
-0.0000000000009663
  0
LINE
  5
6F6
330
1E
100
AcDbEntity
  8
1
100
AcDbLine
 10
295.1373996791301
 20
55.04635793291817
 30
-0.0000000000009663
 11
288.82369967913
 21
54.14955793291818
 31
-0.0000000000009663
  0
LINE
  5
6F7
330
1E
100
AcDbEntity
  8
1
100
AcDbLine
 10
302.0837996791299
 20
55.72465793291809
 30
-0.0000000000009663
 11
295.1373996791301
 21
55.04635793291817
 31
-0.0000000000009663
  0
LINE
  5
6F8
330
1E
100
AcDbEntity
  8
1
100
AcDbLine
 10
292.53819967913
 20
37.49225793291822
 30
-0.0000000000009663
 11
299.7505996791299
 21
37.24145793291819
 31
-0.0000000000009663
  0
LINE
  5
6F9
330
1E
100
AcDbEntity
  8
1
100
AcDbLine
 10
286.0686996791299
 20
37.91595793291816
 30
-0.0000000000009663
 11
292.53819967913
 21
37.49225793291822
 31
-0.0000000000009663
  0
LINE
  5
6FA
330
1E
100
AcDbEntity
  8
1
100
AcDbLine
 10
277.9561183228914
 20
21.02732405945175
 30
-0.0000000000010232
 11
285.7887195507683
 21
19.69982501041283
 31
-0.0000000000010232
  0
LINE
  5
6FB
330
1E
100
AcDbEntity
  8
1
100
AcDbLine
 10
295.0160338417818
 20
29.7223159933576
 30
-0.00000000000108
 11
281.5671856214044
 21
28.78154250457237
 31
-0.0000000000010232
  0
LINE
  5
6FC
330
1E
100
AcDbEntity
  8
0
100
AcDbLine
 10
273.0103195507684
 20
27.92561342674116
 30
-0.0000000000010232
 11
273.0103195507684
 21
21.92561342674116
 31
-0.0000000000010232
  0
LINE
  5
6FD
330
1E
100
AcDbEntity
  8
0
100
AcDbLine
 10
273.0103195507684
 20
21.92561342674116
 30
-0.0000000000010232
 11
273.0103195507684
 21
27.92561342674116
 31
-0.0000000000010232
  0
LINE
  5
6FE
330
1E
100
AcDbEntity
  8
1
100
AcDbLine
 10
281.5671856214044
 20
28.78154250457237
 30
-0.0000000000010232
 11
273.0103195507684
 21
27.92561342674116
 31
-0.0000000000010232
  0
LINE
  5
6FF
330
1E
100
AcDbEntity
  8
1
100
AcDbLine
 10
273.0103195507684
 20
21.92561342674116
 30
-0.0000000000010232
 11
277.9561183228914
 21
21.02732405945175
 31
-0.0000000000010232
  0
LINE
  5
700
330
1E
100
AcDbEntity
  8
1
100
AcDbLine
 10
285.7887195507683
 20
19.69982501041283
 30
-0.0000000000010232
 11
298.4220195507683
 21
17.82872501041288
 31
-0.00000000000108
  0
LINE
  5
701
330
1E
100
AcDbEntity
  8
1
100
AcDbLine
 10
316.17229967913
 20
37.20535793291816
 30
-0.0000000000010232
 11
324.1368711077014
 21
37.3608376018638
 31
-0.0000000000010232
  0
LINE
  5
702
330
1E
100
AcDbEntity
  8
1
100
AcDbLine
 10
307.6526996791299
 20
37.1521579329181
 30
-0.0000000000010232
 11
316.17229967913
 21
37.20535793291816
 31
-0.0000000000010232
  0
LINE
  5
703
330
1E
100
AcDbEntity
  8
0
100
AcDbLine
 10
324.1368711077014
 20
50.28212507848838
 30
-0.0000000000010232
 11
330.1368711077014
 21
50.25594118425505
 31
-0.0000000000010232
  0
LINE
  5
704
330
1E
100
AcDbEntity
  8
0
100
AcDbLine
 10
324.1368711077014
 20
43.38782758612893
 30
-0.0000000000010232
 11
324.1368711077014
 21
37.3608376018638
 31
-0.0000000000010232
  0
LINE
  5
705
330
1E
100
AcDbEntity
  8
1
100
AcDbLine
 10
330.1368711077014
 20
37.52768576617046
 30
-0.0000000000010232
 11
334.7105996791299
 21
37.66325793291815
 31
-0.0000000000010232
  0
LINE
  5
706
330
1E
100
AcDbEntity
  8
0
100
AcDbLine
 10
330.1368711077014
 20
43.52768576617046
 30
-0.0000000000010232
 11
330.1368711077014
 21
37.52768576617046
 31
-0.0000000000010232
  0
LINE
  5
707
330
1E
100
AcDbEntity
  8
0
100
AcDbLine
 10
324.1368711077014
 20
43.38782758612893
 30
-0.0000000000010232
 11
330.1368711077014
 21
43.52768576617046
 31
-0.0000000000010232
  0
LINE
  5
708
330
1E
100
AcDbEntity
  8
1
100
AcDbLine
 10
335.0205195507683
 20
31.95242501041287
 30
-0.0000000000011369
 11
320.8131195507683
 21
31.26392501041277
 31
-0.0000000000011369
  0
LINE
  5
709
330
1E
100
AcDbEntity
  8
1
100
AcDbLine
 10
320.8131195507683
 20
31.26392501041277
 30
-0.0000000000011369
 11
306.9783195507682
 21
30.59162501041282
 31
-0.00000000000108
  0
LINE
  5
70A
330
1E
100
AcDbEntity
  8
1
100
AcDbLine
 10
311.4684195507682
 20
15.91442501041285
 30
-0.00000000000108
 11
324.7821195507682
 21
14.07302501041283
 31
-0.0000000000011369
  0
LINE
  5
70B
330
1E
100
AcDbEntity
  8
1
100
AcDbLine
 10
324.7821195507682
 20
14.07302501041283
 30
-0.0000000000011369
 11
338.2524195507683
 21
12.39362501041284
 31
-0.0000000000011369
  0
LINE
  5
70C
330
1E
100
AcDbEntity
  8
1
100
AcDbLine
 10
478.1853195507683
 20
16.37612501041274
 30
-0.0000000000013642
 11
483.0048195507684
 21
18.56852501041277
 31
-0.0000000000014211
  0
LINE
  5
70D
330
1E
100
AcDbEntity
  8
1
100
AcDbLine
 10
430.5411195507684
 20
35.14382501041274
 30
-0.0000000000013074
 11
418.4343195507683
 21
35.06822501041273
 31
-0.0000000000013074
  0
LINE
  5
70E
330
1E
100
AcDbEntity
  8
1
100
AcDbLine
 10
423.1564524942949
 20
91.84188826739358
 30
-0.0000000000013074
 11
409.2560524942949
 21
91.75508826739365
 31
-0.0000000000013074
  0
LINE
  5
70F
330
1E
100
AcDbEntity
  8
1
100
AcDbLine
 10
419.9634524942949
 20
60.81088826739364
 30
-0.0000000000012506
 11
432.2425524942949
 21
61.53938826739357
 31
-0.0000000000013074
  0
LINE
  5
710
330
1E
100
AcDbEntity
  8
1
100
AcDbLine
 10
378.4637524942948
 20
60.88838826739362
 30
-0.0000000000011937
 11
391.5840524942948
 21
60.53477162568237
 31
-0.0000000000011937
  0
LINE
  5
711
330
1E
100
AcDbEntity
  8
1
100
AcDbLine
 10
391.5840524942948
 20
91.38072121351815
 30
-0.0000000000012506
 11
379.009352494295
 21
91.00798826739373
 31
-0.0000000000012506
  0
LINE
  5
712
330
1E
100
AcDbEntity
  8
1
100
AcDbLine
 10
362.985452494295
 20
90.40968826739362
 30
-0.0000000000011937
 11
346.592652494295
 21
89.71528826739376
 31
-0.0000000000011937
  0
LINE
  5
713
330
1E
100
AcDbEntity
  8
1
100
AcDbLine
 10
379.009352494295
 20
91.00798826739373
 30
-0.0000000000012506
 11
362.985452494295
 21
90.40968826739362
 31
-0.0000000000011937
  0
LINE
  5
714
330
1E
100
AcDbEntity
  8
1
100
AcDbLine
 10
348.2015524942949
 20
62.68018826739382
 30
-0.0000000000011369
 11
363.4969524942949
 21
61.62308826739371
 31
-0.0000000000011937
  0
LINE
  5
715
330
1E
100
AcDbEntity
  8
1
100
AcDbLine
 10
363.4969524942949
 20
61.62308826739371
 30
-0.0000000000011937
 11
378.4637524942948
 21
60.88838826739362
 31
-0.0000000000011937
  0
LINE
  5
716
330
1E
100
AcDbEntity
  8
1
100
AcDbLine
 10
409.2560524942949
 20
91.75508826739365
 30
-0.0000000000013074
 11
397.5840524942949
 21
91.52723436311152
 31
-0.0000000000012506
  0
LINE
  5
717
330
1E
100
AcDbEntity
  8
0
100
AcDbLine
 10
391.5840524942948
 20
85.38072121351815
 30
-0.0000000000012506
 11
391.5840524942948
 21
91.38072121351815
 31
-0.0000000000012506
  0
LINE
  5
718
330
1E
100
AcDbEntity
  8
0
100
AcDbLine
 10
397.5840524942949
 20
85.52057939355966
 30
-0.0000000000012506
 11
397.5840524942949
 21
91.52723436311152
 31
-0.0000000000012506
  0
LINE
  5
719
330
1E
100
AcDbEntity
  8
0
100
AcDbLine
 10
397.5840524942949
 20
85.52057939355966
 30
-0.0000000000012506
 11
391.5840524942948
 21
85.38072121351815
 31
-0.0000000000012506
  0
LINE
  5
71A
330
1E
100
AcDbEntity
  8
1
100
AcDbLine
 10
397.5840524942949
 20
60.48744912530247
 30
-0.0000000000011937
 11
406.831852494295
 21
60.46678826739361
 31
-0.0000000000012506
  0
LINE
  5
71B
330
1E
100
AcDbEntity
  8
0
100
AcDbLine
 10
391.5840524942948
 20
66.53477162568236
 30
-0.0000000000011937
 11
391.5840524942948
 21
60.53477162568237
 31
-0.0000000000011937
  0
LINE
  5
71C
330
1E
100
AcDbEntity
  8
0
100
AcDbLine
 10
397.5840524942949
 20
66.50858773144904
 30
-0.0000000000012506
 11
397.5840524942949
 21
60.48744912530247
 31
-0.0000000000011937
  0
LINE
  5
71D
330
1E
100
AcDbEntity
  8
0
100
AcDbLine
 10
397.5840524942949
 20
66.50858773144904
 30
-0.0000000000012506
 11
391.5840524942948
 21
66.53477162568236
 31
-0.0000000000011937
  0
LINE
  5
71E
330
1E
100
AcDbEntity
  8
1
100
AcDbLine
 10
406.831852494295
 20
60.46678826739361
 30
-0.0000000000012506
 11
419.9634524942949
 21
60.81088826739364
 31
-0.0000000000012506
  0
LINE
  5
71F
330
1E
100
AcDbEntity
  8
1
100
AcDbLine
 10
382.0756996791299
 20
51.97975793291795
 30
-0.00000000000108
 11
372.5965996791299
 21
53.16155793291802
 31
-0.00000000000108
  0
LINE
  5
720
330
1E
100
AcDbEntity
  8
1
100
AcDbLine
 10
374.8708996791299
 20
39.39795793291802
 30
-0.00000000000108
 11
384.86869967913
 21
39.88245793291793
 31
-0.00000000000108
  0
LINE
  5
721
330
1E
100
AcDbEntity
  8
1
100
AcDbLine
 10
392.0904195507685
 20
34.41752501041281
 30
-0.0000000000012506
 11
378.1341195507684
 21
33.89642501041277
 31
-0.0000000000012506
  0
LINE
  5
722
330
1E
100
AcDbEntity
  8
1
100
AcDbLine
 10
363.0794996791299
 20
54.18375793291801
 30
-0.00000000000108
 11
353.59279967913
 21
55.02545793291807
 31
-0.0000000000010232
  0
LINE
  5
723
330
1E
100
AcDbEntity
  8
1
100
AcDbLine
 10
354.57889967913
 20
38.45555793291811
 30
-0.00000000000108
 11
364.7324996791299
 21
38.91725793291806
 31
-0.00000000000108
  0
LINE
  5
724
330
1E
100
AcDbEntity
  8
1
100
AcDbLine
 10
353.59279967913
 20
55.02545793291807
 30
-0.0000000000010232
 11
344.2181996791301
 21
55.67335793291812
 31
-0.0000000000010232
  0
LINE
  5
725
330
1E
100
AcDbEntity
  8
1
100
AcDbLine
 10
344.5316996791301
 20
38.02995793291808
 30
-0.00000000000108
 11
354.57889967913
 21
38.45555793291811
 31
-0.00000000000108
  0
LINE
  5
726
330
1E
100
AcDbEntity
  8
1
100
AcDbLine
 10
372.5965996791299
 20
53.16155793291802
 30
-0.00000000000108
 11
363.0794996791299
 21
54.18375793291801
 31
-0.00000000000108
  0
LINE
  5
727
330
1E
100
AcDbEntity
  8
1
100
AcDbLine
 10
364.7324996791299
 20
38.91725793291806
 30
-0.00000000000108
 11
374.8708996791299
 21
39.39795793291802
 31
-0.00000000000108
  0
LINE
  5
728
330
1E
100
AcDbEntity
  8
1
100
AcDbLine
 10
363.8565195507686
 20
33.29162501041281
 30
-0.0000000000011937
 11
349.4277195507682
 21
32.63552501041283
 31
-0.0000000000011937
  0
LINE
  5
729
330
1E
100
AcDbEntity
  8
1
100
AcDbLine
 10
378.1341195507684
 20
33.89642501041277
 30
-0.0000000000012506
 11
363.8565195507686
 21
33.29162501041281
 31
-0.0000000000011937
  0
LINE
  5
72A
330
1E
100
AcDbEntity
  8
1
100
AcDbLine
 10
394.60429967913
 20
40.35555793291798
 30
-0.0000000000011369
 11
403.6557199037127
 21
40.98138372098236
 31
-0.0000000000011369
  0
LINE
  5
72B
330
1E
100
AcDbEntity
  8
1
100
AcDbLine
 10
407.5940409380594
 20
48.12769933610269
 30
-0.0000000000011369
 11
400.62539967913
 21
49.336857932918
 31
-0.0000000000011369
  0
LINE
  5
72C
330
1E
100
AcDbEntity
  8
1
100
AcDbLine
 10
400.62539967913
 20
49.336857932918
 30
-0.0000000000011369
 11
391.4445996791299
 21
50.68395793291796
 31
-0.00000000000108
  0
LINE
  5
72D
330
1E
100
AcDbEntity
  8
1
100
AcDbLine
 10
391.4445996791299
 20
50.68395793291796
 30
-0.00000000000108
 11
382.0756996791299
 21
51.97975793291795
 31
-0.00000000000108
  0
LINE
  5
72E
330
1E
100
AcDbEntity
  8
1
100
AcDbLine
 10
384.86869967913
 20
39.88245793291793
 30
-0.00000000000108
 11
394.60429967913
 21
40.35555793291798
 31
-0.0000000000011369
  0
LINE
  5
72F
330
1E
100
AcDbEntity
  8
0
100
AcDbLine
 10
411.1002996791299
 20
47.67436951658959
 30
-0.00000000000108
 11
411.1002996791299
 21
41.6743695165897
 31
-0.00000000000108
  0
LINE
  5
730
330
1E
100
AcDbEntity
  8
0
100
AcDbLine
 10
411.1002996791297
 20
41.6743695165897
 30
-0.0000000000011937
 11
411.1002996791299
 21
47.6743695165896
 31
-0.0000000000011937
  0
LINE
  5
731
330
1E
100
AcDbEntity
  8
1
100
AcDbLine
 10
411.1002996791299
 20
47.67436951658959
 30
-0.00000000000108
 11
407.5940409380594
 21
48.12769933610269
 31
-0.0000000000011369
  0
LINE
  5
732
330
1E
100
AcDbEntity
  8
1
100
AcDbLine
 10
403.6557199037127
 20
40.98138372098236
 30
-0.0000000000011369
 11
411.1002996791297
 21
41.6743695165897
 31
-0.0000000000011937
  0
LINE
  5
733
330
1E
100
AcDbEntity
  8
1
100
AcDbLine
 10
402.0103195507684
 20
34.7115657073885
 30
-0.0000000000013074
 11
392.0904195507685
 21
34.41752501041281
 31
-0.0000000000012506
  0
LINE
  5
734
330
1E
100
AcDbEntity
  8
0
100
AcDbLine
 10
408.0103195507682
 20
28.85142388743009
 30
-0.0000000000013074
 11
408.0103195507684
 21
34.86473382653361
 31
-0.0000000000013074
  0
LINE
  5
735
330
1E
100
AcDbEntity
  8
0
100
AcDbLine
 10
402.0103195507681
 20
28.71156570738856
 30
-0.0000000000012506
 11
402.0103195507684
 21
34.7115657073885
 31
-0.0000000000013074
  0
LINE
  5
736
330
1E
100
AcDbEntity
  8
0
100
AcDbLine
 10
408.0103195507682
 20
28.85142388743009
 30
-0.0000000000013074
 11
402.0103195507681
 21
28.71156570738856
 31
-0.0000000000012506
  0
LINE
  5
737
330
1E
100
AcDbEntity
  8
1
100
AcDbLine
 10
418.4343195507683
 20
35.06822501041273
 30
-0.0000000000013074
 11
408.0103195507684
 21
34.86473382653361
 31
-0.0000000000013074
  0
LINE
  5
738
330
1E
100
AcDbEntity
  8
1
100
AcDbLine
 10
467.641452494295
 20
89.63158826739363
 30
-0.0000000000014211
 11
458.372452494295
 21
90.59568826739354
 31
-0.0000000000013642
  0
LINE
  5
739
330
1E
100
AcDbEntity
  8
1
100
AcDbLine
 10
453.8774524942949
 20
64.10928826739354
 30
-0.0000000000013642
 11
463.0689524942948
 21
65.89488826739347
 31
-0.0000000000013642
  0
LINE
  5
73A
330
1E
100
AcDbEntity
  8
1
100
AcDbLine
 10
447.8169524942948
 20
91.28698826739372
 30
-0.0000000000013642
 11
436.0493524942949
 21
91.69618826739366
 31
-0.0000000000013642
  0
LINE
  5
73B
330
1E
100
AcDbEntity
  8
1
100
AcDbLine
 10
436.0493524942949
 20
91.69618826739366
 30
-0.0000000000013642
 11
423.1564524942949
 21
91.84188826739358
 31
-0.0000000000013074
  0
LINE
  5
73C
330
1E
100
AcDbEntity
  8
1
100
AcDbLine
 10
458.372452494295
 20
90.59568826739354
 30
-0.0000000000013642
 11
447.8169524942948
 21
91.28698826739372
 31
-0.0000000000013642
  0
LINE
  5
73D
330
1E
100
AcDbEntity
  8
1
100
AcDbLine
 10
432.2425524942949
 20
61.53938826739357
 30
-0.0000000000013074
 11
443.5761524942948
 21
62.64608826739362
 31
-0.0000000000013074
  0
LINE
  5
73E
330
1E
100
AcDbEntity
  8
1
100
AcDbLine
 10
443.5761524942948
 20
62.64608826739362
 30
-0.0000000000013074
 11
453.8774524942949
 21
64.10928826739354
 31
-0.0000000000013642
  0
LINE
  5
73F
330
1E
100
AcDbEntity
  8
1
100
AcDbLine
 10
487.6581524942949
 20
75.41498826739365
 30
-0.0000000000014211
 11
489.218704694852
 21
76.76023606683651
 31
-0.0000000000014211
  0
LINE
  5
740
330
1E
100
AcDbEntity
  8
1
100
AcDbLine
 10
482.084352494295
 20
87.00278826739367
 30
-0.0000000000014211
 11
475.5650524942951
 21
88.41638826739353
 31
-0.0000000000014211
  0
LINE
  5
741
330
1E
100
AcDbEntity
  8
1
100
AcDbLine
 10
475.5650524942951
 20
88.41638826739353
 30
-0.0000000000014211
 11
467.641452494295
 21
89.63158826739363
 31
-0.0000000000014211
  0
LINE
  5
742
330
1E
100
AcDbEntity
  8
1
100
AcDbLine
 10
487.128052494295
 20
85.44658826739368
 30
-0.0000000000014211
 11
482.084352494295
 21
87.00278826739367
 31
-0.0000000000014211
  0
LINE
  5
743
330
1E
100
AcDbEntity
  8
0
100
AcDbLine
 10
488.8383312344524
 20
84.64916700755106
 30
-0.0000000000014211
 11
485.0840524942949
 21
80.89488826739369
 31
-0.0000000000014211
  0
LINE
  5
744
330
1E
100
AcDbEntity
  8
1
100
AcDbLine
 10
488.8383312344522
 20
84.64916700755106
 30
-0.0000000000014211
 11
487.128052494295
 21
85.44658826739368
 31
-0.0000000000014211
  0
LINE
  5
745
330
1E
100
AcDbEntity
  8
0
100
AcDbLine
 10
489.218704694852
 20
76.76023606683651
 30
-0.0000000000014211
 11
485.0840524942949
 21
80.89488826739369
 31
-0.0000000000014211
  0
LINE
  5
746
330
1E
100
AcDbEntity
  8
1
100
AcDbLine
 10
477.8590524942949
 20
70.2937882673936
 30
-0.0000000000013642
 11
483.392552494295
 21
72.81098826739361
 31
-0.0000000000014211
  0
LINE
  5
747
330
1E
100
AcDbEntity
  8
1
100
AcDbLine
 10
463.0689524942948
 20
65.89488826739347
 30
-0.0000000000013642
 11
471.0793524942949
 21
67.96878826739356
 31
-0.0000000000013642
  0
LINE
  5
748
330
1E
100
AcDbEntity
  8
1
100
AcDbLine
 10
471.0793524942949
 20
67.96878826739356
 30
-0.0000000000013642
 11
477.8590524942949
 21
70.2937882673936
 31
-0.0000000000013642
  0
LINE
  5
749
330
1E
100
AcDbEntity
  8
1
100
AcDbLine
 10
483.392552494295
 20
72.81098826739361
 30
-0.0000000000014211
 11
487.6581524942949
 21
75.41498826739365
 31
-0.0000000000014211
  0
LINE
  5
74A
330
1E
100
AcDbEntity
  8
1
100
AcDbLine
 10
461.2131195507684
 20
34.05842501041269
 30
-0.0000000000013642
 11
452.0196195507685
 21
34.66052501041275
 31
-0.0000000000013642
  0
LINE
  5
74B
330
1E
100
AcDbEntity
  8
1
100
AcDbLine
 10
441.7704195507684
 20
35.01692501041276
 30
-0.0000000000013642
 11
430.5411195507684
 21
35.14382501041274
 31
-0.0000000000013074
  0
LINE
  5
74C
330
1E
100
AcDbEntity
  8
1
100
AcDbLine
 10
452.0196195507685
 20
34.66052501041275
 30
-0.0000000000013642
 11
441.7704195507684
 21
35.01692501041276
 31
-0.0000000000013642
  0
LINE
  5
74D
330
1E
100
AcDbEntity
  8
1
100
AcDbLine
 10
481.8654195507684
 20
30.92912501041274
 30
-0.0000000000014211
 11
476.1873195507683
 21
32.1603250104128
 31
-0.0000000000014211
  0
LINE
  5
74E
330
1E
100
AcDbEntity
  8
1
100
AcDbLine
 10
469.286119550768
 20
33.21872501041269
 30
-0.0000000000014211
 11
461.2131195507684
 21
34.05842501041269
 31
-0.0000000000013642
  0
LINE
  5
74F
330
1E
100
AcDbEntity
  8
1
100
AcDbLine
 10
476.1873195507683
 20
32.1603250104128
 30
-0.0000000000014211
 11
469.286119550768
 21
33.21872501041269
 31
-0.0000000000014211
  0
LINE
  5
750
330
1E
100
AcDbEntity
  8
0
100
AcDbLine
 10
487.1319073157592
 20
29.16641277540367
 30
-0.0000000000014211
 11
483.5103195507682
 21
25.54482501041269
 31
-0.0000000000014211
  0
LINE
  5
751
330
1E
100
AcDbEntity
  8
1
100
AcDbLine
 10
486.2583195507682
 20
29.57372501041271
 30
-0.0000000000014211
 11
481.8654195507684
 21
30.92912501041274
 31
-0.0000000000014211
  0
LINE
  5
752
330
1E
100
AcDbEntity
  8
1
100
AcDbLine
 10
487.1319073157592
 20
29.16641277540367
 30
-0.0000000000014211
 11
486.2583195507682
 21
29.57372501041271
 31
-0.0000000000014211
  0
LINE
  5
753
330
1E
100
AcDbEntity
  8
0
100
AcDbLine
 10
487.5248387151137
 20
21.53030584606739
 30
-0.0000000000014211
 11
483.5103195507682
 21
25.54482501041269
 31
-0.0000000000014211
  0
LINE
  5
754
330
1E
100
AcDbEntity
  8
1
100
AcDbLine
 10
483.0048195507684
 20
18.56852501041277
 30
-0.0000000000014211
 11
486.7200195507683
 21
20.83652501041279
 31
-0.0000000000014211
  0
LINE
  5
755
330
1E
100
AcDbEntity
  8
1
100
AcDbLine
 10
486.7200195507683
 20
20.83652501041279
 30
-0.0000000000014211
 11
487.5248387151137
 21
21.53030584606739
 31
-0.0000000000014211
  0
LINE
  5
756
330
1E
100
AcDbEntity
  8
1
100
AcDbLine
 10
416.3229195507684
 20
7.817125010412837
 30
-0.0000000000012506
 11
427.7601195507682
 21
8.116825010412867
 31
-0.0000000000013074
  0
LINE
  5
757
330
1E
100
AcDbEntity
  8
1
100
AcDbLine
 10
378.5796195507683
 20
8.824225010412874
 30
-0.0000000000011937
 11
391.6152195507682
 21
8.184325010412862
 31
-0.0000000000012506
  0
LINE
  5
758
330
1E
100
AcDbEntity
  8
1
100
AcDbLine
 10
351.7767195507683
 20
10.94102501041288
 30
-0.0000000000011369
 11
365.2578195507683
 21
9.744925010412771
 31
-0.0000000000011937
  0
LINE
  5
759
330
1E
100
AcDbEntity
  8
1
100
AcDbLine
 10
365.2578195507683
 20
9.744925010412771
 30
-0.0000000000011937
 11
378.5796195507683
 21
8.824225010412874
 31
-0.0000000000011937
  0
LINE
  5
75A
330
1E
100
AcDbEntity
  8
1
100
AcDbLine
 10
391.6152195507682
 20
8.184325010412862
 30
-0.0000000000012506
 11
402.0103195507681
 21
7.904157609343315
 31
-0.0000000000012506
  0
LINE
  5
75B
330
1E
100
AcDbEntity
  8
0
100
AcDbLine
 10
408.0103195507682
 20
13.87797371510998
 30
-0.0000000000012506
 11
408.0103195507682
 21
7.835696502816745
 31
-0.0000000000012506
  0
LINE
  5
75C
330
1E
100
AcDbEntity
  8
0
100
AcDbLine
 10
402.0103195507681
 20
13.90415760934331
 30
-0.0000000000012506
 11
402.0103195507681
 21
7.904157609343315
 31
-0.0000000000012506
  0
LINE
  5
75D
330
1E
100
AcDbEntity
  8
0
100
AcDbLine
 10
408.0103195507682
 20
13.87797371510998
 30
-0.0000000000012506
 11
402.0103195507681
 21
13.90415760934331
 31
-0.0000000000012506
  0
LINE
  5
75E
330
1E
100
AcDbEntity
  8
1
100
AcDbLine
 10
408.0103195507682
 20
7.835696502816745
 30
-0.0000000000012506
 11
416.3229195507684
 21
7.817125010412837
 31
-0.0000000000012506
  0
LINE
  5
75F
330
1E
100
AcDbEntity
  8
1
100
AcDbLine
 10
457.2981195507682
 20
10.98962501041268
 30
-0.0000000000013642
 11
465.3036195507682
 21
12.54482501041269
 31
-0.0000000000013642
  0
LINE
  5
760
330
1E
100
AcDbEntity
  8
1
100
AcDbLine
 10
438.4548195507682
 20
8.751325010412756
 30
-0.0000000000013074
 11
448.3260195507683
 21
9.71522501041278
 31
-0.0000000000013074
  0
LINE
  5
761
330
1E
100
AcDbEntity
  8
1
100
AcDbLine
 10
427.7601195507682
 20
8.116825010412867
 30
-0.0000000000013074
 11
438.4548195507682
 21
8.751325010412756
 31
-0.0000000000013074
  0
LINE
  5
762
330
1E
100
AcDbEntity
  8
1
100
AcDbLine
 10
448.3260195507683
 20
9.71522501041278
 30
-0.0000000000013074
 11
457.2981195507682
 21
10.98962501041268
 31
-0.0000000000013642
  0
LINE
  5
763
330
1E
100
AcDbEntity
  8
1
100
AcDbLine
 10
472.2804195507683
 20
14.35112501041265
 30
-0.0000000000013642
 11
478.1853195507683
 21
16.37612501041274
 31
-0.0000000000013642
  0
LINE
  5
764
330
1E
100
AcDbEntity
  8
1
100
AcDbLine
 10
465.3036195507682
 20
12.54482501041269
 30
-0.0000000000013642
 11
472.2804195507683
 21
14.35112501041265
 31
-0.0000000000013642
  0
ARC
  5
770
330
1E
100
AcDbEntity
  8
0
100
AcDbCircle
 10
76.69458669640963
 20
78.52915036076435
 30
0.0
 40
9.352421208240842
100
AcDbArc
 50
0.0
 51
180.0
  0
ARC
  5
771
330
1E
100
AcDbEntity
  8
0
100
AcDbCircle
 10
52.29378291339791
 20
78.09785024950703
 30
0.0
 40
7.726242071028145
100
AcDbArc
 50
0.0
 51
180.0
  0
ARC
  5
772
330
1E
100
AcDbEntity
  8
0
100
AcDbCircle
 10
29.22314255432084
 20
77.02057947008531
 30
0.0
 40
6.112523473461161
100
AcDbArc
 50
0.0
 51
180.0
  0
ARC
  5
773
330
1E
100
AcDbEntity
  8
0
100
AcDbCircle
 10
109.6119405101348
 20
78.35325093168832
 30
0.0
 40
9.352421208240842
100
AcDbArc
 50
0.0
 51
180.0
  0
ARC
  5
774
330
1E
100
AcDbEntity
  8
0
100
AcDbCircle
 10
134.1643490278369
 20
78.01590214932367
 30
0.0
 40
7.538718298078427
100
AcDbArc
 50
0.0
 51
180.0
  0
ARC
  5
775
330
1E
100
AcDbEntity
  8
0
100
AcDbCircle
 10
172.7427780779247
 20
76.90416274149836
 30
0.0
 40
5.189432577540777
100
AcDbArc
 50
0.0
 51
180.0
  0
ARC
  5
776
330
1E
100
AcDbEntity
  8
0
100
AcDbCircle
 10
154.7218896838252
 20
77.58113997741817
 30
0.0
 40
6.081396896267538
100
AcDbArc
 50
0.0
 51
180.0
  0
ARC
  5
779
330
1E
100
AcDbEntity
  8
0
100
AcDbCircle
 10
172.7427780779247
 20
76.90416274149836
 30
0.0
 40
5.189432577540777
100
AcDbArc
 50
180.0
 51
0.0
  0
ARC
  5
77A
330
1E
100
AcDbEntity
  8
0
100
AcDbCircle
 10
154.7218896838252
 20
77.58113997741817
 30
0.0
 40
6.081396896267538
100
AcDbArc
 50
180.0
 51
0.0
  0
ARC
  5
77B
330
1E
100
AcDbEntity
  8
0
100
AcDbCircle
 10
134.1643490278369
 20
78.01590214932367
 30
0.0
 40
7.538718298078427
100
AcDbArc
 50
180.0
 51
0.0
  0
ARC
  5
77C
330
1E
100
AcDbEntity
  8
0
100
AcDbCircle
 10
109.6119405101348
 20
78.35325093168832
 30
0.0
 40
9.352421208240842
100
AcDbArc
 50
180.0
 51
0.0
  0
ARC
  5
77D
330
1E
100
AcDbEntity
  8
0
100
AcDbCircle
 10
76.69458669640963
 20
78.52915036076435
 30
0.0
 40
9.352421208240842
100
AcDbArc
 50
180.0
 51
0.0
  0
ARC
  5
77E
330
1E
100
AcDbEntity
  8
0
100
AcDbCircle
 10
52.29378291339791
 20
78.09785024950703
 30
0.0
 40
7.726242071028145
100
AcDbArc
 50
180.0
 51
0.0
  0
ARC
  5
77F
330
1E
100
AcDbEntity
  8
0
100
AcDbCircle
 10
29.22314255432084
 20
77.02057947008531
 30
0.0
 40
6.112523473461161
100
AcDbArc
 50
180.0
 51
0.0
  0
ARC
  5
7AA
330
1E
100
AcDbEntity
  8
0
100
AcDbCircle
 10
324.5350458742816
 20
22.92060566165973
 30
-0.0000000000000568
 40
5.189432577540777
100
AcDbArc
 50
180.0
 51
0.0
  0
ARC
  5
7AB
330
1E
100
AcDbEntity
  8
0
100
AcDbCircle
 10
342.5559342683811
 20
22.2436284257399
 30
-0.0000000000000568
 40
6.081396896267538
100
AcDbArc
 50
180.0
 51
0.0
  0
ARC
  5
7AC
330
1E
100
AcDbEntity
  8
0
100
AcDbCircle
 10
363.1134749243694
 20
21.80886625383439
 30
-0.0000000000000568
 40
7.538718298078427
100
AcDbArc
 50
180.0
 51
0.0
  0
ARC
  5
7AD
330
1E
100
AcDbEntity
  8
0
100
AcDbCircle
 10
387.6658834420716
 20
21.47151747146975
 30
-0.0000000000000568
 40
9.352421208240842
100
AcDbArc
 50
180.0
 51
0.0
  0
ARC
  5
7AE
330
1E
100
AcDbEntity
  8
0
100
AcDbCircle
 10
420.5832372557968
 20
21.29561804239372
 30
-0.0000000000000568
 40
9.352421208240842
100
AcDbArc
 50
180.0
 51
0.0
  0
ARC
  5
7AF
330
1E
100
AcDbEntity
  8
0
100
AcDbCircle
 10
444.9840410388085
 20
21.72691815365103
 30
-0.0000000000000568
 40
7.726242071028145
100
AcDbArc
 50
180.0
 51
0.0
  0
ARC
  5
7B0
330
1E
100
AcDbEntity
  8
0
100
AcDbCircle
 10
468.0546813978856
 20
22.80418893307275
 30
-0.0000000000000568
 40
6.112523473461161
100
AcDbArc
 50
180.0
 51
0.0
  0
ARC
  5
7B1
330
1E
100
AcDbEntity
  8
0
100
AcDbCircle
 10
468.0546813978856
 20
22.80418893307275
 30
-0.0000000000000568
 40
6.112523473461161
100
AcDbArc
 50
0.0
 51
180.0
  0
ARC
  5
7B2
330
1E
100
AcDbEntity
  8
0
100
AcDbCircle
 10
387.6658834420716
 20
21.47151747146975
 30
-0.0000000000000568
 40
9.352421208240842
100
AcDbArc
 50
0.0
 51
180.0
  0
ARC
  5
7B3
330
1E
100
AcDbEntity
  8
0
100
AcDbCircle
 10
444.9840410388085
 20
21.72691815365103
 30
-0.0000000000000568
 40
7.726242071028145
100
AcDbArc
 50
0.0
 51
180.0
  0
ARC
  5
7B4
330
1E
100
AcDbEntity
  8
0
100
AcDbCircle
 10
420.5832372557968
 20
21.29561804239372
 30
-0.0000000000000568
 40
9.352421208240842
100
AcDbArc
 50
0.0
 51
180.0
  0
ARC
  5
7B5
330
1E
100
AcDbEntity
  8
0
100
AcDbCircle
 10
363.1134749243694
 20
21.80886625383439
 30
-0.0000000000000568
 40
7.538718298078427
100
AcDbArc
 50
0.0
 51
180.0
  0
ARC
  5
7B6
330
1E
100
AcDbEntity
  8
0
100
AcDbCircle
 10
342.5559342683811
 20
22.2436284257399
 30
-0.0000000000000568
 40
6.081396896267538
100
AcDbArc
 50
0.0
 51
180.0
  0
ARC
  5
7B7
330
1E
100
AcDbEntity
  8
0
100
AcDbCircle
 10
324.5350458742816
 20
22.92060566165973
 30
-0.0000000000000568
 40
5.189432577540777
100
AcDbArc
 50
0.0
 51
180.0
  0
LINE
  5
7B8
330
1E
100
AcDbEntity
  8
1
100
AcDbLine
 10
97.4289607253581
 20
33.65696167283988
 30
-0.0000000000008003
 11
92.19756517321805
 21
33.51987836162939
 31
-0.0000000000007777
  0
LINE
  5
7BA
330
1E
100
AcDbEntity
  8
1
100
AcDbLine
 10
68.15296984215305
 20
32.26839318751005
 30
-0.0000000000006552
 11
60.21858956939303
 21
31.4984279531436
 31
-0.000000000000739
  0
LINE
  5
7BB
330
1E
100
AcDbEntity
  8
1
100
AcDbLine
 10
60.21858956939303
 20
31.4984279531436
 30
-0.000000000000739
 11
49.84300129395125
 21
30.01423060358387
 31
-0.0000000000003924
  0
LINE
  5
7BD
330
1E
100
AcDbEntity
  8
1
100
AcDbLine
 10
32.28933074910644
 20
25.93522084126145
 30
-0.0000000000006882
 11
29.48973873940676
 21
24.97514127689257
 31
-0.0000000000006757
  0
LINE
  5
7C5
330
1E
100
AcDbEntity
  8
1
100
AcDbLine
 10
30.35373101585816
 20
15.3033097001597
 30
-0.000000000000739
 11
34.66894637104825
 21
14.64150828418377
 31
-0.0000000000007399
  0
LINE
  5
7C9
330
1E
100
AcDbEntity
  8
1
100
AcDbLine
 10
57.51557473404092
 20
12.73293716777079
 30
-0.0000000000007489
 11
57.90243817743975
 21
12.71948459281593
 31
-0.0000000000007508
  0
LINE
  5
7CA
330
1E
100
AcDbEntity
  8
1
100
AcDbLine
 10
79.84290738459243
 20
12.25430155090867
 30
-0.0000000000008119
 11
97.52627855656307
 21
12.36288391029692
 31
-0.0000000000007958
  0
LINE
  5
7CC
330
1E
100
AcDbEntity
  8
1
100
AcDbLine
 10
119.6194815779801
 20
12.92369344350434
 30
-0.0000000000008527
 11
134.3616017504476
 21
13.47413437855681
 31
-0.0000000000008527
  0
LINE
  5
7CE
330
1E
100
AcDbEntity
  8
1
100
AcDbLine
 10
157.1474189882809
 20
14.41419350504705
 30
-0.0000000000009095
 11
163.5927732486147
 21
14.70727379794769
 31
-0.0000000000009095
  0
LINE
  5
7D0
330
1E
100
AcDbEntity
  8
1
100
AcDbLine
 10
192.5034094604339
 20
16.06337212394166
 30
-0.0000000000009095
 11
205.677126357913
 21
16.70177915717184
 31
-0.0000000000009095
  0
LINE
  5
7D1
330
1E
100
AcDbEntity
  8
1
100
AcDbLine
 10
205.677126357913
 20
16.70177915717184
 30
-0.0000000000009095
 11
221.949473529234
 21
17.49253143576362
 31
-0.0000000000009677
  0
LINE
  5
7D2
330
1E
100
AcDbEntity
  8
1
100
AcDbLine
 10
222.2393877885435
 20
23.45721319798351
 30
-0.0000000000009221
 11
215.9223673566367
 21
24.38411044264864
 31
-0.0000000000009095
  0
LINE
  5
7D3
330
1E
100
AcDbEntity
  8
1
100
AcDbLine
 10
215.9223673566367
 20
24.38411044264864
 30
-0.0000000000009095
 11
194.8598103464568
 21
27.29707253593556
 31
-0.0000000000009095
  0
LINE
  5
7D6
330
1E
100
AcDbEntity
  8
1
100
AcDbLine
 10
171.636505037006
 20
29.87637337139909
 30
-0.0000000000004587
 11
154.4481604261475
 21
31.43420445771988
 31
-0.0000000000008527
  0
LINE
  5
7D7
330
1E
100
AcDbEntity
  8
1
100
AcDbLine
 10
154.4481604261475
 20
31.43420445771988
 30
-0.0000000000008527
 11
147.9757605308587
 21
31.88057490598831
 31
-0.0000000000008282
  0
LINE
  5
7D8
330
1E
100
AcDbEntity
  8
1
100
AcDbLine
 10
122.1862892362569
 20
33.32027201873531
 30
-0.0000000000007958
 11
119.6546344835337
 21
33.44454753165895
 31
-0.0000000000007958
  0
LINE
  5
7DB
330
1E
100
AcDbEntity
  8
0
100
AcDbLine
 10
116.5075456479215
 20
30.44815555555866
 30
-0.0000000000007958
 11
116.5075456479214
 21
15.92160444077593
 31
-0.0000000000007887
  0
LINE
  5
7DC
330
1E
100
AcDbEntity
  8
0
100
AcDbLine
 10
100.5075456479215
 20
30.65799111447394
 30
-0.000000000000766
 11
100.5075456479215
 21
15.3628254227491
 31
-0.0000000000007929
  0
ARC
  5
7DD
330
1E
100
AcDbEntity
  8
1
100
AcDbCircle
 10
221.8038608137727
 20
20.48899550814893
 30
-0.0000000000002261
 40
3.0
100
AcDbArc
 50
272.7820911293518
 51
81.65254870098356
  0
ARC
  5
7DE
330
1E
100
AcDbEntity
  8
0
100
AcDbCircle
 10
119.5075456479215
 20
30.44815555555866
 30
-0.0000000000007958
 40
3.0
100
AcDbArc
 50
87.18968344614136
 51
180.0
  0
ARC
  5
7DF
330
1E
100
AcDbEntity
  8
0
100
AcDbCircle
 10
119.5075456479214
 20
15.92160444077593
 30
-0.0000000000008799
 40
3.0
100
AcDbArc
 50
179.9999999999999
 51
272.1383151398073
  0
ARC
  5
7E0
330
1E
100
AcDbEntity
  8
0
100
AcDbCircle
 10
97.50754564792153
 20
30.65799111447394
 30
0.0000000000001029
 40
3.0
100
AcDbArc
 50
0.0
 51
91.50103316112462
  0
ARC
  5
7E1
330
1E
100
AcDbEntity
  8
0
100
AcDbCircle
 10
97.50754564792153
 20
15.3628254227491
 30
-0.0000000000008169
 40
3.0
100
AcDbArc
 50
270.3577745260971
 51
0.0
  0
ARC
  5
7E3
330
1E
100
AcDbEntity
  8
1
100
AcDbCircle
 10
31.11169209329903
 20
20.24552529694265
 30
-0.0000000000008368
 40
5.0
100
AcDbArc
 50
108.928663057427
 51
261.2807909423311
  0
LINE
  5
7E4
330
1E
100
AcDbEntity
  8
0
100
AcDbLine
 10
125.0778942559618
 20
32.21997003771149
 30
-0.0000000000007988
 11
137.311794946075
 21
22.36433735315278
 31
-0.000000000000827
  0
LINE
  5
7E5
330
1E
100
AcDbEntity
  8
0
100
AcDbLine
 10
144.4942683847438
 20
22.99878892042536
 30
-0.0000000000007056
 11
153.7835428104965
 21
15.51534770528856
 31
-0.0000000000009011
  0
ARC
  5
7E6
330
1E
100
AcDbEntity
  8
0
100
AcDbCircle
 10
121.9411411769032
 20
28.32628539190148
 30
-0.0000000000009175
 40
5.0
100
AcDbArc
 50
51.14507486150426
 51
87.1896834461414
  0
ARC
  5
7E7
330
1E
100
AcDbEntity
  8
0
100
AcDbCircle
 10
147.6310214638024
 20
26.89247356623537
 30
0.0000000000002283
 40
5.0
100
AcDbArc
 50
86.0464446529305
 51
231.1450748615042
  0
ARC
  5
7E8
330
1E
100
AcDbEntity
  8
0
100
AcDbCircle
 10
156.9202958895551
 20
19.40903235109856
 30
-0.0000000000010713
 40
5.0
100
AcDbArc
 50
231.1450748615042
 51
272.6035348753317
  0
ARC
  5
7E9
330
1E
100
AcDbEntity
  8
0
100
AcDbCircle
 10
134.1750418670164
 20
18.47065270734278
 30
-0.0000000000008757
 40
5.0
100
AcDbArc
 50
272.1383151398073
 51
51.14507486150426
  0
LINE
  5
7EA
330
1E
100
AcDbEntity
  8
0
100
AcDbLine
 10
166.1558082361655
 20
15.55301420535195
 30
-0.0000000000009095
 11
173.8927008969239
 21
20.75586825648584
 31
-0.0000000000009097
  0
LINE
  5
7EB
330
1E
100
AcDbEntity
  8
0
100
AcDbLine
 10
189.471232084149
 20
25.20660979405452
 30
-0.0000000000009095
 11
191.384629918993
 21
26.49331882737769
 31
-0.0000000000009095
  0
ARC
  5
7EC
330
1E
100
AcDbEntity
  8
0
100
AcDbCircle
 10
163.3656501498889
 20
19.7021126439992
 30
-0.0000000000009095
 40
5.0
100
AcDbArc
 50
272.6035348753317
 51
303.9197799718227
  0
ARC
  5
7ED
330
1E
100
AcDbEntity
  8
0
100
AcDbCircle
 10
171.1025428106473
 20
24.9049666951331
 30
-0.0000000000004587
 40
5.0
100
AcDbArc
 50
303.9197799718227
 51
83.86955315065955
  0
ARC
  5
7EE
330
1E
100
AcDbEntity
  8
0
100
AcDbCircle
 10
194.1747880052697
 20
22.34422038873043
 30
-0.0000000000009095
 40
5.0
100
AcDbArc
 50
82.12545540970813
 51
123.9197799718227
  0
ARC
  5
7EF
330
1E
100
AcDbEntity
  8
0
100
AcDbCircle
 10
192.2613901704256
 20
21.05751135540726
 30
-0.0000000000009095
 40
5.0
100
AcDbArc
 50
123.9197799718227
 51
272.7744208762832
  0
LINE
  5
7F0
330
1E
100
AcDbEntity
  8
0
100
AcDbLine
 10
88.97033574692477
 20
32.22597851322006
 30
-0.0000000000007712
 11
76.54120344700306
 21
20.95836672718722
 31
-0.0000000000007852
  0
LINE
  5
7F1
330
1E
100
AcDbEntity
  8
0
100
AcDbLine
 10
71.99710147118665
 20
23.58767732921548
 30
-0.0000000000007845
 11
61.43440467909322
 21
14.01207993472699
 31
-0.000000000000795
  0
ARC
  5
7F2
330
1E
100
AcDbEntity
  8
0
100
AcDbCircle
 10
92.32854004415708
 20
28.52159409768617
 30
-0.0000000000005713
 40
5.0
100
AcDbArc
 50
91.5010331611246
 51
132.1938337821114
  0
ARC
  5
7F3
330
1E
100
AcDbEntity
  8
0
100
AcDbCircle
 10
79.89940774423537
 20
17.25398231165333
 30
-0.0000000000008119
 40
5.0
100
AcDbArc
 50
132.1938337821114
 51
269.3525397905914
  0
ARC
  5
7F4
330
1E
100
AcDbEntity
  8
0
100
AcDbCircle
 10
58.07620038186091
 20
17.71646435026089
 30
-0.0000000000005754
 40
5.0
100
AcDbArc
 50
268.0084307919333
 51
312.1938337821114
  0
ARC
  5
7F5
330
1E
100
AcDbEntity
  8
0
100
AcDbCircle
 10
68.63889717395434
 20
27.29206174474938
 30
-0.0000000000006552
 40
5.0
100
AcDbArc
 50
312.1938337821114
 51
95.57711999166563
  0
LINE
  5
7F6
330
1E
100
AcDbEntity
  8
0
100
AcDbLine
 10
47.14333058460939
 20
21.69215102501058
 30
-0.0000000000007063
 11
54.03615979812123
 21
14.31607791593442
 31
-0.0000000000007334
  0
LINE
  5
7F8
330
1E
100
AcDbEntity
  8
0
100
AcDbLine
 10
37.56446124333958
 20
24.61944387059286
 30
-0.0000000000006831
 11
39.08008458882999
 21
22.99756289024805
 31
-0.000000000000689
  0
ARC
  5
7F9
330
1E
100
AcDbEntity
  8
0
100
AcDbCircle
 10
50.79650772495027
 20
25.10599003429191
 30
-0.0000000000003924
 40
5.0
100
AcDbArc
 50
100.9937132797989
 51
223.0603092901283
  0
ARC
  5
7FC
330
1E
100
AcDbEntity
  8
0
100
AcDbCircle
 10
57.6893369384621
 20
17.72991692521575
 30
-0.0000000000004583
 40
5.0
100
AcDbArc
 50
223.0603092901282
 51
268.0084307919333
  0
ARC
  5
7FD
330
1E
100
AcDbEntity
  8
0
100
AcDbCircle
 10
33.91128410299871
 20
21.20560486131153
 30
-0.0000000000009222
 40
5.0
100
AcDbArc
 50
43.0603092901283
 51
108.928663057427
  0
ARC
  5
7FE
330
1E
100
AcDbEntity
  8
0
100
AcDbCircle
 10
35.42690744848911
 20
19.58372388096672
 30
-0.0000000000008596
 40
5.0
100
AcDbArc
 50
261.2807909423311
 51
43.06030929012826
  0
LINE
  5
7FF
330
1E
100
AcDbEntity
  8
0
100
AcDbLine
 10
431.0944966710297
 20
75.50715086388446
 30
-0.0000000000007277
 11
441.6571934631232
 21
85.08274825837295
 31
-0.0000000000007382
  0
ARC
  5
800
330
1E
100
AcDbEntity
  8
0
100
AcDbCircle
 10
423.192190397981
 20
81.8408458814466
 30
-0.0000000000007551
 40
5.0
100
AcDbArc
 50
312.1938337821114
 51
89.35253979059142
  0
LINE
  5
801
330
1E
100
AcDbEntity
  8
0
100
AcDbLine
 10
402.5840524942949
 20
68.436837078626
 30
-0.0000000000007091
 11
402.5840524942949
 21
83.73200277035085
 31
-0.000000000000736
  0
ARC
  5
802
330
1E
100
AcDbEntity
  8
0
100
AcDbCircle
 10
445.0153977603554
 20
81.37836384283904
 30
-0.0000000000005186
 40
5.0
100
AcDbArc
 50
88.00843079193338
 51
132.1938337821114
  0
LINE
  5
803
330
1E
100
AcDbEntity
  8
1
100
AcDbLine
 10
445.5760234081755
 20
86.36189102532915
 30
-0.0000000000006921
 11
445.1891599647766
 21
86.375343600284
 31
-0.000000000000694
  0
ARC
  5
804
330
1E
100
AcDbEntity
  8
0
100
AcDbCircle
 10
405.5840524942949
 20
83.73200277035083
 30
-0.0000000000007601
 40
3.0
100
AcDbArc
 50
90.35777452609712
 51
180.0
  0
LINE
  5
805
330
1E
100
AcDbEntity
  8
1
100
AcDbLine
 10
423.2486907576239
 20
86.84052664219125
 30
-0.0000000000007551
 11
405.5653195856534
 21
86.73194428280302
 31
-0.000000000000739
  0
ARC
  5
807
330
1E
100
AcDbEntity
  8
0
100
AcDbCircle
 10
434.4527009682621
 20
71.80276644835055
 30
-0.0000000000005984
 40
5.0
100
AcDbArc
 50
132.1938337821114
 51
275.5771199916656
  0
LINE
  5
808
330
1E
100
AcDbEntity
  8
0
100
AcDbLine
 10
414.1212623952916
 20
66.86884967987989
 30
-0.0000000000007143
 11
426.5503946952133
 21
78.13646146591271
 31
-0.0000000000007283
  0
LINE
  5
809
330
1E
100
AcDbEntity
  8
1
100
AcDbLine
 10
442.8730085728234
 20
67.59640023995634
 30
-0.0000000000006821
 11
453.2485968482651
 21
69.08059758951606
 31
-0.0000000000003356
  0
LINE
  5
80A
330
1E
100
AcDbEntity
  8
1
100
AcDbLine
 10
434.9386283000633
 20
66.82643500558988
 30
-0.0000000000005984
 11
442.8730085728234
 21
67.59640023995634
 31
-0.0000000000006821
  0
ARC
  5
80B
330
1E
100
AcDbEntity
  8
0
100
AcDbCircle
 10
410.7630580980593
 20
70.57323409541377
 30
-0.0000000000005144
 40
5.0
100
AcDbArc
 50
271.5010331611245
 51
312.1938337821114
  0
LINE
  5
80C
330
1E
100
AcDbEntity
  8
1
100
AcDbLine
 10
405.6626374168583
 20
65.43786652026006
 30
-0.0000000000007435
 11
410.8940329689984
 21
65.57494983147055
 31
-0.0000000000007208
  0
ARC
  5
80D
330
1E
100
AcDbEntity
  8
0
100
AcDbCircle
 10
445.4022612037542
 20
81.36491126788419
 30
-0.0000000000004014
 40
5.0
100
AcDbArc
 50
43.06030929012822
 51
88.00843079193331
  0
ARC
  5
80E
330
1E
100
AcDbEntity
  8
0
100
AcDbCircle
 10
405.5840524942949
 20
68.43683707862599
 30
0.0000000000001597
 40
3.0
100
AcDbArc
 50
180.0
 51
271.5010331611245
  0
ARC
  5
80F
330
1E
100
AcDbEntity
  8
0
100
AcDbCircle
 10
467.6646906937272
 20
79.5111043121332
 30
-0.0000000000008027
 40
5.0
100
AcDbArc
 50
81.28079094233111
 51
223.0603092901282
  0
LINE
  5
810
330
1E
100
AcDbEntity
  8
0
100
AcDbLine
 10
455.948267557607
 20
77.40267716808934
 30
-0.0000000000006495
 11
449.0554383440952
 21
84.77875027716549
 31
-0.0000000000006766
  0
LINE
  5
811
330
1E
100
AcDbEntity
  8
1
100
AcDbLine
 10
472.7378671263582
 20
83.79151849294023
 30
-0.0000000000006821
 11
468.4226517711681
 21
84.45331990891615
 31
-0.0000000000006831
  0
ARC
  5
812
330
1E
100
AcDbEntity
  8
0
100
AcDbCircle
 10
469.1803140392177
 20
77.8892233317884
 30
-0.0000000000008653
 40
5.0
100
AcDbArc
 50
223.0603092901283
 51
288.928663057427
  0
LINE
  5
813
330
1E
100
AcDbEntity
  8
0
100
AcDbLine
 10
465.5271368988768
 20
74.47538432250706
 30
-0.0000000000006262
 11
464.0115135533863
 21
76.09726530285188
 31
-0.0000000000006322
  0
ARC
  5
814
330
1E
100
AcDbEntity
  8
0
100
AcDbCircle
 10
452.295090417266
 20
73.98883815880802
 30
-0.0000000000003356
 40
5.0
100
AcDbArc
 50
280.9937132797989
 51
43.0603092901283
  0
ARC
  5
815
330
1E
100
AcDbEntity
  8
1
100
AcDbCircle
 10
471.9799060489173
 20
78.84930289615727
 30
-0.00000000000078
 40
5.0
100
AcDbArc
 50
288.9286630574271
 51
81.28079094233111
  0
LINE
  5
816
330
1E
100
AcDbEntity
  8
1
100
AcDbLine
 10
470.8022673931099
 20
73.15960735183847
 30
-0.0000000000006313
 11
473.6018594028096
 21
74.11968691620735
 31
-0.0000000000006189
  0
ARC
  5
817
330
1E
100
AcDbEntity
  8
0
100
AcDbCircle
 10
368.9165562751999
 20
80.62417548575716
 30
-0.0000000000008188
 40
5.0
100
AcDbArc
 50
92.13831513980739
 51
231.1450748615042
  0
LINE
  5
818
330
1E
100
AcDbEntity
  8
0
100
AcDbLine
 10
386.5840524942949
 20
68.64667263754128
 30
-0.000000000000739
 11
386.5840524942949
 21
83.173223752324
 31
-0.0000000000007319
  0
ARC
  5
819
330
1E
100
AcDbEntity
  8
0
100
AcDbCircle
 10
383.5840524942948
 20
83.17322375232398
 30
-0.0000000000008231
 40
3.0
100
AcDbArc
 50
359.9999999999999
 51
92.13831513980739
  0
LINE
  5
81A
330
1E
100
AcDbEntity
  8
1
100
AcDbLine
 10
383.4721165642362
 20
86.17113474959559
 30
-0.0000000000007958
 11
368.7299963917687
 21
85.62069381454312
 31
-0.0000000000007958
  0
LINE
  5
81B
330
1E
100
AcDbEntity
  8
0
100
AcDbLine
 10
378.0137038862546
 20
66.87485815538845
 30
-0.0000000000007419
 11
365.7798031961413
 21
76.73049083994715
 31
-0.0000000000007702
  0
ARC
  5
81C
330
1E
100
AcDbEntity
  8
0
100
AcDbCircle
 10
383.5840524942948
 20
68.64667263754127
 30
-0.000000000000739
 40
3.0
100
AcDbArc
 50
267.1896834461413
 51
0.0
  0
ARC
  5
81D
330
1E
100
AcDbEntity
  8
0
100
AcDbCircle
 10
381.1504569653132
 20
70.76854280119845
 30
-0.0000000000008606
 40
5.0
100
AcDbArc
 50
231.1450748615042
 51
267.1896834461414
  0
LINE
  5
81E
330
1E
100
AcDbEntity
  8
1
100
AcDbLine
 10
380.9053089059594
 20
65.77455617436463
 30
-0.000000000000739
 11
383.4369636586826
 21
65.65028066144098
 31
-0.000000000000739
  0
LINE
  5
81F
330
1E
100
AcDbEntity
  8
0
100
AcDbLine
 10
336.9357899060508
 20
83.541813987748
 30
-0.0000000000008527
 11
329.1988972452925
 21
78.3389599366141
 31
-0.0000000000008528
  0
LINE
  5
820
330
1E
100
AcDbEntity
  8
0
100
AcDbLine
 10
358.5973297574725
 20
76.09603927267459
 30
-0.0000000000006487
 11
349.3080553317198
 21
83.57948048781137
 31
-0.0000000000008442
  0
ARC
  5
821
330
1E
100
AcDbEntity
  8
0
100
AcDbCircle
 10
339.7259479923274
 20
79.39271554910074
 30
-0.0000000000008527
 40
5.0
100
AcDbArc
 50
92.60353487533173
 51
123.9197799718228
  0
ARC
  5
822
330
1E
100
AcDbEntity
  8
0
100
AcDbCircle
 10
346.1713022526612
 20
79.68579584200139
 30
-0.0000000000010145
 40
5.0
100
AcDbArc
 50
51.14507486150424
 51
92.60353487533173
  0
LINE
  5
823
330
1E
100
AcDbEntity
  8
1
100
AcDbLine
 10
345.9441791539354
 20
84.68063468805288
 30
-0.0000000000008527
 11
339.4988248936016
 21
84.38755439515224
 31
-0.0000000000008527
  0
LINE
  5
824
330
1E
100
AcDbEntity
  8
1
100
AcDbLine
 10
348.6434377160688
 20
67.66062373538007
 30
-0.0000000000007958
 11
355.1158376113577
 21
67.21425328711162
 31
-0.0000000000007714
  0
LINE
  5
825
330
1E
100
AcDbEntity
  8
1
100
AcDbLine
 10
331.4550931052103
 20
69.21845482170086
 30
-0.0000000000004019
 11
348.6434377160688
 21
67.66062373538007
 31
-0.0000000000007958
  0
ARC
  5
827
330
1E
100
AcDbEntity
  8
0
100
AcDbCircle
 10
331.9890553315691
 20
74.18986149796684
 30
-0.0000000000004019
 40
5.0
100
AcDbArc
 50
123.9197799718227
 51
263.8695531506595
  0
ARC
  5
828
330
1E
100
AcDbEntity
  8
0
100
AcDbCircle
 10
355.4605766784139
 20
72.20235462686457
 30
0.0000000000002851
 40
5.0
100
AcDbArc
 50
266.0464446529305
 51
51.14507486150424
  0
ARC
  5
829
330
1E
100
AcDbEntity
  8
0
100
AcDbCircle
 10
310.8302079717907
 20
78.03731683769267
 30
-0.0000000000008527
 40
5.0
100
AcDbArc
 50
303.9197799718227
 51
92.77442087628321
  0
LINE
  5
82A
330
1E
100
AcDbEntity
  8
1
100
AcDbLine
 10
297.4144717843033
 20
82.3930490359281
 30
-0.0000000000008527
 11
281.1421246129823
 21
81.60229675733633
 31
-0.0000000000009109
  0
LINE
  5
82B
330
1E
100
AcDbEntity
  8
1
100
AcDbLine
 10
310.5881886817824
 20
83.0314560691583
 30
-0.0000000000008527
 11
297.4144717843033
 21
82.3930490359281
 31
-0.0000000000008527
  0
LINE
  5
82C
330
1E
100
AcDbEntity
  8
1
100
AcDbLine
 10
287.1692307855797
 20
74.71071775045132
 30
-0.0000000000008527
 11
308.2317877957595
 21
71.7977556571644
 31
-0.0000000000008527
  0
LINE
  5
82D
330
1E
100
AcDbEntity
  8
0
100
AcDbLine
 10
313.6203660580673
 20
73.88821839904543
 30
-0.0000000000008527
 11
311.7069682232233
 21
72.60150936572227
 31
-0.0000000000008527
  0
LINE
  5
82E
330
1E
100
AcDbEntity
  8
1
100
AcDbLine
 10
280.8522103536728
 20
75.63761499511644
 30
-0.0000000000008652
 11
287.1692307855797
 21
74.71071775045132
 31
-0.0000000000008527
  0
ARC
  5
82F
330
1E
100
AcDbEntity
  8
1
100
AcDbCircle
 10
281.2877373284436
 20
78.60583268495101
 30
-0.0000000000001693
 40
3.0
100
AcDbArc
 50
92.7820911293519
 51
261.6525487009835
  0
ARC
  5
830
330
1E
100
AcDbEntity
  8
0
100
AcDbCircle
 10
308.9168101369466
 20
76.7506078043695
 30
-0.0000000000008527
 40
5.0
100
AcDbArc
 50
262.1254554097081
 51
303.9197799718227
  0
ARC
  5
832
330
1E
100
AcDbEntity
  8
0
100
AcDbCircle
 10
206.399573821015
 20
50.85723243082703
 30
0.0
 40
5.89833702970418
100
AcDbArc
 50
0.0
 51
180.0
  0
ARC
  5
833
330
1E
100
AcDbEntity
  8
0
100
AcDbCircle
 10
223.3867884554887
 20
51.56450953643299
 30
0.0
 40
5.89833702970418
100
AcDbArc
 50
0.0
 51
180.0
  0
ARC
  5
834
330
1E
100
AcDbEntity
  8
0
100
AcDbCircle
 10
178.7869435715205
 20
50.85723243082703
 30
0.0
 40
5.89833702970418
100
AcDbArc
 50
0.0
 51
180.0
  0
ARC
  5
835
330
1E
100
AcDbEntity
  8
0
100
AcDbCircle
 10
158.0774708843995
 20
51.20213452373697
 30
0.0
 40
4.712687190196
100
AcDbArc
 50
0.0
 51
180.0
  0
ARC
  5
83A
330
1E
100
AcDbEntity
  8
0
100
AcDbCircle
 10
158.0774708843995
 20
51.20213452373697
 30
0.0
 40
4.712687190196
100
AcDbArc
 50
180.0
 51
0.0
  0
ARC
  5
83B
330
1E
100
AcDbEntity
  8
0
100
AcDbCircle
 10
178.7869435715205
 20
50.85723243082703
 30
0.0
 40
5.89833702970418
100
AcDbArc
 50
180.0
 51
0.0
  0
ARC
  5
83C
330
1E
100
AcDbEntity
  8
0
100
AcDbCircle
 10
206.399573821015
 20
50.85723243082703
 30
0.0
 40
5.89833702970418
100
AcDbArc
 50
180.0
 51
0.0
  0
ARC
  5
83D
330
1E
100
AcDbEntity
  8
0
100
AcDbCircle
 10
223.3867884554887
 20
51.56450953643299
 30
0.0
 40
5.89833702970418
100
AcDbArc
 50
180.0
 51
0.0
  0
ARC
  5
83E
330
1E
100
AcDbEntity
  8
0
100
AcDbCircle
 10
295.8815572206871
 20
45.8961998900603
 30
-0.0000000000004547
 40
5.89833702970418
100
AcDbArc
 50
0.0
 51
180.0
  0
ARC
  5
83F
330
1E
100
AcDbEntity
  8
0
100
AcDbCircle
 10
312.8687718551609
 20
46.60347699566625
 30
-0.0000000000004547
 40
5.89833702970418
100
AcDbArc
 50
0.0
 51
180.0
  0
ARC
  5
840
330
1E
100
AcDbEntity
  8
0
100
AcDbCircle
 10
295.8815572206871
 20
45.8961998900603
 30
-0.0000000000004547
 40
5.89833702970418
100
AcDbArc
 50
180.0
 51
0.0
  0
ARC
  5
841
330
1E
100
AcDbEntity
  8
0
100
AcDbCircle
 10
312.8687718551609
 20
46.60347699566625
 30
-0.0000000000004547
 40
5.89833702970418
100
AcDbArc
 50
180.0
 51
0.0
  0
ARC
  5
842
330
1E
100
AcDbEntity
  8
0
100
AcDbCircle
 10
340.4814021046554
 20
46.60347699566625
 30
-0.0000000000004547
 40
5.89833702970418
100
AcDbArc
 50
0.0
 51
180.0
  0
ARC
  5
843
330
1E
100
AcDbEntity
  8
0
100
AcDbCircle
 10
361.1908747917764
 20
46.25857490275631
 30
-0.0000000000004547
 40
4.712687190196
100
AcDbArc
 50
0.0
 51
180.0
  0
ARC
  5
844
330
1E
100
AcDbEntity
  8
0
100
AcDbCircle
 10
340.4814021046554
 20
46.60347699566625
 30
-0.0000000000004547
 40
5.89833702970418
100
AcDbArc
 50
180.0
 51
0.0
  0
ARC
  5
845
330
1E
100
AcDbEntity
  8
0
100
AcDbCircle
 10
361.1908747917764
 20
46.25857490275631
 30
-0.0000000000004547
 40
4.712687190196
100
AcDbArc
 50
180.0
 51
0.0
  0
LWPOLYLINE
  5
855
330
1E
100
AcDbEntity
  8
0
100
AcDbPolyline
 90
        2
 70
     0
 43
0.0
 10
495.0000000000001
 20
99.99999999999984
 10
5.0
 20
99.99999999999994
  0
LWPOLYLINE
  5
856
330
1E
100
AcDbEntity
  8
0
100
AcDbPolyline
 90
        2
 70
     0
 43
0.0
 10
4.999999999999922
 20
-0.0000000000000023
 10
495.0000000000001
 20
-0.0000000000002251
  0
LWPOLYLINE
  5
857
330
1E
100
AcDbEntity
  8
0
100
AcDbPolyline
 90
        2
 70
     0
 43
0.0
 10
0.0
 20
94.99999999999996
 10
0.0
 20
5.0
  0
ENDSEC
  0
SECTION
  2
OBJECTS
  0
DICTIONARY
  5
C
330
0
100
AcDbDictionary
  3
ACAD_GROUP
350
D
  3
ACAD_LAYOUT
350
19
  3
ACAD_MLINESTYLE
350
16
  3
ACAD_PLOTSETTINGS
350
18
  3
ACAD_PLOTSTYLENAME
350
E
  3
ACDBHEADERROUNDTRIPXREC
350
85D
  0
DICTIONARY
  5
87F
330
1E
100
AcDbDictionary
280
     1
  3
ACAD_LAYOUTSELFREF
360
880
  0
DICTIONARY
  5
87D
330
1A
100
AcDbDictionary
280
     1
  3
ACAD_LAYOUTSELFREF
360
87E
  0
DICTIONARY
  5
D
102
{ACAD_REACTORS
330
C
102
}
330
C
100
AcDbDictionary
  0
DICTIONARY
  5
19
102
{ACAD_REACTORS
330
C
102
}
330
C
100
AcDbDictionary
  0
DICTIONARY
  5
16
102
{ACAD_REACTORS
330
C
102
}
330
C
100
AcDbDictionary
  3
STANDARD
350
17
  0
DICTIONARY
  5
18
102
{ACAD_REACTORS
330
C
102
}
330
C
100
AcDbDictionary
  0
ACDBDICTIONARYWDFLT
  5
E
102
{ACAD_REACTORS
330
C
102
}
330
C
100
AcDbDictionary
281
     1
  3
Normal
350
F
100
AcDbDictionaryWithDefault
340
F
  0
DICTIONARY
  5
85D
102
{ACAD_REACTORS
330
C
102
}
330
C
100
AcDbDictionary
  3
TSTACKALIGN
350
85E
  3
TSTACKSIZE
350
85F
  3
HYPERLINKBASE
350
860
  3
STYLESHEET
350
861
  3
LAYOUTDICT
350
862
  3
PLOTSETDICT
350
863
  3
PLOTSTYLNAMDICT
350
864
  3
LWETCUNION
350
865
  3
INSUNITS
350
866
  3
CEPSNTYPE
350
867
  3
FINGERPRINTGUID
350
868
  3
VERSIONGUID
350
869
  3
PSVPSCALE
350
86A
  3
PUCSORTHOREF
350
86B
  3
PUCSORTHOVIEW
350
86C
  3
PUCSBASE
350
86D
  3
PUCSORGTOP
350
86E
  3
PUCSORGBOTTOM
350
86F
  3
PUCSORGLEFT
350
870
  3
PUCSORGRIGHT
350
871
  3
PUCSORGFRONT
350
872
  3
PUCSORGBACK
350
873
  3
UCSORTHOREF
350
874
  3
UCSORTHOVIEW
350
875
  3
UCSBASE
350
876
  3
UCSORGTOP
350
877
  3
UCSORGBOTTOM
350
878
  3
UCSORGLEFT
350
879
  3
UCSORGRIGHT
350
87A
  3
UCSORGFRONT
350
87B
  3
UCSORGBACK
350
87C
  0
XRECORD
  5
880
102
{ACAD_REACTORS
330
87F
102
}
330
87F
100
AcDbXrecord
340
1E
  0
XRECORD
  5
87E
102
{ACAD_REACTORS
330
87D
102
}
330
87D
100
AcDbXrecord
340
1A
  0
MLINESTYLE
  5
17
102
{ACAD_REACTORS
330
16
102
}
330
16
100
AcDbMlineStyle
  2
STANDARD
 70
     0
  3

 62
   256
 51
90.0
 52
90.0
 71
     2
 49
0.5
 62
   256
  6
BYLAYER
 49
-0.5
 62
   256
  6
BYLAYER
  0
ACDBPLACEHOLDER
  5
F
102
{ACAD_REACTORS
330
E
102
}
330
E
100
AcDbPlaceHolder
280
     0
  0
XRECORD
  5
85E
102
{ACAD_REACTORS
330
85D
102
}
330
85D
100
AcDbXrecord
 90
        1
  0
XRECORD
  5
85F
102
{ACAD_REACTORS
330
85D
102
}
330
85D
100
AcDbXrecord
 90
       70
  0
XRECORD
  5
860
102
{ACAD_REACTORS
330
85D
102
}
330
85D
100
AcDbXrecord
  1

  0
XRECORD
  5
861
102
{ACAD_REACTORS
330
85D
102
}
330
85D
100
AcDbXrecord
  1

  0
XRECORD
  5
862
102
{ACAD_REACTORS
330
85D
102
}
330
85D
100
AcDbXrecord
340
19
  0
XRECORD
  5
863
102
{ACAD_REACTORS
330
85D
102
}
330
85D
100
AcDbXrecord
340
18
  0
XRECORD
  5
864
102
{ACAD_REACTORS
330
85D
102
}
330
85D
100
AcDbXrecord
340
E
  0
XRECORD
  5
865
102
{ACAD_REACTORS
330
85D
102
}
330
85D
100
AcDbXrecord
 90
    10781
  0
XRECORD
  5
866
102
{ACAD_REACTORS
330
85D
102
}
330
85D
100
AcDbXrecord
 90
        0
  0
XRECORD
  5
867
102
{ACAD_REACTORS
330
85D
102
}
330
85D
100
AcDbXrecord
 90
        0
  0
XRECORD
  5
868
102
{ACAD_REACTORS
330
85D
102
}
330
85D
100
AcDbXrecord
  1
{0CD34302-B455-11D6-A8C6-00508B050D30}
  0
XRECORD
  5
869
102
{ACAD_REACTORS
330
85D
102
}
330
85D
100
AcDbXrecord
  1
{A65B6AAF-B484-11D6-A8C8-00508B050D30}
  0
XRECORD
  5
86A
102
{ACAD_REACTORS
330
85D
102
}
330
85D
100
AcDbXrecord
 40
0.0
  0
XRECORD
  5
86B
102
{ACAD_REACTORS
330
85D
102
}
330
85D
100
AcDbXrecord
340
0
  0
XRECORD
  5
86C
102
{ACAD_REACTORS
330
85D
102
}
330
85D
100
AcDbXrecord
 70
     0
  0
XRECORD
  5
86D
102
{ACAD_REACTORS
330
85D
102
}
330
85D
100
AcDbXrecord
340
0
  0
XRECORD
  5
86E
102
{ACAD_REACTORS
330
85D
102
}
330
85D
100
AcDbXrecord
 10
0.0
 20
0.0
 30
0.0
  0
XRECORD
  5
86F
102
{ACAD_REACTORS
330
85D
102
}
330
85D
100
AcDbXrecord
 10
0.0
 20
0.0
 30
0.0
  0
XRECORD
  5
870
102
{ACAD_REACTORS
330
85D
102
}
330
85D
100
AcDbXrecord
 10
0.0
 20
0.0
 30
0.0
  0
XRECORD
  5
871
102
{ACAD_REACTORS
330
85D
102
}
330
85D
100
AcDbXrecord
 10
0.0
 20
0.0
 30
0.0
  0
XRECORD
  5
872
102
{ACAD_REACTORS
330
85D
102
}
330
85D
100
AcDbXrecord
 10
0.0
 20
0.0
 30
0.0
  0
XRECORD
  5
873
102
{ACAD_REACTORS
330
85D
102
}
330
85D
100
AcDbXrecord
 10
0.0
 20
0.0
 30
0.0
  0
XRECORD
  5
874
102
{ACAD_REACTORS
330
85D
102
}
330
85D
100
AcDbXrecord
340
0
  0
XRECORD
  5
875
102
{ACAD_REACTORS
330
85D
102
}
330
85D
100
AcDbXrecord
 70
     0
  0
XRECORD
  5
876
102
{ACAD_REACTORS
330
85D
102
}
330
85D
100
AcDbXrecord
340
0
  0
XRECORD
  5
877
102
{ACAD_REACTORS
330
85D
102
}
330
85D
100
AcDbXrecord
 10
0.0
 20
0.0
 30
0.0
  0
XRECORD
  5
878
102
{ACAD_REACTORS
330
85D
102
}
330
85D
100
AcDbXrecord
 10
0.0
 20
0.0
 30
0.0
  0
XRECORD
  5
879
102
{ACAD_REACTORS
330
85D
102
}
330
85D
100
AcDbXrecord
 10
0.0
 20
0.0
 30
0.0
  0
XRECORD
  5
87A
102
{ACAD_REACTORS
330
85D
102
}
330
85D
100
AcDbXrecord
 10
0.0
 20
0.0
 30
0.0
  0
XRECORD
  5
87B
102
{ACAD_REACTORS
330
85D
102
}
330
85D
100
AcDbXrecord
 10
0.0
 20
0.0
 30
0.0
  0
XRECORD
  5
87C
102
{ACAD_REACTORS
330
85D
102
}
330
85D
100
AcDbXrecord
 10
0.0
 20
0.0
 30
0.0
  0
ENDSEC
  0
EOF
