  0
SECTION
  2
HEADER
  9
$ACADVER
  1
AC1009
  9
$INSBASE
 10
0.0
 20
0.0
 30
0.0
  9
$EXTMIN
 10
-75.967977204023683
 20
-19.448898553132789
 30
0.0
  9
$EXTMAX
 10
622.05256927925052
 20
112.55304702760679
 30
0.0
  9
$LIMMIN
 10
0.0
 20
0.0
  9
$LIMMAX
 10
420.0
 20
297.0
  9
$ORTHOMODE
 70
     0
  9
$REGENMODE
 70
     1
  9
$FILLMODE
 70
     1
  9
$QTEXTMODE
 70
     0
  9
$MIRRTEXT
 70
     0
  9
$DRAGMODE
 70
     2
  9
$LTSCALE
 40
1.0
  9
$OSMODE
 70
    37
  9
$ATTMODE
 70
     1
  9
$TEXTSIZE
 40
2.5
  9
$TRACEWID
 40
1.0
  9
$TEXTSTYLE
  7
STANDARD
  9
$CLAYER
  8
0
  9
$CELTYPE
  6
BYLAYER
  9
$CECOLOR
 62
   256
  9
$DIMSCALE
 40
1.0
  9
$DIMASZ
 40
2.5
  9
$DIMEXO
 40
0.625
  9
$DIMDLI
 40
3.75
  9
$DIMRND
 40
0.0
  9
$DIMDLE
 40
0.0
  9
$DIMEXE
 40
1.25
  9
$DIMTP
 40
0.0
  9
$DIMTM
 40
0.0
  9
$DIMTXT
 40
2.5
  9
$DIMCEN
 40
2.5
  9
$DIMTSZ
 40
0.0
  9
$DIMTOL
 70
     0
  9
$DIMLIM
 70
     0
  9
$DIMTIH
 70
     0
  9
$DIMTOH
 70
     0
  9
$DIMSE1
 70
     0
  9
$DIMSE2
 70
     0
  9
$DIMTAD
 70
     1
  9
$DIMZIN
 70
     8
  9
$DIMBLK
  1

  9
$DIMASO
 70
     1
  9
$DIMSHO
 70
     1
  9
$DIMPOST
  1

  9
$DIMAPOST
  1

  9
$DIMALT
 70
     0
  9
$DIMALTD
 70
     3
  9
$DIMALTF
 40
0.03937007874016
  9
$DIMLFAC
 40
1.0
  9
$DIMTOFL
 70
     1
  9
$DIMTVP
 40
0.0
  9
$DIMTIX
 70
     0
  9
$DIMSOXD
 70
     0
  9
$DIMSAH
 70
     0
  9
$DIMBLK1
  1

  9
$DIMBLK2
  1

  9
$DIMSTYLE
  2
ISO-25
  9
$DIMCLRD
 70
     0
  9
$DIMCLRE
 70
     0
  9
$DIMCLRT
 70
     0
  9
$DIMTFAC
 40
1.0
  9
$DIMGAP
 40
0.625
  9
$LUNITS
 70
     2
  9
$LUPREC
 70
     4
  9
$SKETCHINC
 40
1.0
  9
$FILLETRAD
 40
0.0
  9
$AUNITS
 70
     0
  9
$AUPREC
 70
     0
  9
$MENU
  1
.
  9
$ELEVATION
 40
0.0
  9
$PELEVATION
 40
0.0
  9
$THICKNESS
 40
0.0
  9
$LIMCHECK
 70
     0
  9
$BLIPMODE
 70
     0
  9
$CHAMFERA
 40
0.0
  9
$CHAMFERB
 40
0.0
  9
$SKPOLY
 70
     0
  9
$TDCREATE
 40
2454954.9920911002
  9
$TDUPDATE
 40
2454968.9054622338
  9
$TDINDWG
 40
0.0238821875
  9
$TDUSRTIMER
 40
0.0238762269
  9
$USRTIMER
 70
     1
  9
$ANGBASE
 50
0.0
  9
$ANGDIR
 70
     0
  9
$PDMODE
 70
     0
  9
$PDSIZE
 40
0.0
  9
$PLINEWID
 40
0.0
  9
$COORDS
 70
     1
  9
$SPLFRAME
 70
     0
  9
$SPLINETYPE
 70
     6
  9
$SPLINESEGS
 70
     8
  9
$ATTDIA
 70
     0
  9
$ATTREQ
 70
     1
  9
$HANDLING
 70
     1
  9
$HANDSEED
  5
1112
  9
$SURFTAB1
 70
     6
  9
$SURFTAB2
 70
     6
  9
$SURFTYPE
 70
     6
  9
$SURFU
 70
     6
  9
$SURFV
 70
     6
  9
$UCSNAME
  2

  9
$UCSORG
 10
0.0
 20
0.0
 30
0.0
  9
$UCSXDIR
 10
1.0
 20
0.0
 30
0.0
  9
$UCSYDIR
 10
0.0
 20
1.0
 30
0.0
  9
$PUCSNAME
  2

  9
$PUCSORG
 10
0.0
 20
0.0
 30
0.0
  9
$PUCSXDIR
 10
1.0
 20
0.0
 30
0.0
  9
$PUCSYDIR
 10
0.0
 20
1.0
 30
0.0
  9
$USERI1
 70
     0
  9
$USERI2
 70
     0
  9
$USERI3
 70
     0
  9
$USERI4
 70
     0
  9
$USERI5
 70
     0
  9
$USERR1
 40
0.0
  9
$USERR2
 40
0.0
  9
$USERR3
 40
0.0
  9
$USERR4
 40
0.0
  9
$USERR5
 40
0.0
  9
$WORLDVIEW
 70
     1
  9
$SHADEDGE
 70
     3
  9
$SHADEDIF
 70
    70
  9
$TILEMODE
 70
     1
  9
$MAXACTVP
 70
    64
  9
$PLIMCHECK
 70
     0
  9
$PEXTMIN
 10
0.0
 20
0.0
 30
0.0
  9
$PEXTMAX
 10
0.0
 20
0.0
 30
0.0
  9
$PLIMMIN
 10
0.0
 20
0.0
  9
$PLIMMAX
 10
12.0
 20
9.0
  9
$UNITMODE
 70
     0
  9
$VISRETAIN
 70
     1
  9
$PLINEGEN
 70
     0
  9
$PSLTSCALE
 70
     1
  0
ENDSEC
  0
SECTION
  2
TABLES
  0
TABLE
  2
VPORT
 70
     2
  0
VPORT
  2
*ACTIVE
 70
     0
 10
0.0
 20
0.0
 11
1.0
 21
1.0
 12
68.300394971394667
 22
9.9994836861991985
 13
0.0
 23
0.0
 14
10.0
 24
10.0
 15
10.0
 25
10.0
 16
0.0
 26
0.0
 36
1.0
 17
0.0
 27
0.0
 37
0.0
 40
235.9564743195657
 41
2.4474187380497132
 42
50.0
 43
0.0
 44
0.0
 50
0.0
 51
0.0
 71
     0
 72
  1000
 73
     1
 74
     3
 75
     0
 76
     0
 77
     0
 78
     0
  0
ENDTAB
  0
TABLE
  2
LTYPE
 70
     5
  0
LTYPE
  2
CONTINUOUS
 70
     0
  3
Solid line
 72
    65
 73
     0
 40
0.0
  0
LTYPE
  2
ACAD_ISO02W100
 70
     0
  3
tratteggiata ISO __ __ __ __ __ __ __ __ __ __ 
 72
    65
 73
     2
 40
15.0
 49
12.0
 49
-3.0
  0
LTYPE
  2
ACAD_ISO04W100
 70
     0
  3
tratto lungo punto ISO ____ . ____ . ____ . ___
 72
    65
 73
     4
 40
30.5
 49
24.0
 49
-3.0
 49
0.5
 49
-3.0
  0
LTYPE
  2
NASCOSTA2
 70
     0
  3
nascosta (.5x) _ _ _ _ _ _ _ _ _ _ _ _ _ _ _ _ 
 72
    65
 73
     2
 40
4.7624999999999993
 49
3.174999999999998
 49
-1.587499999999999
  0
ENDTAB
  0
TABLE
  2
LAYER
 70
     6
  0
LAYER
  2
0
 70
     0
 62
     7
  6
CONTINUOUS
  0
LAYER
  2
COSTRUZIONE
 70
     0
 62
    41
  6
ACAD_ISO02W100
  0
LAYER
  2
ASSI
 70
     0
 62
     5
  6
ACAD_ISO04W100
  0
LAYER
  2
ALA
 70
     0
 62
    94
  6
CONTINUOUS
  0
LAYER
  2
TRATTEGGI
 70
     0
 62
     7
  6
CONTINUOUS
  0
LAYER
  2
STRUTTURA
 70
     0
 62
   191
  6
CONTINUOUS
  0
ENDTAB
  0
TABLE
  2
STYLE
 70
     1
  0
STYLE
  2
STANDARD
 70
     0
 40
0.0
 41
1.0
 50
0.0
 71
     0
 42
2.5
  3
txt
  4

  0
ENDTAB
  0
TABLE
  2
VIEW
 70
     0
  0
ENDTAB
  0
TABLE
  2
UCS
 70
     0
  0
ENDTAB
  0
TABLE
  2
APPID
 70
     3
  0
APPID
  2
ACAD
 70
     0
  0
APPID
  2
ACAD_PSEXT
 70
     0
  0
APPID
  2
ACAD_EXEMPT_FROM_CAD_STANDARDS
 70
     0
  0
ENDTAB
  0
TABLE
  2
DIMSTYLE
 70
     3
  0
DIMSTYLE
  2
ISO-25
 70
     0
  3

  4

  5

  6

  7

 40
1.0
 41
2.5
 42
0.625
 43
3.75
 44
1.25
 45
0.0
 46
0.0
 47
0.0
 48
0.0
140
2.5
141
2.5
142
0.0
143
0.03937007874016
144
1.0
145
0.0
146
1.0
147
0.625
 71
     0
 72
     0
 73
     0
 74
     0
 75
     0
 76
     0
 77
     1
 78
     8
170
     0
171
     3
172
     1
173
     0
174
     0
175
     0
176
     0
177
     0
178
     0
  0
DIMSTYLE
  2
STANDARD
 70
     0
  3

  4

  5

  6

  7

 40
1.0
 41
0.18
 42
0.0625
 43
0.38
 44
0.18
 45
0.0
 46
0.0
 47
0.0
 48
0.0
140
0.18
141
0.09
142
0.0
143
25.399999999999999
144
1.0
145
0.0
146
1.0
147
0.09
 71
     0
 72
     0
 73
     1
 74
     1
 75
     0
 76
     0
 77
     0
 78
     0
170
     0
171
     2
172
     0
173
     0
174
     0
175
     0
176
     0
177
     0
178
     0
  0
ENDTAB
  0
ENDSEC
  0
SECTION
  2
BLOCKS
  0
BLOCK
  8
0
  2
$MODEL_SPACE
 70
     0
 10
0.0
 20
0.0
 30
0.0
  3
$MODEL_SPACE
  1

  0
ENDBLK
  5
108F
  8
0
  0
BLOCK
 67
     1
  8
0
  2
$PAPER_SPACE
 70
     0
 10
0.0
 20
0.0
 30
0.0
  3
$PAPER_SPACE
  1

  0
ENDBLK
  5
108B
 67
     1
  8
0
  0
BLOCK
  8
0
  2
A$C04811DD1
 70
     0
 10
0.0
 20
0.0
 30
0.0
  3
A$C04811DD1
  1

  0
LINE
  5
F1
  8
ALA
 10
16.96836830386496
 20
1.996634649153634
 30
0.0
 11
0.4930484219667052
 21
6.1875575533751981
 31
0.0
  0
LINE
  5
F2
  8
ALA
 10
-0.0000013314710259
 20
4.249284626093015
 30
0.0
 11
16.634722762356891
 21
-0.0000001347463012
 31
0.0
  0
ARC
  5
F3
  8
ALA
 10
16.721843427146041
 20
1.0274981855125691
 30
0.0
 40
1.0
 50
255.728032877358
 51
75.728032877358004
  0
ENDBLK
  5
F4
  8
0
  0
BLOCK
  8
0
  2
*X3
 70
     1
 10
0.0
 20
0.0
 30
0.0
  3
*X3
  1

  0
LINE
  5
4B5
  8
0
 62
     0
 10
172.39085750467129
 20
137.59657892128399
 30
0.0
 11
178.3578905663899
 21
136.5444299977236
 31
0.0
  0
LINE
  5
4B6
  8
0
 62
     0
 10
168.3469384530483
 20
138.30963095788621
 30
0.0
 11
168.8888811349598
 21
138.21407184106761
 31
0.0
  0
LINE
  5
4B7
  8
0
 62
     0
 10
168.3469384530483
 20
140.0376839659933
 30
0.0
 11
182.1917364054984
 21
137.59647254451909
 31
0.0
  0
LINE
  5
4B8
  8
0
 62
     0
 10
175.48329813482999
 20
140.50740421816229
 30
0.0
 11
183.34693845304841
 21
139.12083226347349
 31
0.0
  0
LINE
  5
4B9
  8
0
 62
     0
 10
172.4349641417981
 20
137.8467200905491
 30
0.0
 11
180.0806210216918
 21
136.49858449738451
 31
0.0
  0
LINE
  5
4BA
  8
0
 62
     0
 10
168.3469384530483
 20
138.56754931730481
 30
0.0
 11
171.6094982832233
 21
137.99227199306941
 31
0.0
  0
LINE
  5
4BB
  8
0
 62
     0
 10
176.27548239639191
 20
140.59984728263331
 30
0.0
 11
183.3469384530483
 21
139.3529587869505
 31
0.0
  0
LINE
  5
4BC
  8
0
 62
     0
 10
177.74526732463079
 20
137.24566423091841
 30
0.0
 11
182.32017061358661
 21
136.43898534694361
 31
0.0
  0
LINE
  5
4BD
  8
0
 62
     0
 10
168.3469384530483
 20
138.90284318454971
 30
0.0
 11
172.74244393932881
 21
138.12779697346639
 31
0.0
  0
LINE
  5
4BE
  8
0
 62
     0
 10
172.83002148578581
 20
140.69153828331159
 30
0.0
 11
178.68661603443499
 21
139.65886264931461
 31
0.0
  0
ENDBLK
  5
4C0
  8
0
  0
BLOCK
  8
0
  2
*X4
 70
     1
 10
0.0
 20
0.0
 30
0.0
  3
*X4
  1

  0
LINE
  5
4C2
  8
0
 62
     0
 10
194.8568598911537
 20
132.1053575349099
 30
0.0
 11
198.4186203880684
 21
132.73339200933759
 31
0.0
  0
LINE
  5
4C3
  8
0
 62
     0
 10
196.71136550823141
 20
134.16040991918331
 30
0.0
 11
198.4186203880684
 21
134.4614450174447
 31
0.0
  0
LINE
  5
4C4
  8
0
 62
     0
 10
186.34172876132331
 20
132.33196318055741
 30
0.0
 11
194.20995381558049
 21
133.71934354790929
 31
0.0
  0
LINE
  5
4C5
  8
0
 62
     0
 10
197.5369446865466
 20
136.03403481113861
 30
0.0
 11
198.41862038806869
 21
136.18949802555201
 31
0.0
  0
LINE
  5
4C6
  8
0
 62
     0
 10
196.91613337800831
 20
135.92456902751431
 30
0.0
 11
197.5369446865466
 21
136.03403481113861
 31
0.0
  0
LINE
  5
4C7
  8
0
 62
     0
 10
177.82659763149269
 20
132.55856882620481
 30
0.0
 11
193.41415700829691
 21
135.30707610773069
 31
0.0
  0
LINE
  5
4C8
  8
0
 62
     0
 10
189.02181355671621
 20
136.26064045678601
 30
0.0
 11
198.4186203880684
 21
137.91755103365901
 31
0.0
  0
LINE
  5
4C9
  8
0
 62
     0
 10
186.1146898001204
 20
135.74803610223969
 30
0.0
 11
189.0218135567161
 21
136.26064045678601
 31
0.0
  0
LINE
  5
4CA
  8
0
 62
     0
 10
173.6076313368653
 20
133.54270424586969
 30
0.0
 11
183.6132781074694
 21
135.3069697309657
 31
0.0
  0
LINE
  5
4CB
  8
0
 62
     0
 10
169.72154946294961
 20
132.85748316225619
 30
0.0
 11
170.1056549671539
 21
132.9252113260861
 31
0.0
  0
LINE
  5
4CC
  8
0
 62
     0
 10
186.31945766989671
 20
137.51219521057061
 30
0.0
 11
196.32510444050061
 21
139.2764606956666
 31
0.0
  0
LINE
  5
4CD
  8
0
 62
     0
 10
168.38744760302379
 20
134.35029801744511
 30
0.0
 11
180.50668242688559
 21
136.48724610243349
 31
0.0
  0
LINE
  5
4CE
  8
0
 62
     0
 10
183.3469384530483
 20
138.71611288007301
 30
0.0
 11
191.701898352109
 21
140.1893177330146
 31
0.0
  0
LINE
  5
4CF
  8
0
 62
     0
 10
168.9342048824775
 20
136.17475908581869
 30
0.0
 11
171.99155129705511
 21
136.713851748081
 31
0.0
  0
LINE
  5
4D0
  8
0
 62
     0
 10
196.6494330132638
 20
133.1951916194877
 30
0.0
 11
198.4186203880684
 21
133.50714708759449
 31
0.0
  0
LINE
  5
4D1
  8
0
 62
     0
 10
191.04411460914051
 20
132.206822749379
 30
0.0
 11
194.77337424377561
 21
132.86439184103219
 31
0.0
  0
LINE
  5
4D2
  8
0
 62
     0
 10
193.85129091393381
 20
136.132117851792
 30
0.0
 11
198.4186203880684
 21
136.93746126786689
 31
0.0
  0
LINE
  5
4D3
  8
0
 62
     0
 10
193.5614030468185
 20
136.08100279943949
 30
0.0
 11
193.85129091393381
 21
136.132117851792
 31
0.0
  0
LINE
  5
4D4
  8
0
 62
     0
 10
176.67687412142411
 20
133.10380479334
 30
0.0
 11
191.6853442773301
 21
135.750203020984
 31
0.0
  0
LINE
  5
4D5
  8
0
 62
     0
 10
174.14094385888009
 20
132.6566518668584
 30
0.0
 11
175.8514082628493
 21
132.95825289081949
 31
0.0
  0
LINE
  5
4D6
  8
0
 62
     0
 10
190.47337308037291
 20
138.9668139793913
 30
0.0
 11
196.6584672187272
 21
140.05741295420489
 31
0.0
  0
LINE
  5
4D7
  8
0
 62
     0
 10
183.3469384530483
 20
137.71023127833891
 30
0.0
 11
188.5973143108848
 21
138.63601420093579
 31
0.0
  0
LINE
  5
4D8
  8
0
 62
     0
 10
173.58884415497869
 20
135.98961597329179
 30
0.0
 11
176.94812016367339
 21
136.58194696927131
 31
0.0
  0
LINE
  5
4D9
  8
0
 62
     0
 10
168.36996646853751
 20
135.06938702815481
 30
0.0
 11
172.76337829640391
 21
135.8440640707714
 31
0.0
  0
LINE
  5
4DA
  8
0
 62
     0
 10
194.4755853629525
 20
132.11550405635691
 30
0.0
 11
198.4186203880686
 21
132.8107675171633
 31
0.0
  0
LINE
  5
4DB
  8
0
 62
     0
 10
186.29679367470331
 20
133.25254600631419
 30
0.0
 11
198.4186203880686
 21
135.3899511113531
 31
0.0
  0
LINE
  5
4DC
  8
0
 62
     0
 10
181.766434422907
 20
132.45372143792031
 30
0.0
 11
183.79538198205239
 21
132.8114796350402
 31
0.0
  0
LINE
  5
4DD
  8
0
 62
     0
 10
191.35883302726171
 20
136.724303715768
 30
0.0
 11
198.4186203880686
 21
137.9691347055429
 31
0.0
  0
LINE
  5
4DE
  8
0
 62
     0
 10
188.7676305379153
 20
136.26740480441731
 30
0.0
 11
188.85742133461071
 21
136.2832373444941
 31
0.0
  0
LINE
  5
4DF
  8
0
 62
     0
 10
176.3503628713556
 20
134.077905488124
 30
0.0
 11
188.7676305379151
 21
136.26740480441731
 31
0.0
  0
LINE
  5
4E0
  8
0
 62
     0
 10
169.62484142120911
 20
132.89201459712959
 30
0.0
 11
171.34753948605359
 21
133.19577274557599
 31
0.0
  0
LINE
  5
4E1
  8
0
 62
     0
 10
183.3469384530483
 20
137.8907741299322
 30
0.0
 11
193.91946068716879
 21
139.75499505394779
 31
0.0
  0
LINE
  5
4E2
  8
0
 62
     0
 10
168.40880491376541
 20
135.25677814553069
 30
0.0
 11
176.05847959786979
 21
136.60562218598071
 31
0.0
  0
ENDBLK
  5
4E4
  8
0
  0
BLOCK
  8
0
  2
*X5
 70
     1
 10
0.0
 20
0.0
 30
0.0
  3
*X5
  1

  0
LINE
  5
4E6
  8
0
 62
     0
 10
345.53346715349272
 20
23.651555753394931
 30
0.0
 11
345.53346715349272
 21
23.651555753394931
 31
0.0
  0
LINE
  5
4E7
  8
0
 62
     0
 10
352.93992622279347
 20
24.9228803050616
 30
0.0
 11
352.93992622279347
 21
24.9228803050616
 31
0.0
  0
LINE
  5
4E8
  8
0
 62
     0
 10
348.08967353485451
 20
29.367318044881991
 30
0.0
 11
348.08967353485451
 21
29.367318044881991
 31
0.0
  0
LINE
  5
4E9
  8
0
 62
     0
 10
345.04656132717071
 20
32.155816626815607
 30
0.0
 11
345.04656132717071
 21
32.155816626815607
 31
0.0
  0
LINE
  5
4EA
  8
0
 62
     0
 10
360.34638529209428
 20
26.19420485672827
 30
0.0
 11
360.34638529209428
 21
26.19420485672827
 31
0.0
  0
LINE
  5
4EB
  8
0
 62
     0
 10
355.49613260415532
 20
30.63864259654865
 30
0.0
 11
355.49613260415532
 21
30.63864259654865
 31
0.0
  0
LINE
  5
4EC
  8
0
 62
     0
 10
352.45302039647152
 20
33.427141178482287
 30
0.0
 11
352.45302039647152
 21
33.427141178482287
 31
0.0
  0
LINE
  5
4ED
  8
0
 62
     0
 10
345.57090509601738
 20
39.733437971470671
 30
0.0
 11
345.57090509601738
 21
39.733437971470671
 31
0.0
  0
LINE
  5
4EE
  8
0
 62
     0
 10
367.75284436139532
 20
27.465529408394868
 30
0.0
 11
367.75284436139532
 21
27.465529408394868
 31
0.0
  0
LINE
  5
4EF
  8
0
 62
     0
 10
362.90259167345619
 20
31.909967148215259
 30
0.0
 11
362.90259167345619
 21
31.909967148215259
 31
0.0
  0
LINE
  5
4F0
  8
0
 62
     0
 10
359.85947946577238
 20
34.698465730148889
 30
0.0
 11
359.85947946577238
 21
34.698465730148889
 31
0.0
  0
LINE
  5
4F1
  8
0
 62
     0
 10
352.97736416531831
 20
41.004762523137281
 30
0.0
 11
352.97736416531831
 21
41.004762523137281
 31
0.0
  0
LINE
  5
4F2
  8
0
 62
     0
 10
348.12711147737917
 20
45.449200262957639
 30
0.0
 11
348.12711147737917
 21
45.449200262957639
 31
0.0
  0
LINE
  5
4F3
  8
0
 62
     0
 10
345.08399926969548
 20
48.237698844891312
 30
0.0
 11
345.08399926969548
 21
48.237698844891312
 31
0.0
  0
LINE
  5
4F4
  8
0
 62
     0
 10
370.30905074275711
 20
33.181291699881932
 30
0.0
 11
370.30905074275711
 21
33.181291699881932
 31
0.0
  0
LINE
  5
4F5
  8
0
 62
     0
 10
367.2659385350733
 20
35.969790281815577
 30
0.0
 11
367.2659385350733
 21
35.969790281815577
 31
0.0
  0
LINE
  5
4F6
  8
0
 62
     0
 10
360.38382323461917
 20
42.276087074803961
 30
0.0
 11
360.38382323461917
 21
42.276087074803961
 31
0.0
  0
LINE
  5
4F7
  8
0
 62
     0
 10
355.53357054668021
 20
46.720524814624348
 30
0.0
 11
355.53357054668021
 21
46.720524814624348
 31
0.0
  0
LINE
  5
4F8
  8
0
 62
     0
 10
352.4904583389964
 20
49.509023396557971
 30
0.0
 11
352.4904583389964
 21
49.509023396557971
 31
0.0
  0
LINE
  5
4F9
  8
0
 62
     0
 10
345.60834303854227
 20
55.815320189546362
 30
0.0
 11
345.60834303854227
 21
55.815320189546362
 31
0.0
  0
LINE
  5
4FA
  8
0
 62
     0
 10
367.79028230392021
 20
43.547411626470563
 30
0.0
 11
367.79028230392021
 21
43.547411626470563
 31
0.0
  0
LINE
  5
4FB
  8
0
 62
     0
 10
362.94002961598108
 20
47.99184936629095
 30
0.0
 11
362.94002961598108
 21
47.99184936629095
 31
0.0
  0
LINE
  5
4FC
  8
0
 62
     0
 10
359.89691740829733
 20
50.780347948224602
 30
0.0
 11
359.89691740829733
 21
50.780347948224602
 31
0.0
  0
LINE
  5
4FD
  8
0
 62
     0
 10
353.0148021078432
 20
57.086644741212979
 30
0.0
 11
353.0148021078432
 21
57.086644741212979
 31
0.0
  0
LINE
  5
4FE
  8
0
 62
     0
 10
348.16454941990412
 20
61.531082481033359
 30
0.0
 11
348.16454941990412
 21
61.531082481033359
 31
0.0
  0
LINE
  5
4FF
  8
0
 62
     0
 10
345.12143721222031
 20
64.319581062967004
 30
0.0
 11
345.12143721222031
 21
64.319581062967004
 31
0.0
  0
LINE
  5
500
  8
0
 62
     0
 10
370.34648868528183
 20
49.26317391795763
 30
0.0
 11
370.34648868528183
 21
49.26317391795763
 31
0.0
  0
LINE
  5
501
  8
0
 62
     0
 10
367.30337647759802
 20
52.051672499891268
 30
0.0
 11
367.30337647759802
 21
52.051672499891268
 31
0.0
  0
LINE
  5
502
  8
0
 62
     0
 10
360.42126117714412
 20
58.357969292879652
 30
0.0
 11
360.42126117714412
 21
58.357969292879652
 31
0.0
  0
LINE
  5
503
  8
0
 62
     0
 10
355.57100848920493
 20
62.802407032700039
 30
0.0
 11
355.57100848920493
 21
62.802407032700039
 31
0.0
  0
LINE
  5
504
  8
0
 62
     0
 10
352.52789628152129
 20
65.590905614633684
 30
0.0
 11
352.52789628152129
 21
65.590905614633684
 31
0.0
  0
LINE
  5
505
  8
0
 62
     0
 10
345.64578098106711
 20
71.897202407622061
 30
0.0
 11
345.64578098106711
 21
71.897202407622061
 31
0.0
  0
LINE
  5
506
  8
0
 62
     0
 10
367.82772024644493
 20
59.629293844546361
 30
0.0
 11
367.82772024644493
 21
59.629293844546361
 31
0.0
  0
LINE
  5
507
  8
0
 62
     0
 10
362.97746755850579
 20
64.073731584366726
 30
0.0
 11
362.97746755850579
 21
64.073731584366726
 31
0.0
  0
LINE
  5
508
  8
0
 62
     0
 10
359.93435535082199
 20
66.862230166300364
 30
0.0
 11
359.93435535082199
 21
66.862230166300364
 31
0.0
  0
LINE
  5
509
  8
0
 62
     0
 10
353.05224005036803
 20
73.168526959288727
 30
0.0
 11
353.05224005036803
 21
73.168526959288727
 31
0.0
  0
LINE
  5
50A
  8
0
 62
     0
 10
348.20198736242889
 20
77.612964699109128
 30
0.0
 11
348.20198736242889
 21
77.612964699109128
 31
0.0
  0
LINE
  5
50B
  8
0
 62
     0
 10
345.15887515474509
 20
80.401463281042766
 30
0.0
 11
345.15887515474509
 21
80.401463281042766
 31
0.0
  0
LINE
  5
50C
  8
0
 62
     0
 10
370.38392662780677
 20
65.34505613603335
 30
0.0
 11
370.38392662780677
 21
65.34505613603335
 31
0.0
  0
LINE
  5
50D
  8
0
 62
     0
 10
367.34081442012319
 20
68.133554717966973
 30
0.0
 11
367.34081442012319
 21
68.133554717966973
 31
0.0
  0
LINE
  5
50E
  8
0
 62
     0
 10
360.45869911966889
 20
74.43985151095535
 30
0.0
 11
360.45869911966889
 21
74.43985151095535
 31
0.0
  0
LINE
  5
50F
  8
0
 62
     0
 10
355.60844643172982
 20
78.884289250775737
 30
0.0
 11
355.60844643172982
 21
78.884289250775737
 31
0.0
  0
LINE
  5
510
  8
0
 62
     0
 10
352.56533422404601
 20
81.672787832709375
 30
0.0
 11
352.56533422404601
 21
81.672787832709375
 31
0.0
  0
LINE
  5
511
  8
0
 62
     0
 10
345.68321892359182
 20
87.979084625697723
 30
0.0
 11
345.68321892359182
 21
87.979084625697723
 31
0.0
  0
LINE
  5
512
  8
0
 62
     0
 10
367.86515818896959
 20
75.711176062622016
 30
0.0
 11
367.86515818896959
 21
75.711176062622016
 31
0.0
  0
LINE
  5
513
  8
0
 62
     0
 10
363.01490550103068
 20
80.155613802442403
 30
0.0
 11
363.01490550103068
 21
80.155613802442403
 31
0.0
  0
LINE
  5
514
  8
0
 62
     0
 10
359.97179329334688
 20
82.944112384376027
 30
0.0
 11
359.97179329334688
 21
82.944112384376027
 31
0.0
  0
LINE
  5
515
  8
0
 62
     0
 10
353.08967799289292
 20
89.250409177364446
 30
0.0
 11
353.08967799289292
 21
89.250409177364446
 31
0.0
  0
LINE
  5
516
  8
0
 62
     0
 10
348.23942530495378
 20
93.69484691718479
 30
0.0
 11
348.23942530495378
 21
93.69484691718479
 31
0.0
  0
LINE
  5
517
  8
0
 62
     0
 10
345.19631309726998
 20
96.483345499118442
 30
0.0
 11
345.19631309726998
 21
96.483345499118442
 31
0.0
  0
LINE
  5
518
  8
0
 62
     0
 10
370.42136457033172
 20
81.426938354109055
 30
0.0
 11
370.42136457033172
 21
81.426938354109055
 31
0.0
  0
LINE
  5
519
  8
0
 62
     0
 10
367.37825236264791
 20
84.215436936042678
 30
0.0
 11
367.37825236264791
 21
84.215436936042678
 31
0.0
  0
LINE
  5
51A
  8
0
 62
     0
 10
360.49613706219378
 20
90.521733729031084
 30
0.0
 11
360.49613706219378
 21
90.521733729031084
 31
0.0
  0
LINE
  5
51B
  8
0
 62
     0
 10
355.64588437425471
 20
94.966171468851414
 30
0.0
 11
355.64588437425471
 21
94.966171468851414
 31
0.0
  0
LINE
  5
51C
  8
0
 62
     0
 10
352.6027721665709
 20
97.754670050785094
 30
0.0
 11
352.6027721665709
 21
97.754670050785094
 31
0.0
  0
LINE
  5
51D
  8
0
 62
     0
 10
345.72065686611683
 20
104.0609668437735
 30
0.0
 11
345.72065686611683
 21
104.0609668437735
 31
0.0
  0
LINE
  5
51E
  8
0
 62
     0
 10
367.90259613149459
 20
91.793058280697693
 30
0.0
 11
367.90259613149459
 21
91.793058280697693
 31
0.0
  0
LINE
  5
51F
  8
0
 62
     0
 10
363.05234344355563
 20
96.237496020518094
 30
0.0
 11
363.05234344355563
 21
96.237496020518094
 31
0.0
  0
LINE
  5
520
  8
0
 62
     0
 10
360.00923123587182
 20
99.025994602451732
 30
0.0
 11
360.00923123587182
 21
99.025994602451732
 31
0.0
  0
LINE
  5
521
  8
0
 62
     0
 10
353.12711593541781
 20
105.33229139544009
 30
0.0
 11
353.12711593541781
 21
105.33229139544009
 31
0.0
  0
LINE
  5
522
  8
0
 62
     0
 10
348.27686324747867
 20
109.7767291352605
 30
0.0
 11
348.27686324747867
 21
109.7767291352605
 31
0.0
  0
LINE
  5
523
  8
0
 62
     0
 10
345.23375103979492
 20
112.56522771719411
 30
0.0
 11
345.23375103979492
 21
112.56522771719411
 31
0.0
  0
LINE
  5
524
  8
0
 62
     0
 10
370.45880251285649
 20
97.508820572184703
 30
0.0
 11
370.45880251285649
 21
97.508820572184703
 31
0.0
  0
LINE
  5
525
  8
0
 62
     0
 10
367.4156903051728
 20
100.2973191541183
 30
0.0
 11
367.4156903051728
 21
100.2973191541183
 31
0.0
  0
LINE
  5
526
  8
0
 62
     0
 10
360.5335750047185
 20
106.6036159471067
 30
0.0
 11
360.5335750047185
 21
106.6036159471067
 31
0.0
  0
LINE
  5
527
  8
0
 62
     0
 10
355.68332231677948
 20
111.0480536869271
 30
0.0
 11
355.68332231677948
 21
111.0480536869271
 31
0.0
  0
LINE
  5
528
  8
0
 62
     0
 10
352.64021010909568
 20
113.8365522688607
 30
0.0
 11
352.64021010909568
 21
113.8365522688607
 31
0.0
  0
LINE
  5
529
  8
0
 62
     0
 10
345.75809480864172
 20
120.14284906184911
 30
0.0
 11
345.75809480864172
 21
120.14284906184911
 31
0.0
  0
LINE
  5
52A
  8
0
 62
     0
 10
367.94003407401948
 20
107.8749404987734
 30
0.0
 11
367.94003407401948
 21
107.8749404987734
 31
0.0
  0
LINE
  5
52B
  8
0
 62
     0
 10
363.08978138608052
 20
112.3193782385937
 30
0.0
 11
363.08978138608052
 21
112.3193782385937
 31
0.0
  0
LINE
  5
52C
  8
0
 62
     0
 10
360.0466691783966
 20
115.10787682052739
 30
0.0
 11
360.0466691783966
 21
115.10787682052739
 31
0.0
  0
LINE
  5
52D
  8
0
 62
     0
 10
353.16455387794258
 20
121.4141736135158
 30
0.0
 11
353.16455387794258
 21
121.4141736135158
 31
0.0
  0
LINE
  5
52E
  8
0
 62
     0
 10
348.3143011900035
 20
125.8586113533362
 30
0.0
 11
348.3143011900035
 21
125.8586113533362
 31
0.0
  0
LINE
  5
52F
  8
0
 62
     0
 10
345.2711889823197
 20
128.6471099352697
 30
0.0
 11
345.2711889823197
 21
128.6471099352697
 31
0.0
  0
LINE
  5
530
  8
0
 62
     0
 10
370.49624045538133
 20
113.59070279026049
 30
0.0
 11
370.49624045538133
 21
113.59070279026049
 31
0.0
  0
LINE
  5
531
  8
0
 62
     0
 10
367.45312824769752
 20
116.3792013721941
 30
0.0
 11
367.45312824769752
 21
116.3792013721941
 31
0.0
  0
LINE
  5
532
  8
0
 62
     0
 10
360.5710129472435
 20
122.68549816518249
 30
0.0
 11
360.5710129472435
 21
122.68549816518249
 31
0.0
  0
LINE
  5
533
  8
0
 62
     0
 10
355.72076025930443
 20
127.1299359050029
 30
0.0
 11
355.72076025930443
 21
127.1299359050029
 31
0.0
  0
LINE
  5
534
  8
0
 62
     0
 10
352.67764805162062
 20
129.91843448693649
 30
0.0
 11
352.67764805162062
 21
129.91843448693649
 31
0.0
  0
LINE
  5
535
  8
0
 62
     0
 10
345.79553275116649
 20
136.2247312799249
 30
0.0
 11
345.79553275116649
 21
136.2247312799249
 31
0.0
  0
LINE
  5
536
  8
0
 62
     0
 10
367.97747201654443
 20
123.956822716849
 30
0.0
 11
367.97747201654443
 21
123.956822716849
 31
0.0
  0
LINE
  5
537
  8
0
 62
     0
 10
363.12721932860518
 20
128.40126045666941
 30
0.0
 11
363.12721932860518
 21
128.40126045666941
 31
0.0
  0
LINE
  5
538
  8
0
 62
     0
 10
360.08410712092137
 20
131.18975903860311
 30
0.0
 11
360.08410712092137
 21
131.18975903860311
 31
0.0
  0
LINE
  5
539
  8
0
 62
     0
 10
353.20199182046741
 20
137.49605583159149
 30
0.0
 11
353.20199182046741
 21
137.49605583159149
 31
0.0
  0
LINE
  5
53A
  8
0
 62
     0
 10
370.53367839790627
 20
129.67258500833611
 30
0.0
 11
370.53367839790627
 21
129.67258500833611
 31
0.0
  0
LINE
  5
53B
  8
0
 62
     0
 10
367.49056619022241
 20
132.46108359026979
 30
0.0
 11
367.49056619022241
 21
132.46108359026979
 31
0.0
  0
LINE
  5
53C
  8
0
 62
     0
 10
344.00850625830782
 20
24.421511083064559
 30
0.0
 11
344.00850625830782
 21
24.421511083064559
 31
0.0
  0
LINE
  5
53D
  8
0
 62
     0
 10
350.78803601665118
 20
24.135073883430952
 30
0.0
 11
350.78803601665118
 21
24.135073883430952
 31
0.0
  0
LINE
  5
53E
  8
0
 62
     0
 10
357.56756577499482
 20
23.848636683797238
 30
0.0
 11
357.56756577499482
 21
23.848636683797238
 31
0.0
  0
LINE
  5
53F
  8
0
 62
     0
 10
349.21293011277243
 20
29.171126604080879
 30
0.0
 11
349.21293011277243
 21
29.171126604080879
 31
0.0
  0
LINE
  5
540
  8
0
 62
     0
 10
346.53516227231648
 20
30.87705286058204
 30
0.0
 11
346.53516227231648
 21
30.87705286058204
 31
0.0
  0
LINE
  5
541
  8
0
 62
     0
 10
364.3470955333384
 20
23.56219948416361
 30
0.0
 11
364.3470955333384
 21
23.56219948416361
 31
0.0
  0
LINE
  5
542
  8
0
 62
     0
 10
355.9924598711159
 20
28.884689404447251
 30
0.0
 11
355.9924598711159
 21
28.884689404447251
 31
0.0
  0
LINE
  5
543
  8
0
 62
     0
 10
353.31469203066001
 20
30.590615660948419
 30
0.0
 11
353.31469203066001
 21
30.590615660948419
 31
0.0
  0
LINE
  5
544
  8
0
 62
     0
 10
371.12662529168182
 20
23.275762284529922
 30
0.0
 11
371.12662529168182
 21
23.275762284529922
 31
0.0
  0
LINE
  5
545
  8
0
 62
     0
 10
362.77198962945948
 20
28.598252204813559
 30
0.0
 11
362.77198962945948
 21
28.598252204813559
 31
0.0
  0
LINE
  5
546
  8
0
 62
     0
 10
360.0942217890036
 20
30.304178461314731
 30
0.0
 11
360.0942217890036
 21
30.304178461314731
 31
0.0
  0
LINE
  5
547
  8
0
 62
     0
 10
349.00826292951609
 20
37.366713163229569
 30
0.0
 11
349.00826292951609
 21
37.366713163229569
 31
0.0
  0
LINE
  5
548
  8
0
 62
     0
 10
369.5515193878029
 20
28.311815005179941
 30
0.0
 11
369.5515193878029
 21
28.311815005179941
 31
0.0
  0
LINE
  5
549
  8
0
 62
     0
 10
366.87375154734713
 20
30.01774126168111
 30
0.0
 11
366.87375154734713
 21
30.01774126168111
 31
0.0
  0
LINE
  5
54A
  8
0
 62
     0
 10
355.78779268785962
 20
37.080275963595938
 30
0.0
 11
355.78779268785962
 21
37.080275963595938
 31
0.0
  0
LINE
  5
54B
  8
0
 62
     0
 10
347.43315702563717
 20
42.402765883879589
 30
0.0
 11
347.43315702563717
 21
42.402765883879589
 31
0.0
  0
LINE
  5
54C
  8
0
 62
     0
 10
344.75538918518129
 20
44.108692140380747
 30
0.0
 11
344.75538918518129
 21
44.108692140380747
 31
0.0
  0
LINE
  5
54D
  8
0
 62
     0
 10
362.56732244620309
 20
36.793838763962263
 30
0.0
 11
362.56732244620309
 21
36.793838763962263
 31
0.0
  0
LINE
  5
54E
  8
0
 62
     0
 10
354.21268678398081
 20
42.116328684245893
 30
0.0
 11
354.21268678398081
 21
42.116328684245893
 31
0.0
  0
LINE
  5
54F
  8
0
 62
     0
 10
351.53491894352487
 20
43.822254940747072
 30
0.0
 11
351.53491894352487
 21
43.822254940747072
 31
0.0
  0
LINE
  5
550
  8
0
 62
     0
 10
369.34685220454679
 20
36.507401564328553
 30
0.0
 11
369.34685220454679
 21
36.507401564328553
 31
0.0
  0
LINE
  5
551
  8
0
 62
     0
 10
360.9922165423244
 20
41.829891484612197
 30
0.0
 11
360.9922165423244
 21
41.829891484612197
 31
0.0
  0
LINE
  5
552
  8
0
 62
     0
 10
358.31444870186851
 20
43.535817741113362
 30
0.0
 11
358.31444870186851
 21
43.535817741113362
 31
0.0
  0
LINE
  5
553
  8
0
 62
     0
 10
347.22848984238101
 20
50.598352443028183
 30
0.0
 11
347.22848984238101
 21
50.598352443028183
 31
0.0
  0
LINE
  5
554
  8
0
 62
     0
 10
367.77174630066798
 20
41.543454284978573
 30
0.0
 11
367.77174630066798
 21
41.543454284978573
 31
0.0
  0
LINE
  5
555
  8
0
 62
     0
 10
365.09397846021199
 20
43.249380541479731
 30
0.0
 11
365.09397846021199
 21
43.249380541479731
 31
0.0
  0
LINE
  5
556
  8
0
 62
     0
 10
354.00801960072459
 20
50.311915243394559
 30
0.0
 11
354.00801960072459
 21
50.311915243394559
 31
0.0
  0
LINE
  5
557
  8
0
 62
     0
 10
345.65338393850197
 20
55.634405163678217
 30
0.0
 11
345.65338393850197
 21
55.634405163678217
 31
0.0
  0
LINE
  5
558
  8
0
 62
     0
 10
371.87350821855563
 20
42.962943341846
 30
0.0
 11
371.87350821855563
 21
42.962943341846
 31
0.0
  0
LINE
  5
559
  8
0
 62
     0
 10
360.78754935906812
 20
50.02547804376082
 30
0.0
 11
360.78754935906812
 21
50.02547804376082
 31
0.0
  0
LINE
  5
55A
  8
0
 62
     0
 10
352.43291369684567
 20
55.347967964044479
 30
0.0
 11
352.43291369684567
 21
55.347967964044479
 31
0.0
  0
LINE
  5
55B
  8
0
 62
     0
 10
349.75514585638979
 20
57.053894220545637
 30
0.0
 11
349.75514585638979
 21
57.053894220545637
 31
0.0
  0
LINE
  5
55C
  8
0
 62
     0
 10
367.56707911741171
 20
49.73904084412716
 30
0.0
 11
367.56707911741171
 21
49.73904084412716
 31
0.0
  0
LINE
  5
55D
  8
0
 62
     0
 10
359.2124434551892
 20
55.061530764410811
 30
0.0
 11
359.2124434551892
 21
55.061530764410811
 31
0.0
  0
LINE
  5
55E
  8
0
 62
     0
 10
356.53467561473332
 20
56.767457020911969
 30
0.0
 11
356.53467561473332
 21
56.767457020911969
 31
0.0
  0
LINE
  5
55F
  8
0
 62
     0
 10
345.44871675524598
 20
63.829991722826811
 30
0.0
 11
345.44871675524598
 21
63.829991722826811
 31
0.0
  0
LINE
  5
560
  8
0
 62
     0
 10
365.99197321353279
 20
54.775093564777158
 30
0.0
 11
365.99197321353279
 21
54.775093564777158
 31
0.0
  0
LINE
  5
561
  8
0
 62
     0
 10
363.3142053730769
 20
56.481019821278323
 30
0.0
 11
363.3142053730769
 21
56.481019821278323
 31
0.0
  0
LINE
  5
562
  8
0
 62
     0
 10
352.22824651358951
 20
63.543554523193151
 30
0.0
 11
352.22824651358951
 21
63.543554523193151
 31
0.0
  0
LINE
  5
563
  8
0
 62
     0
 10
343.873610851367
 20
68.866044443476795
 30
0.0
 11
343.873610851367
 21
68.866044443476795
 31
0.0
  0
LINE
  5
564
  8
0
 62
     0
 10
372.7715029718762
 20
54.488656365143513
 30
0.0
 11
372.7715029718762
 21
54.488656365143513
 31
0.0
  0
LINE
  5
565
  8
0
 62
     0
 10
370.09373513142037
 20
56.19458262164467
 30
0.0
 11
370.09373513142037
 21
56.19458262164467
 31
0.0
  0
LINE
  5
566
  8
0
 62
     0
 10
359.00777627193293
 20
63.257117323559513
 30
0.0
 11
359.00777627193293
 21
63.257117323559513
 31
0.0
  0
LINE
  5
567
  8
0
 62
     0
 10
350.65314060971048
 20
68.579607243843142
 30
0.0
 11
350.65314060971048
 21
68.579607243843142
 31
0.0
  0
LINE
  5
568
  8
0
 62
     0
 10
347.97537276925448
 20
70.285533500344329
 30
0.0
 11
347.97537276925448
 21
70.285533500344329
 31
0.0
  0
LINE
  5
569
  8
0
 62
     0
 10
365.7873060302764
 20
62.970680123925767
 30
0.0
 11
365.7873060302764
 21
62.970680123925767
 31
0.0
  0
LINE
  5
56A
  8
0
 62
     0
 10
357.432670368054
 20
68.293170044209418
 30
0.0
 11
357.432670368054
 21
68.293170044209418
 31
0.0
  0
LINE
  5
56B
  8
0
 62
     0
 10
354.75490252759801
 20
69.99909630071059
 30
0.0
 11
354.75490252759801
 21
69.99909630071059
 31
0.0
  0
LINE
  5
56C
  8
0
 62
     0
 10
343.66894366811073
 20
77.061631002625404
 30
0.0
 11
343.66894366811073
 21
77.061631002625404
 31
0.0
  0
LINE
  5
56D
  8
0
 62
     0
 10
372.56683578862021
 20
62.6842429242921
 30
0.0
 11
372.56683578862021
 21
62.6842429242921
 31
0.0
  0
LINE
  5
56E
  8
0
 62
     0
 10
364.2122001263977
 20
68.006732844575779
 30
0.0
 11
364.2122001263977
 21
68.006732844575779
 31
0.0
  0
LINE
  5
56F
  8
0
 62
     0
 10
361.53443228594182
 20
69.712659101076923
 30
0.0
 11
361.53443228594182
 21
69.712659101076923
 31
0.0
  0
LINE
  5
570
  8
0
 62
     0
 10
350.44847342645431
 20
76.775193802991765
 30
0.0
 11
350.44847342645431
 21
76.775193802991765
 31
0.0
  0
LINE
  5
571
  8
0
 62
     0
 10
370.99172988474118
 20
67.72029564494207
 30
0.0
 11
370.99172988474118
 21
67.72029564494207
 31
0.0
  0
LINE
  5
572
  8
0
 62
     0
 10
368.31396204428529
 20
69.426221901443256
 30
0.0
 11
368.31396204428529
 21
69.426221901443256
 31
0.0
  0
LINE
  5
573
  8
0
 62
     0
 10
357.2280031847979
 20
76.488756603358084
 30
0.0
 11
357.2280031847979
 21
76.488756603358084
 31
0.0
  0
LINE
  5
574
  8
0
 62
     0
 10
348.87336752257539
 20
81.811246523641728
 30
0.0
 11
348.87336752257539
 21
81.811246523641728
 31
0.0
  0
LINE
  5
575
  8
0
 62
     0
 10
346.19559968211951
 20
83.517172780142886
 30
0.0
 11
346.19559968211951
 21
83.517172780142886
 31
0.0
  0
LINE
  5
576
  8
0
 62
     0
 10
364.00753294314143
 20
76.202319403724445
 30
0.0
 11
364.00753294314143
 21
76.202319403724445
 31
0.0
  0
LINE
  5
577
  8
0
 62
     0
 10
355.65289728091898
 20
81.524809324008061
 30
0.0
 11
355.65289728091898
 21
81.524809324008061
 31
0.0
  0
LINE
  5
578
  8
0
 62
     0
 10
352.97512944046298
 20
83.230735580509247
 30
0.0
 11
352.97512944046298
 21
83.230735580509247
 31
0.0
  0
LINE
  5
579
  8
0
 62
     0
 10
370.78706270148513
 20
75.915882204090693
 30
0.0
 11
370.78706270148513
 21
75.915882204090693
 31
0.0
  0
LINE
  5
57A
  8
0
 62
     0
 10
362.43242703926262
 20
81.238372124374337
 30
0.0
 11
362.43242703926262
 21
81.238372124374337
 31
0.0
  0
LINE
  5
57B
  8
0
 62
     0
 10
359.75465919880668
 20
82.94429838087548
 30
0.0
 11
359.75465919880668
 21
82.94429838087548
 31
0.0
  0
LINE
  5
57C
  8
0
 62
     0
 10
348.66870033931917
 20
90.006833082790337
 30
0.0
 11
348.66870033931917
 21
90.006833082790337
 31
0.0
  0
LINE
  5
57D
  8
0
 62
     0
 10
369.21195679760598
 20
80.951934924740783
 30
0.0
 11
369.21195679760598
 21
80.951934924740783
 31
0.0
  0
LINE
  5
57E
  8
0
 62
     0
 10
366.53418895715009
 20
82.657861181241955
 30
0.0
 11
366.53418895715009
 21
82.657861181241955
 31
0.0
  0
LINE
  5
57F
  8
0
 62
     0
 10
355.44823009766259
 20
89.720395883156783
 30
0.0
 11
355.44823009766259
 21
89.720395883156783
 31
0.0
  0
LINE
  5
580
  8
0
 62
     0
 10
347.0935944354402
 20
95.042885803440413
 30
0.0
 11
347.0935944354402
 21
95.042885803440413
 31
0.0
  0
LINE
  5
581
  8
0
 62
     0
 10
344.41582659498431
 20
96.748812059941557
 30
0.0
 11
344.41582659498431
 21
96.748812059941557
 31
0.0
  0
LINE
  5
582
  8
0
 62
     0
 10
362.2277598560064
 20
89.433958683523002
 30
0.0
 11
362.2277598560064
 21
89.433958683523002
 31
0.0
  0
LINE
  5
583
  8
0
 62
     0
 10
353.87312419378389
 20
94.756448603806675
 30
0.0
 11
353.87312419378389
 21
94.756448603806675
 31
0.0
  0
LINE
  5
584
  8
0
 62
     0
 10
351.19535635332801
 20
96.462374860307847
 30
0.0
 11
351.19535635332801
 21
96.462374860307847
 31
0.0
  0
LINE
  5
585
  8
0
 62
     0
 10
369.00728961434982
 20
89.14752148388942
 30
0.0
 11
369.00728961434982
 21
89.14752148388942
 31
0.0
  0
LINE
  5
586
  8
0
 62
     0
 10
360.65265395212731
 20
94.470011404173064
 30
0.0
 11
360.65265395212731
 21
94.470011404173064
 31
0.0
  0
LINE
  5
587
  8
0
 62
     0
 10
357.97488611167159
 20
96.175937660674222
 30
0.0
 11
357.97488611167159
 21
96.175937660674222
 31
0.0
  0
LINE
  5
588
  8
0
 62
     0
 10
346.88892725218398
 20
103.23847236258899
 30
0.0
 11
346.88892725218398
 21
103.23847236258899
 31
0.0
  0
LINE
  5
589
  8
0
 62
     0
 10
367.43218371047089
 20
94.183574204539426
 30
0.0
 11
367.43218371047089
 21
94.183574204539426
 31
0.0
  0
LINE
  5
58A
  8
0
 62
     0
 10
364.75441587001501
 20
95.889500461040569
 30
0.0
 11
364.75441587001501
 21
95.889500461040569
 31
0.0
  0
LINE
  5
58B
  8
0
 62
     0
 10
353.66845701052767
 20
102.9520351629554
 30
0.0
 11
353.66845701052767
 21
102.9520351629554
 31
0.0
  0
LINE
  5
58C
  8
0
 62
     0
 10
345.31382134830511
 20
108.274525083239
 30
0.0
 11
345.31382134830511
 21
108.274525083239
 31
0.0
  0
LINE
  5
58D
  8
0
 62
     0
 10
371.53394562835871
 20
95.603063261406845
 30
0.0
 11
371.53394562835871
 21
95.603063261406845
 31
0.0
  0
LINE
  5
58E
  8
0
 62
     0
 10
360.44798676887109
 20
102.6655979633216
 30
0.0
 11
360.44798676887109
 21
102.6655979633216
 31
0.0
  0
LINE
  5
58F
  8
0
 62
     0
 10
352.09335110664881
 20
107.9880878836053
 30
0.0
 11
352.09335110664881
 21
107.9880878836053
 31
0.0
  0
LINE
  5
590
  8
0
 62
     0
 10
349.41558326619293
 20
109.6940141401065
 30
0.0
 11
349.41558326619293
 21
109.6940141401065
 31
0.0
  0
LINE
  5
591
  8
0
 62
     0
 10
367.22751652721462
 20
102.37916076368801
 30
0.0
 11
367.22751652721462
 21
102.37916076368801
 31
0.0
  0
LINE
  5
592
  8
0
 62
     0
 10
358.87288086499223
 20
107.70165068397171
 30
0.0
 11
358.87288086499223
 21
107.70165068397171
 31
0.0
  0
LINE
  5
593
  8
0
 62
     0
 10
356.19511302453628
 20
109.40757694047279
 30
0.0
 11
356.19511302453628
 21
109.40757694047279
 31
0.0
  0
LINE
  5
594
  8
0
 62
     0
 10
345.10915416504878
 20
116.47011164238771
 30
0.0
 11
345.10915416504878
 21
116.47011164238771
 31
0.0
  0
LINE
  5
595
  8
0
 62
     0
 10
365.65241062333592
 20
107.4152134843379
 30
0.0
 11
365.65241062333592
 21
107.4152134843379
 31
0.0
  0
LINE
  5
596
  8
0
 62
     0
 10
362.97464278287998
 20
109.1211397408391
 30
0.0
 11
362.97464278287998
 21
109.1211397408391
 31
0.0
  0
LINE
  5
597
  8
0
 62
     0
 10
351.88868392339248
 20
116.1836744427539
 30
0.0
 11
351.88868392339248
 21
116.1836744427539
 31
0.0
  0
LINE
  5
598
  8
0
 62
     0
 10
343.53404826117003
 20
121.5061643630376
 30
0.0
 11
343.53404826117003
 21
121.5061643630376
 31
0.0
  0
LINE
  5
599
  8
0
 62
     0
 10
372.4319403816794
 20
107.1287762847043
 30
0.0
 11
372.4319403816794
 21
107.1287762847043
 31
0.0
  0
LINE
  5
59A
  8
0
 62
     0
 10
369.75417254122351
 20
108.8347025412055
 30
0.0
 11
369.75417254122351
 21
108.8347025412055
 31
0.0
  0
LINE
  5
59B
  8
0
 62
     0
 10
358.66821368173612
 20
115.8972372431203
 30
0.0
 11
358.66821368173612
 21
115.8972372431203
 31
0.0
  0
LINE
  5
59C
  8
0
 62
     0
 10
350.31357801951361
 20
121.2197271634039
 30
0.0
 11
350.31357801951361
 21
121.2197271634039
 31
0.0
  0
LINE
  5
59D
  8
0
 62
     0
 10
347.63581017905778
 20
122.9256534199051
 30
0.0
 11
347.63581017905778
 21
122.9256534199051
 31
0.0
  0
LINE
  5
59E
  8
0
 62
     0
 10
365.44774344007971
 20
115.61080004348661
 30
0.0
 11
365.44774344007971
 21
115.61080004348661
 31
0.0
  0
LINE
  5
59F
  8
0
 62
     0
 10
357.0931077778572
 20
120.93328996377021
 30
0.0
 11
357.0931077778572
 21
120.93328996377021
 31
0.0
  0
LINE
  5
5A0
  8
0
 62
     0
 10
354.41533993740131
 20
122.63921622027139
 30
0.0
 11
354.41533993740131
 21
122.63921622027139
 31
0.0
  0
LINE
  5
5A1
  8
0
 62
     0
 10
343.32938107791392
 20
129.70175092218619
 30
0.0
 11
343.32938107791392
 21
129.70175092218619
 31
0.0
  0
LINE
  5
5A2
  8
0
 62
     0
 10
372.22727319842318
 20
115.324362843853
 30
0.0
 11
372.22727319842318
 21
115.324362843853
 31
0.0
  0
LINE
  5
5A3
  8
0
 62
     0
 10
363.87263753620061
 20
120.6468527641366
 30
0.0
 11
363.87263753620061
 21
120.6468527641366
 31
0.0
  0
LINE
  5
5A4
  8
0
 62
     0
 10
361.19486969574479
 20
122.3527790206378
 30
0.0
 11
361.19486969574479
 21
122.3527790206378
 31
0.0
  0
LINE
  5
5A5
  8
0
 62
     0
 10
350.10891083625722
 20
129.41531372255261
 30
0.0
 11
350.10891083625722
 21
129.41531372255261
 31
0.0
  0
LINE
  5
5A6
  8
0
 62
     0
 10
370.65216729454431
 20
120.3604155645029
 30
0.0
 11
370.65216729454431
 21
120.3604155645029
 31
0.0
  0
LINE
  5
5A7
  8
0
 62
     0
 10
367.97439945408843
 20
122.066341821004
 30
0.0
 11
367.97439945408843
 21
122.066341821004
 31
0.0
  0
LINE
  5
5A8
  8
0
 62
     0
 10
356.88844059460092
 20
129.12887652291889
 30
0.0
 11
356.88844059460092
 21
129.12887652291889
 31
0.0
  0
LINE
  5
5A9
  8
0
 62
     0
 10
348.53380493237847
 20
134.45136644320249
 30
0.0
 11
348.53380493237847
 21
134.45136644320249
 31
0.0
  0
LINE
  5
5AA
  8
0
 62
     0
 10
345.85603709192247
 20
136.15729269970359
 30
0.0
 11
345.85603709192247
 21
136.15729269970359
 31
0.0
  0
LINE
  5
5AB
  8
0
 62
     0
 10
363.66797035294439
 20
128.8424393232853
 30
0.0
 11
363.66797035294439
 21
128.8424393232853
 31
0.0
  0
LINE
  5
5AC
  8
0
 62
     0
 10
355.313334690722
 20
134.16492924356891
 30
0.0
 11
355.313334690722
 21
134.16492924356891
 31
0.0
  0
LINE
  5
5AD
  8
0
 62
     0
 10
352.635566850266
 20
135.87085550007001
 30
0.0
 11
352.635566850266
 21
135.87085550007001
 31
0.0
  0
LINE
  5
5AE
  8
0
 62
     0
 10
370.44750011128809
 20
128.55600212365161
 30
0.0
 11
370.44750011128809
 21
128.55600212365161
 31
0.0
  0
LINE
  5
5AF
  8
0
 62
     0
 10
362.09286444906559
 20
133.87849204393521
 30
0.0
 11
362.09286444906559
 21
133.87849204393521
 31
0.0
  0
LINE
  5
5B0
  8
0
 62
     0
 10
359.41509660860987
 20
135.5844183004364
 30
0.0
 11
359.41509660860987
 21
135.5844183004364
 31
0.0
  0
LINE
  5
5B1
  8
0
 62
     0
 10
368.87239420740917
 20
133.59205484430149
 30
0.0
 11
368.87239420740917
 21
133.59205484430149
 31
0.0
  0
LINE
  5
5B2
  8
0
 62
     0
 10
366.1946263669534
 20
135.2979811008027
 30
0.0
 11
366.1946263669534
 21
135.2979811008027
 31
0.0
  0
LINE
  5
5B3
  8
0
 62
     0
 10
368.6922725730314
 20
22.79230414594851
 30
0.0
 11
368.6922725730314
 21
22.79230414594851
 31
0.0
  0
LINE
  5
5B4
  8
0
 62
     0
 10
363.88237697256261
 20
22.159069377012159
 30
0.0
 11
363.88237697256261
 21
22.159069377012159
 31
0.0
  0
LINE
  5
5B5
  8
0
 62
     0
 10
372.03325569854678
 20
27.801332886854478
 30
0.0
 11
372.03325569854678
 21
27.801332886854478
 31
0.0
  0
LINE
  5
5B6
  8
0
 62
     0
 10
367.22336009807788
 20
27.16809811791812
 30
0.0
 11
367.22336009807788
 21
27.16809811791812
 31
0.0
  0
LINE
  5
5B7
  8
0
 62
     0
 10
364.04404428886733
 20
26.749533251016469
 30
0.0
 11
364.04404428886733
 21
26.749533251016469
 31
0.0
  0
LINE
  5
5B8
  8
0
 62
     0
 10
356.02335450483952
 20
25.693589408575491
 30
0.0
 11
356.02335450483952
 21
25.693589408575491
 31
0.0
  0
LINE
  5
5B9
  8
0
 62
     0
 10
351.2134589043705
 20
25.060354639639112
 30
0.0
 11
351.2134589043705
 21
25.060354639639112
 31
0.0
  0
LINE
  5
5BA
  8
0
 62
     0
 10
348.03414309516012
 20
24.641789772737472
 30
0.0
 11
348.03414309516012
 21
24.641789772737472
 31
0.0
  0
LINE
  5
5BB
  8
0
 62
     0
 10
370.5643432235932
 20
32.177126858824103
 30
0.0
 11
370.5643432235932
 21
32.177126858824103
 31
0.0
  0
LINE
  5
5BC
  8
0
 62
     0
 10
367.38502741438271
 20
31.758561991922448
 30
0.0
 11
367.38502741438271
 21
31.758561991922448
 31
0.0
  0
LINE
  5
5BD
  8
0
 62
     0
 10
359.36433763035478
 20
30.702618149481449
 30
0.0
 11
359.36433763035478
 21
30.702618149481449
 31
0.0
  0
LINE
  5
5BE
  8
0
 62
     0
 10
354.55444202988571
 20
30.069383380545101
 30
0.0
 11
354.55444202988571
 21
30.069383380545101
 31
0.0
  0
LINE
  5
5BF
  8
0
 62
     0
 10
351.37512622067533
 20
29.650818513643451
 30
0.0
 11
351.37512622067533
 21
29.650818513643451
 31
0.0
  0
LINE
  5
5C0
  8
0
 62
     0
 10
343.35443643664729
 20
28.594874671202451
 30
0.0
 11
343.35443643664729
 21
28.594874671202451
 31
0.0
  0
LINE
  5
5C1
  8
0
 62
     0
 10
370.72601053989803
 20
36.76759073282841
 30
0.0
 11
370.72601053989803
 21
36.76759073282841
 31
0.0
  0
LINE
  5
5C2
  8
0
 62
     0
 10
362.70532075586999
 20
35.711646890387421
 30
0.0
 11
362.70532075586999
 21
35.711646890387421
 31
0.0
  0
LINE
  5
5C3
  8
0
 62
     0
 10
357.89542515540109
 20
35.078412121451052
 30
0.0
 11
357.89542515540109
 21
35.078412121451052
 31
0.0
  0
LINE
  5
5C4
  8
0
 62
     0
 10
354.71610934619071
 20
34.659847254549412
 30
0.0
 11
354.71610934619071
 21
34.659847254549412
 31
0.0
  0
LINE
  5
5C5
  8
0
 62
     0
 10
346.69541956216278
 20
33.603903412108423
 30
0.0
 11
346.69541956216278
 21
33.603903412108423
 31
0.0
  0
LINE
  5
5C6
  8
0
 62
     0
 10
366.04630388138531
 20
40.720675631293361
 30
0.0
 11
366.04630388138531
 21
40.720675631293361
 31
0.0
  0
LINE
  5
5C7
  8
0
 62
     0
 10
361.23640828091618
 20
40.087440862357028
 30
0.0
 11
361.23640828091618
 21
40.087440862357028
 31
0.0
  0
LINE
  5
5C8
  8
0
 62
     0
 10
358.05709247170591
 20
39.668875995455387
 30
0.0
 11
358.05709247170591
 21
39.668875995455387
 31
0.0
  0
LINE
  5
5C9
  8
0
 62
     0
 10
350.03640268767782
 20
38.612932153014391
 30
0.0
 11
350.03640268767782
 21
38.612932153014391
 31
0.0
  0
LINE
  5
5CA
  8
0
 62
     0
 10
345.22650708720909
 20
37.97969738407803
 30
0.0
 11
345.22650708720909
 21
37.97969738407803
 31
0.0
  0
LINE
  5
5CB
  8
0
 62
     0
 10
369.38728700690058
 20
45.729704372199393
 30
0.0
 11
369.38728700690058
 21
45.729704372199393
 31
0.0
  0
LINE
  5
5CC
  8
0
 62
     0
 10
364.57739140643167
 20
45.096469603263017
 30
0.0
 11
364.57739140643167
 21
45.096469603263017
 31
0.0
  0
LINE
  5
5CD
  8
0
 62
     0
 10
361.39807559722129
 20
44.67790473636137
 30
0.0
 11
361.39807559722129
 21
44.67790473636137
 31
0.0
  0
LINE
  5
5CE
  8
0
 62
     0
 10
353.37738581319331
 20
43.621960893920352
 30
0.0
 11
353.37738581319331
 21
43.621960893920352
 31
0.0
  0
LINE
  5
5CF
  8
0
 62
     0
 10
348.56749021272429
 20
42.988726124983977
 30
0.0
 11
348.56749021272429
 21
42.988726124983977
 31
0.0
  0
LINE
  5
5D0
  8
0
 62
     0
 10
345.38817440351397
 20
42.570161258082351
 30
0.0
 11
345.38817440351397
 21
42.570161258082351
 31
0.0
  0
LINE
  5
5D1
  8
0
 62
     0
 10
372.72827013241579
 20
50.738733113105347
 30
0.0
 11
372.72827013241579
 21
50.738733113105347
 31
0.0
  0
LINE
  5
5D2
  8
0
 62
     0
 10
367.91837453194688
 20
50.105498344168979
 30
0.0
 11
367.91837453194688
 21
50.105498344168979
 31
0.0
  0
LINE
  5
5D3
  8
0
 62
     0
 10
364.7390587227365
 20
49.686933477267331
 30
0.0
 11
364.7390587227365
 21
49.686933477267331
 31
0.0
  0
LINE
  5
5D4
  8
0
 62
     0
 10
356.71836893870852
 20
48.630989634826342
 30
0.0
 11
356.71836893870852
 21
48.630989634826342
 31
0.0
  0
LINE
  5
5D5
  8
0
 62
     0
 10
351.90847333823962
 20
47.997754865889959
 30
0.0
 11
351.90847333823962
 21
47.997754865889959
 31
0.0
  0
LINE
  5
5D6
  8
0
 62
     0
 10
348.72915752902918
 20
47.579189998988333
 30
0.0
 11
348.72915752902918
 21
47.579189998988333
 31
0.0
  0
LINE
  5
5D7
  8
0
 62
     0
 10
371.25935765746232
 20
55.11452708507494
 30
0.0
 11
371.25935765746232
 21
55.11452708507494
 31
0.0
  0
LINE
  5
5D8
  8
0
 62
     0
 10
368.08004184825182
 20
54.695962218173293
 30
0.0
 11
368.08004184825182
 21
54.695962218173293
 31
0.0
  0
LINE
  5
5D9
  8
0
 62
     0
 10
360.0593520642239
 20
53.640018375732318
 30
0.0
 11
360.0593520642239
 21
53.640018375732318
 31
0.0
  0
LINE
  5
5DA
  8
0
 62
     0
 10
355.24945646375488
 20
53.006783606795942
 30
0.0
 11
355.24945646375488
 21
53.006783606795942
 31
0.0
  0
LINE
  5
5DB
  8
0
 62
     0
 10
352.0701406545445
 20
52.588218739894288
 30
0.0
 11
352.0701406545445
 21
52.588218739894288
 31
0.0
  0
LINE
  5
5DC
  8
0
 62
     0
 10
344.04945087051652
 20
51.532274897453291
 30
0.0
 11
344.04945087051652
 21
51.532274897453291
 31
0.0
  0
LINE
  5
5DD
  8
0
 62
     0
 10
371.42102497376709
 20
59.704990959079282
 30
0.0
 11
371.42102497376709
 21
59.704990959079282
 31
0.0
  0
LINE
  5
5DE
  8
0
 62
     0
 10
363.40033518973911
 20
58.6490471166383
 30
0.0
 11
363.40033518973911
 21
58.6490471166383
 31
0.0
  0
LINE
  5
5DF
  8
0
 62
     0
 10
358.59043958927009
 20
58.015812347701939
 30
0.0
 11
358.59043958927009
 21
58.015812347701939
 31
0.0
  0
LINE
  5
5E0
  8
0
 62
     0
 10
355.41112378005971
 20
57.597247480800277
 30
0.0
 11
355.41112378005971
 21
57.597247480800277
 31
0.0
  0
LINE
  5
5E1
  8
0
 62
     0
 10
347.39043399603167
 20
56.541303638359281
 30
0.0
 11
347.39043399603167
 21
56.541303638359281
 31
0.0
  0
LINE
  5
5E2
  8
0
 62
     0
 10
366.74131831525438
 20
63.658075857544262
 30
0.0
 11
366.74131831525438
 21
63.658075857544262
 31
0.0
  0
LINE
  5
5E3
  8
0
 62
     0
 10
361.93142271478553
 20
63.0248410886079
 30
0.0
 11
361.93142271478553
 21
63.0248410886079
 31
0.0
  0
LINE
  5
5E4
  8
0
 62
     0
 10
358.75210690557498
 20
62.606276221706231
 30
0.0
 11
358.75210690557498
 21
62.606276221706231
 31
0.0
  0
LINE
  5
5E5
  8
0
 62
     0
 10
350.731417121547
 20
61.550332379265257
 30
0.0
 11
350.731417121547
 21
61.550332379265257
 31
0.0
  0
LINE
  5
5E6
  8
0
 62
     0
 10
345.92152152107798
 20
60.917097610328888
 30
0.0
 11
345.92152152107798
 21
60.917097610328888
 31
0.0
  0
LINE
  5
5E7
  8
0
 62
     0
 10
370.0823014407697
 20
68.667104598450265
 30
0.0
 11
370.0823014407697
 21
68.667104598450265
 31
0.0
  0
LINE
  5
5E8
  8
0
 62
     0
 10
365.27240584030091
 20
68.033869829513904
 30
0.0
 11
365.27240584030091
 21
68.033869829513904
 31
0.0
  0
LINE
  5
5E9
  8
0
 62
     0
 10
362.0930900310903
 20
67.615304962612257
 30
0.0
 11
362.0930900310903
 21
67.615304962612257
 31
0.0
  0
LINE
  5
5EA
  8
0
 62
     0
 10
354.07240024706232
 20
66.55936112017126
 30
0.0
 11
354.07240024706232
 21
66.55936112017126
 31
0.0
  0
LINE
  5
5EB
  8
0
 62
     0
 10
349.26250464659341
 20
65.926126351234899
 30
0.0
 11
349.26250464659341
 21
65.926126351234899
 31
0.0
  0
LINE
  5
5EC
  8
0
 62
     0
 10
346.08318883738281
 20
65.507561484333252
 30
0.0
 11
346.08318883738281
 21
65.507561484333252
 31
0.0
  0
LINE
  5
5ED
  8
0
 62
     0
 10
368.61338896581611
 20
73.042898570419851
 30
0.0
 11
368.61338896581611
 21
73.042898570419851
 31
0.0
  0
LINE
  5
5EE
  8
0
 62
     0
 10
365.43407315660562
 20
72.624333703518204
 30
0.0
 11
365.43407315660562
 21
72.624333703518204
 31
0.0
  0
LINE
  5
5EF
  8
0
 62
     0
 10
357.41338337257758
 20
71.568389861077208
 30
0.0
 11
357.41338337257758
 21
71.568389861077208
 31
0.0
  0
LINE
  5
5F0
  8
0
 62
     0
 10
352.60348777210868
 20
70.935155092140846
 30
0.0
 11
352.60348777210868
 21
70.935155092140846
 31
0.0
  0
LINE
  5
5F1
  8
0
 62
     0
 10
349.42417196289819
 20
70.516590225239199
 30
0.0
 11
349.42417196289819
 21
70.516590225239199
 31
0.0
  0
LINE
  5
5F2
  8
0
 62
     0
 10
371.95437209133138
 20
78.051927311325841
 30
0.0
 11
371.95437209133138
 21
78.051927311325841
 31
0.0
  0
LINE
  5
5F3
  8
0
 62
     0
 10
368.77505628212089
 20
77.633362444424193
 30
0.0
 11
368.77505628212089
 21
77.633362444424193
 31
0.0
  0
LINE
  5
5F4
  8
0
 62
     0
 10
360.75436649809291
 20
76.577418601983183
 30
0.0
 11
360.75436649809291
 21
76.577418601983183
 31
0.0
  0
LINE
  5
5F5
  8
0
 62
     0
 10
355.944470897624
 20
75.944183833046765
 30
0.0
 11
355.944470897624
 21
75.944183833046765
 31
0.0
  0
LINE
  5
5F6
  8
0
 62
     0
 10
352.76515508841339
 20
75.525618966145188
 30
0.0
 11
352.76515508841339
 21
75.525618966145188
 31
0.0
  0
LINE
  5
5F7
  8
0
 62
     0
 10
344.74446530438553
 20
74.469675123704192
 30
0.0
 11
344.74446530438553
 21
74.469675123704192
 31
0.0
  0
LINE
  5
5F8
  8
0
 62
     0
 10
372.11603940763621
 20
82.642391185330183
 30
0.0
 11
372.11603940763621
 21
82.642391185330183
 31
0.0
  0
LINE
  5
5F9
  8
0
 62
     0
 10
364.09534962360817
 20
81.586447342889187
 30
0.0
 11
364.09534962360817
 21
81.586447342889187
 31
0.0
  0
LINE
  5
5FA
  8
0
 62
     0
 10
359.28545402313932
 20
80.953212573952825
 30
0.0
 11
359.28545402313932
 21
80.953212573952825
 31
0.0
  0
LINE
  5
5FB
  8
0
 62
     0
 10
356.10613821392877
 20
80.534647707051164
 30
0.0
 11
356.10613821392877
 21
80.534647707051164
 31
0.0
  0
LINE
  5
5FC
  8
0
 62
     0
 10
348.08544842990079
 20
79.478703864610139
 30
0.0
 11
348.08544842990079
 21
79.478703864610139
 31
0.0
  0
LINE
  5
5FD
  8
0
 62
     0
 10
343.27555282943189
 20
78.845469095673806
 30
0.0
 11
343.27555282943189
 21
78.845469095673806
 31
0.0
  0
LINE
  5
5FE
  8
0
 62
     0
 10
367.43633274912349
 20
86.595476083795148
 30
0.0
 11
367.43633274912349
 21
86.595476083795148
 31
0.0
  0
LINE
  5
5FF
  8
0
 62
     0
 10
362.62643714865447
 20
85.962241314858744
 30
0.0
 11
362.62643714865447
 21
85.962241314858744
 31
0.0
  0
LINE
  5
600
  8
0
 62
     0
 10
359.44712133944398
 20
85.543676447957125
 30
0.0
 11
359.44712133944398
 21
85.543676447957125
 31
0.0
  0
LINE
  5
601
  8
0
 62
     0
 10
351.42643155541612
 20
84.487732605516143
 30
0.0
 11
351.42643155541612
 21
84.487732605516143
 31
0.0
  0
LINE
  5
602
  8
0
 62
     0
 10
346.61653595494721
 20
83.854497836579782
 30
0.0
 11
346.61653595494721
 21
83.854497836579782
 31
0.0
  0
LINE
  5
603
  8
0
 62
     0
 10
343.4372201457366
 20
83.43593296967812
 30
0.0
 11
343.4372201457366
 21
83.43593296967812
 31
0.0
  0
LINE
  5
604
  8
0
 62
     0
 10
370.77731587463882
 20
91.604504824701095
 30
0.0
 11
370.77731587463882
 21
91.604504824701095
 31
0.0
  0
LINE
  5
605
  8
0
 62
     0
 10
365.96742027416991
 20
90.971270055764734
 30
0.0
 11
365.96742027416991
 21
90.971270055764734
 31
0.0
  0
LINE
  5
606
  8
0
 62
     0
 10
362.78810446495942
 20
90.552705188863087
 30
0.0
 11
362.78810446495942
 21
90.552705188863087
 31
0.0
  0
LINE
  5
607
  8
0
 62
     0
 10
354.76741468093138
 20
89.496761346422105
 30
0.0
 11
354.76741468093138
 21
89.496761346422105
 31
0.0
  0
LINE
  5
608
  8
0
 62
     0
 10
349.95751908046248
 20
88.8635265774857
 30
0.0
 11
349.95751908046248
 21
88.8635265774857
 31
0.0
  0
LINE
  5
609
  8
0
 62
     0
 10
346.77820327125198
 20
88.444961710584067
 30
0.0
 11
346.77820327125198
 21
88.444961710584067
 31
0.0
  0
LINE
  5
60A
  8
0
 62
     0
 10
369.30840339968518
 20
95.980298796670709
 30
0.0
 11
369.30840339968518
 21
95.980298796670709
 31
0.0
  0
LINE
  5
60B
  8
0
 62
     0
 10
366.12908759047463
 20
95.561733929769076
 30
0.0
 11
366.12908759047463
 21
95.561733929769076
 31
0.0
  0
LINE
  5
60C
  8
0
 62
     0
 10
358.1083978064467
 20
94.505790087328066
 30
0.0
 11
358.1083978064467
 21
94.505790087328066
 31
0.0
  0
LINE
  5
60D
  8
0
 62
     0
 10
353.2985022059778
 20
93.872555318391704
 30
0.0
 11
353.2985022059778
 21
93.872555318391704
 31
0.0
  0
LINE
  5
60E
  8
0
 62
     0
 10
350.11918639676742
 20
93.453990451490043
 30
0.0
 11
350.11918639676742
 21
93.453990451490043
 31
0.0
  0
LINE
  5
60F
  8
0
 62
     0
 10
372.6493865252005
 20
100.9893275375767
 30
0.0
 11
372.6493865252005
 21
100.9893275375767
 31
0.0
  0
LINE
  5
610
  8
0
 62
     0
 10
369.47007071599
 20
100.57076267067499
 30
0.0
 11
369.47007071599
 21
100.57076267067499
 31
0.0
  0
LINE
  5
611
  8
0
 62
     0
 10
361.44938093196203
 20
99.514818828234041
 30
0.0
 11
361.44938093196203
 21
99.514818828234041
 31
0.0
  0
LINE
  5
612
  8
0
 62
     0
 10
356.63948533149318
 20
98.881584059297694
 30
0.0
 11
356.63948533149318
 21
98.881584059297694
 31
0.0
  0
LINE
  5
613
  8
0
 62
     0
 10
353.46016952228263
 20
98.463019192396047
 30
0.0
 11
353.46016952228263
 21
98.463019192396047
 31
0.0
  0
LINE
  5
614
  8
0
 62
     0
 10
345.43947973825448
 20
97.407075349955065
 30
0.0
 11
345.43947973825448
 21
97.407075349955065
 31
0.0
  0
LINE
  5
615
  8
0
 62
     0
 10
372.81105384150521
 20
105.579791411581
 30
0.0
 11
372.81105384150521
 21
105.579791411581
 31
0.0
  0
LINE
  5
616
  8
0
 62
     0
 10
364.79036405747718
 20
104.52384756914
 30
0.0
 11
364.79036405747718
 21
104.52384756914
 31
0.0
  0
LINE
  5
617
  8
0
 62
     0
 10
359.98046845700839
 20
103.8906128002037
 30
0.0
 11
359.98046845700839
 21
103.8906128002037
 31
0.0
  0
LINE
  5
618
  8
0
 62
     0
 10
356.80115264779778
 20
103.47204793330199
 30
0.0
 11
356.80115264779778
 21
103.47204793330199
 31
0.0
  0
LINE
  5
619
  8
0
 62
     0
 10
348.7804628637698
 20
102.416104090861
 30
0.0
 11
348.7804628637698
 21
102.416104090861
 31
0.0
  0
LINE
  5
61A
  8
0
 62
     0
 10
343.97056726330101
 20
101.78286932192469
 30
0.0
 11
343.97056726330101
 21
101.78286932192469
 31
0.0
  0
LINE
  5
61B
  8
0
 62
     0
 10
368.13134718299261
 20
109.53287631004601
 30
0.0
 11
368.13134718299261
 21
109.53287631004601
 31
0.0
  0
LINE
  5
61C
  8
0
 62
     0
 10
363.32145158252359
 20
108.8996415411096
 30
0.0
 11
363.32145158252359
 21
108.8996415411096
 31
0.0
  0
LINE
  5
61D
  8
0
 62
     0
 10
360.14213577331321
 20
108.481076674208
 30
0.0
 11
360.14213577331321
 21
108.481076674208
 31
0.0
  0
LINE
  5
61E
  8
0
 62
     0
 10
352.12144598928518
 20
107.425132831767
 30
0.0
 11
352.12144598928518
 21
107.425132831767
 31
0.0
  0
LINE
  5
61F
  8
0
 62
     0
 10
347.31155038881622
 20
106.7918980628306
 30
0.0
 11
347.31155038881622
 21
106.7918980628306
 31
0.0
  0
LINE
  5
620
  8
0
 62
     0
 10
344.13223457960572
 20
106.37333319592901
 30
0.0
 11
344.13223457960572
 21
106.37333319592901
 31
0.0
  0
LINE
  5
621
  8
0
 62
     0
 10
371.47233030850788
 20
114.541905050952
 30
0.0
 11
371.47233030850788
 21
114.541905050952
 31
0.0
  0
LINE
  5
622
  8
0
 62
     0
 10
366.6624347080388
 20
113.90867028201561
 30
0.0
 11
366.6624347080388
 21
113.90867028201561
 31
0.0
  0
LINE
  5
623
  8
0
 62
     0
 10
363.48311889882848
 20
113.490105415114
 30
0.0
 11
363.48311889882848
 21
113.490105415114
 31
0.0
  0
LINE
  5
624
  8
0
 62
     0
 10
355.4624291148005
 20
112.43416157267301
 30
0.0
 11
355.4624291148005
 21
112.43416157267301
 31
0.0
  0
LINE
  5
625
  8
0
 62
     0
 10
350.65253351433159
 20
111.8009268037366
 30
0.0
 11
350.65253351433159
 21
111.8009268037366
 31
0.0
  0
LINE
  5
626
  8
0
 62
     0
 10
347.47321770512121
 20
111.382361936835
 30
0.0
 11
347.47321770512121
 21
111.382361936835
 31
0.0
  0
LINE
  5
627
  8
0
 62
     0
 10
370.00341783355418
 20
118.9176990229215
 30
0.0
 11
370.00341783355418
 21
118.9176990229215
 31
0.0
  0
LINE
  5
628
  8
0
 62
     0
 10
366.8241020243438
 20
118.49913415601991
 30
0.0
 11
366.8241020243438
 21
118.49913415601991
 31
0.0
  0
LINE
  5
629
  8
0
 62
     0
 10
358.80341224031582
 20
117.4431903135789
 30
0.0
 11
358.80341224031582
 21
117.4431903135789
 31
0.0
  0
LINE
  5
62A
  8
0
 62
     0
 10
353.99351663984692
 20
116.80995554464251
 30
0.0
 11
353.99351663984692
 21
116.80995554464251
 31
0.0
  0
LINE
  5
62B
  8
0
 62
     0
 10
350.81420083063642
 20
116.3913906777409
 30
0.0
 11
350.81420083063642
 21
116.3913906777409
 31
0.0
  0
LINE
  5
62C
  8
0
 62
     0
 10
370.16508514985918
 20
123.5081628969259
 30
0.0
 11
370.16508514985918
 21
123.5081628969259
 31
0.0
  0
LINE
  5
62D
  8
0
 62
     0
 10
362.1443953658312
 20
122.4522190544849
 30
0.0
 11
362.1443953658312
 21
122.4522190544849
 31
0.0
  0
LINE
  5
62E
  8
0
 62
     0
 10
357.33449976536218
 20
121.8189842855485
 30
0.0
 11
357.33449976536218
 21
121.8189842855485
 31
0.0
  0
LINE
  5
62F
  8
0
 62
     0
 10
354.15518395615157
 20
121.40041941864691
 30
0.0
 11
354.15518395615157
 21
121.40041941864691
 31
0.0
  0
LINE
  5
630
  8
0
 62
     0
 10
346.13449417212371
 20
120.34447557620589
 30
0.0
 11
346.13449417212371
 21
120.34447557620589
 31
0.0
  0
LINE
  5
631
  8
0
 62
     0
 10
365.48537849134641
 20
127.4612477953909
 30
0.0
 11
365.48537849134641
 21
127.4612477953909
 31
0.0
  0
LINE
  5
632
  8
0
 62
     0
 10
360.67548289087739
 20
126.8280130264545
 30
0.0
 11
360.67548289087739
 21
126.8280130264545
 31
0.0
  0
LINE
  5
633
  8
0
 62
     0
 10
357.49616708166701
 20
126.40944815955289
 30
0.0
 11
357.49616708166701
 21
126.40944815955289
 31
0.0
  0
LINE
  5
634
  8
0
 62
     0
 10
349.47547729763892
 20
125.3535043171119
 30
0.0
 11
349.47547729763892
 21
125.3535043171119
 31
0.0
  0
LINE
  5
635
  8
0
 62
     0
 10
344.66558169717013
 20
124.72026954817549
 30
0.0
 11
344.66558169717013
 21
124.72026954817549
 31
0.0
  0
LINE
  5
636
  8
0
 62
     0
 10
368.82636161686167
 20
132.47027653629681
 30
0.0
 11
368.82636161686167
 21
132.47027653629681
 31
0.0
  0
LINE
  5
637
  8
0
 62
     0
 10
364.01646601639283
 20
131.83704176736049
 30
0.0
 11
364.01646601639283
 21
131.83704176736049
 31
0.0
  0
LINE
  5
638
  8
0
 62
     0
 10
360.83715020718228
 20
131.41847690045881
 30
0.0
 11
360.83715020718228
 21
131.41847690045881
 31
0.0
  0
LINE
  5
639
  8
0
 62
     0
 10
352.8164604231543
 20
130.36253305801779
 30
0.0
 11
352.8164604231543
 21
130.36253305801779
 31
0.0
  0
LINE
  5
63A
  8
0
 62
     0
 10
348.00656482268539
 20
129.7292982890815
 30
0.0
 11
348.00656482268539
 21
129.7292982890815
 31
0.0
  0
LINE
  5
63B
  8
0
 62
     0
 10
344.8272490134749
 20
129.31073342217979
 30
0.0
 11
344.8272490134749
 21
129.31073342217979
 31
0.0
  0
LINE
  5
63C
  8
0
 62
     0
 10
356.15744354866968
 20
135.37156179892381
 30
0.0
 11
356.15744354866968
 21
135.37156179892381
 31
0.0
  0
LINE
  5
63D
  8
0
 62
     0
 10
351.34754794820083
 20
134.73832702998749
 30
0.0
 11
351.34754794820083
 21
134.73832702998749
 31
0.0
  0
LINE
  5
63E
  8
0
 62
     0
 10
348.16823213899011
 20
134.31976216308581
 30
0.0
 11
348.16823213899011
 21
134.31976216308581
 31
0.0
  0
LINE
  5
63F
  8
0
 62
     0
 10
354.68853107371598
 20
139.74735577089339
 30
0.0
 11
354.68853107371598
 21
139.74735577089339
 31
0.0
  0
LINE
  5
640
  8
0
 62
     0
 10
351.50921526450537
 20
139.3287909039918
 30
0.0
 11
351.50921526450537
 21
139.3287909039918
 31
0.0
  0
LINE
  5
641
  8
0
 62
     0
 10
343.48852548047739
 20
138.27284706155081
 30
0.0
 11
343.48852548047739
 21
138.27284706155081
 31
0.0
  0
LINE
  5
642
  8
0
 62
     0
 10
370.34477528027293
 20
23.934146409349641
 30
0.0
 11
370.34477528027293
 21
23.934146409349641
 31
0.0
  0
LINE
  5
643
  8
0
 62
     0
 10
370.49920544280258
 20
28.161898353007292
 30
0.0
 11
370.49920544280258
 21
28.161898353007292
 31
0.0
  0
LINE
  5
644
  8
0
 62
     0
 10
363.92992244385511
 20
23.121110216243451
 30
0.0
 11
363.92992244385511
 21
23.121110216243451
 31
0.0
  0
LINE
  5
645
  8
0
 62
     0
 10
370.65363560533223
 20
32.389650296664939
 30
0.0
 11
370.65363560533223
 21
32.389650296664939
 31
0.0
  0
LINE
  5
646
  8
0
 62
     0
 10
364.08435260638458
 20
27.34886215990112
 30
0.0
 11
364.08435260638458
 21
27.34886215990112
 31
0.0
  0
LINE
  5
647
  8
0
 62
     0
 10
357.40927593950931
 20
22.226895686578999
 30
0.0
 11
357.40927593950931
 21
22.226895686578999
 31
0.0
  0
LINE
  5
648
  8
0
 62
     0
 10
370.80806576786182
 20
36.617402240322633
 30
0.0
 11
370.80806576786182
 21
36.617402240322633
 31
0.0
  0
LINE
  5
649
  8
0
 62
     0
 10
364.2387827689144
 20
31.576614103558821
 30
0.0
 11
364.2387827689144
 21
31.576614103558821
 31
0.0
  0
LINE
  5
64A
  8
0
 62
     0
 10
357.56370610203891
 20
26.4546476302367
 30
0.0
 11
357.56370610203891
 21
26.4546476302367
 31
0.0
  0
LINE
  5
64B
  8
0
 62
     0
 10
370.96249593039153
 20
40.84515418398027
 30
0.0
 11
370.96249593039153
 21
40.84515418398027
 31
0.0
  0
LINE
  5
64C
  8
0
 62
     0
 10
364.39321293144388
 20
35.804366047216469
 30
0.0
 11
364.39321293144388
 21
35.804366047216469
 31
0.0
  0
LINE
  5
64D
  8
0
 62
     0
 10
357.7181362645685
 20
30.68239957389434
 30
0.0
 11
357.7181362645685
 21
30.68239957389434
 31
0.0
  0
LINE
  5
64E
  8
0
 62
     0
 10
350.96749269203042
 20
25.50244857445913
 30
0.0
 11
350.96749269203042
 21
25.50244857445913
 31
0.0
  0
LINE
  5
64F
  8
0
 62
     0
 10
371.11692609292078
 20
45.072906127637907
 30
0.0
 11
371.11692609292078
 21
45.072906127637907
 31
0.0
  0
LINE
  5
650
  8
0
 62
     0
 10
364.54764309397348
 20
40.032117990874077
 30
0.0
 11
364.54764309397348
 21
40.032117990874077
 31
0.0
  0
LINE
  5
651
  8
0
 62
     0
 10
357.87256642709809
 20
34.910151517551988
 30
0.0
 11
357.87256642709809
 21
34.910151517551988
 31
0.0
  0
LINE
  5
652
  8
0
 62
     0
 10
351.12192285455978
 20
29.730200518116781
 30
0.0
 11
351.12192285455978
 21
29.730200518116781
 31
0.0
  0
LINE
  5
653
  8
0
 62
     0
 10
344.55263985561243
 20
24.68941238135297
 30
0.0
 11
344.55263985561243
 21
24.68941238135297
 31
0.0
  0
LINE
  5
654
  8
0
 62
     0
 10
371.2713562554506
 20
49.300658071295551
 30
0.0
 11
371.2713562554506
 21
49.300658071295551
 31
0.0
  0
LINE
  5
655
  8
0
 62
     0
 10
364.70207325650313
 20
44.259869934531743
 30
0.0
 11
364.70207325650313
 21
44.259869934531743
 31
0.0
  0
LINE
  5
656
  8
0
 62
     0
 10
358.02699658962757
 20
39.137903461209632
 30
0.0
 11
358.02699658962757
 21
39.137903461209632
 31
0.0
  0
LINE
  5
657
  8
0
 62
     0
 10
351.27635301708938
 20
33.957952461774418
 30
0.0
 11
351.27635301708938
 21
33.957952461774418
 31
0.0
  0
LINE
  5
658
  8
0
 62
     0
 10
344.70707001814202
 20
28.91716432501061
 30
0.0
 11
344.70707001814202
 21
28.91716432501061
 31
0.0
  0
LINE
  5
659
  8
0
 62
     0
 10
371.42578641798002
 20
53.528410014953216
 30
0.0
 11
371.42578641798002
 21
53.528410014953216
 31
0.0
  0
LINE
  5
65A
  8
0
 62
     0
 10
364.85650341903261
 20
48.487621878189422
 30
0.0
 11
364.85650341903261
 21
48.487621878189422
 31
0.0
  0
LINE
  5
65B
  8
0
 62
     0
 10
358.18142675215722
 20
43.365655404867297
 30
0.0
 11
358.18142675215722
 21
43.365655404867297
 31
0.0
  0
LINE
  5
65C
  8
0
 62
     0
 10
351.43078317961908
 20
38.185704405432098
 30
0.0
 11
351.43078317961908
 21
38.185704405432098
 31
0.0
  0
LINE
  5
65D
  8
0
 62
     0
 10
344.86150018067138
 20
33.144916268668283
 30
0.0
 11
344.86150018067138
 21
33.144916268668283
 31
0.0
  0
LINE
  5
65E
  8
0
 62
     0
 10
371.58021658050973
 20
57.756161958610903
 30
0.0
 11
371.58021658050973
 21
57.756161958610903
 31
0.0
  0
LINE
  5
65F
  8
0
 62
     0
 10
365.0109335815622
 20
52.715373821847102
 30
0.0
 11
365.0109335815622
 21
52.715373821847102
 31
0.0
  0
LINE
  5
660
  8
0
 62
     0
 10
358.33585691468687
 20
47.593407348524963
 30
0.0
 11
358.33585691468687
 21
47.593407348524963
 31
0.0
  0
LINE
  5
661
  8
0
 62
     0
 10
351.58521334214868
 20
42.413456349089749
 30
0.0
 11
351.58521334214868
 21
42.413456349089749
 31
0.0
  0
LINE
  5
662
  8
0
 62
     0
 10
345.01593034320121
 20
37.372668212325948
 30
0.0
 11
345.01593034320121
 21
37.372668212325948
 31
0.0
  0
LINE
  5
663
  8
0
 62
     0
 10
371.73464674303932
 20
61.98391390226849
 30
0.0
 11
371.73464674303932
 21
61.98391390226849
 31
0.0
  0
LINE
  5
664
  8
0
 62
     0
 10
365.16536374409168
 20
56.943125765504682
 30
0.0
 11
365.16536374409168
 21
56.943125765504682
 31
0.0
  0
LINE
  5
665
  8
0
 62
     0
 10
358.49028707721641
 20
51.821159292182571
 30
0.0
 11
358.49028707721641
 21
51.821159292182571
 31
0.0
  0
LINE
  5
666
  8
0
 62
     0
 10
351.73964350467833
 20
46.641208292747358
 30
0.0
 11
351.73964350467833
 21
46.641208292747358
 31
0.0
  0
LINE
  5
667
  8
0
 62
     0
 10
345.17036050573068
 20
41.600420155983556
 30
0.0
 11
345.17036050573068
 21
41.600420155983556
 31
0.0
  0
LINE
  5
668
  8
0
 62
     0
 10
371.8890769055688
 20
66.211665845926206
 30
0.0
 11
371.8890769055688
 21
66.211665845926206
 31
0.0
  0
LINE
  5
669
  8
0
 62
     0
 10
365.3197939066215
 20
61.17087770916239
 30
0.0
 11
365.3197939066215
 21
61.17087770916239
 31
0.0
  0
LINE
  5
66A
  8
0
 62
     0
 10
358.644717239746
 20
56.048911235840251
 30
0.0
 11
358.644717239746
 21
56.048911235840251
 31
0.0
  0
LINE
  5
66B
  8
0
 62
     0
 10
351.89407366720792
 20
50.868960236405051
 30
0.0
 11
351.89407366720792
 21
50.868960236405051
 31
0.0
  0
LINE
  5
66C
  8
0
 62
     0
 10
345.32479066826028
 20
45.82817209964125
 30
0.0
 11
345.32479066826028
 21
45.82817209964125
 31
0.0
  0
LINE
  5
66D
  8
0
 62
     0
 10
372.04350706809851
 20
70.439417789583871
 30
0.0
 11
372.04350706809851
 21
70.439417789583871
 31
0.0
  0
LINE
  5
66E
  8
0
 62
     0
 10
365.47422406915092
 20
65.398629652820063
 30
0.0
 11
365.47422406915092
 21
65.398629652820063
 31
0.0
  0
LINE
  5
66F
  8
0
 62
     0
 10
358.79914740227571
 20
60.276663179497938
 30
0.0
 11
358.79914740227571
 21
60.276663179497938
 31
0.0
  0
LINE
  5
670
  8
0
 62
     0
 10
352.0485038297374
 20
55.096712180062717
 30
0.0
 11
352.0485038297374
 21
55.096712180062717
 31
0.0
  0
LINE
  5
671
  8
0
 62
     0
 10
345.4792208307901
 20
50.055924043298923
 30
0.0
 11
345.4792208307901
 21
50.055924043298923
 31
0.0
  0
LINE
  5
672
  8
0
 62
     0
 10
372.1979372306281
 20
74.667169733241479
 30
0.0
 11
372.1979372306281
 21
74.667169733241479
 31
0.0
  0
LINE
  5
673
  8
0
 62
     0
 10
365.62865423168063
 20
69.626381596477685
 30
0.0
 11
365.62865423168063
 21
69.626381596477685
 31
0.0
  0
LINE
  5
674
  8
0
 62
     0
 10
358.9535775648053
 20
64.504415123155553
 30
0.0
 11
358.9535775648053
 21
64.504415123155553
 31
0.0
  0
LINE
  5
675
  8
0
 62
     0
 10
352.20293399226722
 20
59.324464123720368
 30
0.0
 11
352.20293399226722
 21
59.324464123720368
 31
0.0
  0
LINE
  5
676
  8
0
 62
     0
 10
345.63365099331952
 20
54.28367598695656
 30
0.0
 11
345.63365099331952
 21
54.28367598695656
 31
0.0
  0
LINE
  5
677
  8
0
 62
     0
 10
372.35236739315758
 20
78.894921676899187
 30
0.0
 11
372.35236739315758
 21
78.894921676899187
 31
0.0
  0
LINE
  5
678
  8
0
 62
     0
 10
365.78308439421028
 20
73.854133540135393
 30
0.0
 11
365.78308439421028
 21
73.854133540135393
 31
0.0
  0
LINE
  5
679
  8
0
 62
     0
 10
359.10800772733478
 20
68.732167066813261
 30
0.0
 11
359.10800772733478
 21
68.732167066813261
 31
0.0
  0
LINE
  5
67A
  8
0
 62
     0
 10
352.3573641547967
 20
63.552216067378062
 30
0.0
 11
352.3573641547967
 21
63.552216067378062
 31
0.0
  0
LINE
  5
67B
  8
0
 62
     0
 10
345.78808115584923
 20
58.511427930614261
 30
0.0
 11
345.78808115584923
 21
58.511427930614261
 31
0.0
  0
LINE
  5
67C
  8
0
 62
     0
 10
372.5067975556874
 20
83.12267362055681
 30
0.0
 11
372.5067975556874
 21
83.12267362055681
 31
0.0
  0
LINE
  5
67D
  8
0
 62
     0
 10
365.93751455673981
 20
78.08188548379303
 30
0.0
 11
365.93751455673981
 21
78.08188548379303
 31
0.0
  0
LINE
  5
67E
  8
0
 62
     0
 10
359.26243788986437
 20
72.959919010470912
 30
0.0
 11
359.26243788986437
 21
72.959919010470912
 31
0.0
  0
LINE
  5
67F
  8
0
 62
     0
 10
352.51179431732629
 20
67.779968011035706
 30
0.0
 11
352.51179431732629
 21
67.779968011035706
 31
0.0
  0
LINE
  5
680
  8
0
 62
     0
 10
345.94251131837882
 20
62.73917987427189
 30
0.0
 11
345.94251131837882
 21
62.73917987427189
 31
0.0
  0
LINE
  5
681
  8
0
 62
     0
 10
372.66122771821688
 20
87.350425564214433
 30
0.0
 11
372.66122771821688
 21
87.350425564214433
 31
0.0
  0
LINE
  5
682
  8
0
 62
     0
 10
366.09194471926941
 20
82.309637427450653
 30
0.0
 11
366.09194471926941
 21
82.309637427450653
 31
0.0
  0
LINE
  5
683
  8
0
 62
     0
 10
359.41686805239402
 20
77.187670954128563
 30
0.0
 11
359.41686805239402
 21
77.187670954128563
 31
0.0
  0
LINE
  5
684
  8
0
 62
     0
 10
352.66622447985588
 20
72.007719954693343
 30
0.0
 11
352.66622447985588
 21
72.007719954693343
 31
0.0
  0
LINE
  5
685
  8
0
 62
     0
 10
346.0969414809083
 20
66.966931817929535
 30
0.0
 11
346.0969414809083
 21
66.966931817929535
 31
0.0
  0
LINE
  5
686
  8
0
 62
     0
 10
372.81565788074653
 20
91.578177507872084
 30
0.0
 11
372.81565788074653
 21
91.578177507872084
 31
0.0
  0
LINE
  5
687
  8
0
 62
     0
 10
366.246374881799
 20
86.537389371108262
 30
0.0
 11
366.246374881799
 21
86.537389371108262
 31
0.0
  0
LINE
  5
688
  8
0
 62
     0
 10
359.5712982149235
 20
81.415422897786186
 30
0.0
 11
359.5712982149235
 21
81.415422897786186
 31
0.0
  0
LINE
  5
689
  8
0
 62
     0
 10
352.82065464238542
 20
76.235471898350909
 30
0.0
 11
352.82065464238542
 21
76.235471898350909
 31
0.0
  0
LINE
  5
68A
  8
0
 62
     0
 10
346.25137164343789
 20
71.194683761587157
 30
0.0
 11
346.25137164343789
 21
71.194683761587157
 31
0.0
  0
LINE
  5
68B
  8
0
 62
     0
 10
372.97008804327612
 20
95.805929451529792
 30
0.0
 11
372.97008804327612
 21
95.805929451529792
 31
0.0
  0
LINE
  5
68C
  8
0
 62
     0
 10
366.40080504432848
 20
90.765141314765984
 30
0.0
 11
366.40080504432848
 21
90.765141314765984
 31
0.0
  0
LINE
  5
68D
  8
0
 62
     0
 10
359.72572837745321
 20
85.643174841443866
 30
0.0
 11
359.72572837745321
 21
85.643174841443866
 31
0.0
  0
LINE
  5
68E
  8
0
 62
     0
 10
352.97508480491501
 20
80.463223842008674
 30
0.0
 11
352.97508480491501
 21
80.463223842008674
 31
0.0
  0
LINE
  5
68F
  8
0
 62
     0
 10
346.40580180596749
 20
75.422435705244851
 30
0.0
 11
346.40580180596749
 21
75.422435705244851
 31
0.0
  0
LINE
  5
690
  8
0
 62
     0
 10
373.1245182058056
 20
100.0336813951874
 30
0.0
 11
373.1245182058056
 21
100.0336813951874
 31
0.0
  0
LINE
  5
691
  8
0
 62
     0
 10
366.55523520685807
 20
94.992893258423635
 30
0.0
 11
366.55523520685807
 21
94.992893258423635
 31
0.0
  0
LINE
  5
692
  8
0
 62
     0
 10
359.88015853998269
 20
89.870926785101489
 30
0.0
 11
359.88015853998269
 21
89.870926785101489
 31
0.0
  0
LINE
  5
693
  8
0
 62
     0
 10
353.12951496744449
 20
84.690975785666296
 30
0.0
 11
353.12951496744449
 21
84.690975785666296
 31
0.0
  0
LINE
  5
694
  8
0
 62
     0
 10
346.56023196849708
 20
79.650187648902502
 30
0.0
 11
346.56023196849708
 21
79.650187648902502
 31
0.0
  0
LINE
  5
695
  8
0
 62
     0
 10
366.70966536938772
 20
99.220645202081315
 30
0.0
 11
366.70966536938772
 21
99.220645202081315
 31
0.0
  0
LINE
  5
696
  8
0
 62
     0
 10
360.03458870251228
 20
94.098678728759211
 30
0.0
 11
360.03458870251228
 21
94.098678728759211
 31
0.0
  0
LINE
  5
697
  8
0
 62
     0
 10
353.2839451299742
 20
88.918727729323962
 30
0.0
 11
353.2839451299742
 21
88.918727729323962
 31
0.0
  0
LINE
  5
698
  8
0
 62
     0
 10
346.7146621310269
 20
83.877939592560125
 30
0.0
 11
346.7146621310269
 21
83.877939592560125
 31
0.0
  0
LINE
  5
699
  8
0
 62
     0
 10
366.86409553191743
 20
103.44839714573899
 30
0.0
 11
366.86409553191743
 21
103.44839714573899
 31
0.0
  0
LINE
  5
69A
  8
0
 62
     0
 10
360.1890188650421
 20
98.326430672416862
 30
0.0
 11
360.1890188650421
 21
98.326430672416862
 31
0.0
  0
LINE
  5
69B
  8
0
 62
     0
 10
353.43837529250368
 20
93.146479672981641
 30
0.0
 11
353.43837529250368
 21
93.146479672981641
 31
0.0
  0
LINE
  5
69C
  8
0
 62
     0
 10
346.86909229355632
 20
88.105691536217805
 30
0.0
 11
346.86909229355632
 21
88.105691536217805
 31
0.0
  0
LINE
  5
69D
  8
0
 62
     0
 10
367.01852569444679
 20
107.6761490893966
 30
0.0
 11
367.01852569444679
 21
107.6761490893966
 31
0.0
  0
LINE
  5
69E
  8
0
 62
     0
 10
360.34344902757152
 20
102.5541826160745
 30
0.0
 11
360.34344902757152
 21
102.5541826160745
 31
0.0
  0
LINE
  5
69F
  8
0
 62
     0
 10
353.59280545503327
 20
97.374231616639292
 30
0.0
 11
353.59280545503327
 21
97.374231616639292
 31
0.0
  0
LINE
  5
6A0
  8
0
 62
     0
 10
347.0235224560858
 20
92.333443479875427
 30
0.0
 11
347.0235224560858
 21
92.333443479875427
 31
0.0
  0
LINE
  5
6A1
  8
0
 62
     0
 10
367.17295585697661
 20
111.9039010330542
 30
0.0
 11
367.17295585697661
 21
111.9039010330542
 31
0.0
  0
LINE
  5
6A2
  8
0
 62
     0
 10
360.49787919010117
 20
106.78193455973209
 30
0.0
 11
360.49787919010117
 21
106.78193455973209
 31
0.0
  0
LINE
  5
6A3
  8
0
 62
     0
 10
353.74723561756292
 20
101.6019835602969
 30
0.0
 11
353.74723561756292
 21
101.6019835602969
 31
0.0
  0
LINE
  5
6A4
  8
0
 62
     0
 10
347.17795261861551
 20
96.561195423533164
 30
0.0
 11
347.17795261861551
 21
96.561195423533164
 31
0.0
  0
LINE
  5
6A5
  8
0
 62
     0
 10
367.32738601950609
 20
116.13165297671191
 30
0.0
 11
367.32738601950609
 21
116.13165297671191
 31
0.0
  0
LINE
  5
6A6
  8
0
 62
     0
 10
360.65230935263082
 20
111.0096865033898
 30
0.0
 11
360.65230935263082
 21
111.0096865033898
 31
0.0
  0
LINE
  5
6A7
  8
0
 62
     0
 10
353.90166578009263
 20
105.82973550395459
 30
0.0
 11
353.90166578009263
 21
105.82973550395459
 31
0.0
  0
LINE
  5
6A8
  8
0
 62
     0
 10
347.3323827811451
 20
100.7889473671908
 30
0.0
 11
347.3323827811451
 21
100.7889473671908
 31
0.0
  0
LINE
  5
6A9
  8
0
 62
     0
 10
367.48181618203569
 20
120.3594049203695
 30
0.0
 11
367.48181618203569
 21
120.3594049203695
 31
0.0
  0
LINE
  5
6AA
  8
0
 62
     0
 10
360.8067395151603
 20
115.2374384470474
 30
0.0
 11
360.8067395151603
 21
115.2374384470474
 31
0.0
  0
LINE
  5
6AB
  8
0
 62
     0
 10
354.05609594262222
 20
110.0574874476122
 30
0.0
 11
354.05609594262222
 21
110.0574874476122
 31
0.0
  0
LINE
  5
6AC
  8
0
 62
     0
 10
347.48681294367452
 20
105.0166993108484
 30
0.0
 11
347.48681294367452
 21
105.0166993108484
 31
0.0
  0
LINE
  5
6AD
  8
0
 62
     0
 10
367.63624634456528
 20
124.58715686402719
 30
0.0
 11
367.63624634456528
 21
124.58715686402719
 31
0.0
  0
LINE
  5
6AE
  8
0
 62
     0
 10
360.9611696776899
 20
119.4651903907051
 30
0.0
 11
360.9611696776899
 21
119.4651903907051
 31
0.0
  0
LINE
  5
6AF
  8
0
 62
     0
 10
354.21052610515181
 20
114.2852393912699
 30
0.0
 11
354.21052610515181
 21
114.2852393912699
 31
0.0
  0
LINE
  5
6B0
  8
0
 62
     0
 10
347.64124310620417
 20
109.2444512545061
 30
0.0
 11
347.64124310620417
 21
109.2444512545061
 31
0.0
  0
LINE
  5
6B1
  8
0
 62
     0
 10
367.79067650709487
 20
128.8149088076849
 30
0.0
 11
367.79067650709487
 21
128.8149088076849
 31
0.0
  0
LINE
  5
6B2
  8
0
 62
     0
 10
361.11559984021932
 20
123.6929423343628
 30
0.0
 11
361.11559984021932
 21
123.6929423343628
 31
0.0
  0
LINE
  5
6B3
  8
0
 62
     0
 10
354.36495626768129
 20
118.51299133492761
 30
0.0
 11
354.36495626768129
 21
118.51299133492761
 31
0.0
  0
LINE
  5
6B4
  8
0
 62
     0
 10
347.79567326873382
 20
113.4722031981638
 30
0.0
 11
347.79567326873382
 21
113.4722031981638
 31
0.0
  0
LINE
  5
6B5
  8
0
 62
     0
 10
367.94510666962452
 20
133.04266075134251
 30
0.0
 11
367.94510666962452
 21
133.04266075134251
 31
0.0
  0
LINE
  5
6B6
  8
0
 62
     0
 10
361.27003000274908
 20
127.92069427802041
 30
0.0
 11
361.27003000274908
 21
127.92069427802041
 31
0.0
  0
LINE
  5
6B7
  8
0
 62
     0
 10
354.51938643021111
 20
122.7407432785852
 30
0.0
 11
354.51938643021111
 21
122.7407432785852
 31
0.0
  0
LINE
  5
6B8
  8
0
 62
     0
 10
347.9501034312637
 20
117.69995514182141
 30
0.0
 11
347.9501034312637
 21
117.69995514182141
 31
0.0
  0
LINE
  5
6B9
  8
0
 62
     0
 10
361.42446016527862
 20
132.148446221678
 30
0.0
 11
361.42446016527862
 21
132.148446221678
 31
0.0
  0
LINE
  5
6BA
  8
0
 62
     0
 10
354.67381659274048
 20
126.96849522224279
 30
0.0
 11
354.67381659274048
 21
126.96849522224279
 31
0.0
  0
LINE
  5
6BB
  8
0
 62
     0
 10
348.10453359379301
 20
121.927707085479
 30
0.0
 11
348.10453359379301
 21
121.927707085479
 31
0.0
  0
LINE
  5
6BC
  8
0
 62
     0
 10
361.57889032780832
 20
136.37619816533569
 30
0.0
 11
361.57889032780832
 21
136.37619816533569
 31
0.0
  0
LINE
  5
6BD
  8
0
 62
     0
 10
354.82824675527007
 20
131.1962471659005
 30
0.0
 11
354.82824675527007
 21
131.1962471659005
 31
0.0
  0
LINE
  5
6BE
  8
0
 62
     0
 10
348.25896375632283
 20
126.15545902913669
 30
0.0
 11
348.25896375632283
 21
126.15545902913669
 31
0.0
  0
LINE
  5
6BF
  8
0
 62
     0
 10
354.98267691779972
 20
135.4239991095582
 30
0.0
 11
354.98267691779972
 21
135.4239991095582
 31
0.0
  0
LINE
  5
6C0
  8
0
 62
     0
 10
348.41339391885208
 20
130.3832109727943
 30
0.0
 11
348.41339391885208
 21
130.3832109727943
 31
0.0
  0
LINE
  5
6C1
  8
0
 62
     0
 10
355.13710708032932
 20
139.6517510532158
 30
0.0
 11
355.13710708032932
 21
139.6517510532158
 31
0.0
  0
LINE
  5
6C2
  8
0
 62
     0
 10
348.56782408138179
 20
134.610962916452
 30
0.0
 11
348.56782408138179
 21
134.610962916452
 31
0.0
  0
LINE
  5
6C3
  8
0
 62
     0
 10
348.72225424391138
 20
138.83871486010969
 30
0.0
 11
348.72225424391138
 21
138.83871486010969
 31
0.0
  0
LINE
  5
6C4
  8
0
 62
     0
 10
371.49874400538079
 20
25.381516482481789
 30
0.0
 11
371.7562531912979
 21
26.148966330464209
 31
0.0
  0
LINE
  5
6C5
  8
0
 62
     0
 10
373.18836039090132
 20
58.122966299835348
 30
0.0
 11
373.18947791058508
 21
58.126296823010293
 31
0.0
  0
LINE
  5
6C6
  8
0
 62
     0
 10
370.09825015989458
 20
48.913568124046257
 30
0.0
 11
370.35575934581192
 21
49.681017972028677
 31
0.0
  0
LINE
  5
6C7
  8
0
 62
     0
 10
367.00813992888789
 20
39.704169948257153
 30
0.0
 11
367.26564911480523
 21
40.471619796239573
 31
0.0
  0
LINE
  5
6C8
  8
0
 62
     0
 10
363.91802969788108
 20
30.494771772468049
 30
0.0
 11
364.17553888379842
 21
31.262221620450479
 31
0.0
  0
LINE
  5
6C9
  8
0
 62
     0
 10
361.0677045645881
 20
22.000000673508332
 30
0.0
 11
361.08542865279179
 21
22.052823444661371
 31
0.0
  0
LINE
  5
6CA
  8
0
 62
     0
 10
371.78786654541511
 20
81.655017941399834
 30
0.0
 11
372.0453757313324
 21
82.422467789382225
 31
0.0
  0
LINE
  5
6CB
  8
0
 62
     0
 10
368.69775631440831
 20
72.445619765610701
 30
0.0
 11
368.95526550032559
 21
73.21306961359312
 31
0.0
  0
LINE
  5
6CC
  8
0
 62
     0
 10
365.60764608340168
 20
63.236221589821611
 30
0.0
 11
365.86515526931908
 21
64.003671437804016
 31
0.0
  0
LINE
  5
6CD
  8
0
 62
     0
 10
362.5175358523951
 20
54.026823414032492
 30
0.0
 11
362.77504503831233
 21
54.794273262014897
 31
0.0
  0
LINE
  5
6CE
  8
0
 62
     0
 10
359.42742562138818
 20
44.817425238243381
 30
0.0
 11
359.68493480730558
 21
45.584875086225793
 31
0.0
  0
LINE
  5
6CF
  8
0
 62
     0
 10
356.33731539038172
 20
35.608027062454291
 30
0.0
 11
356.59482457629889
 21
36.375476910436703
 31
0.0
  0
LINE
  5
6D0
  8
0
 62
     0
 10
353.24720515937508
 20
26.398628886665168
 30
0.0
 11
353.5047143452922
 21
27.166078734647598
 31
0.0
  0
LINE
  5
6D1
  8
0
 62
     0
 10
370.38737269992902
 20
105.1870695829642
 30
0.0
 11
370.64488188584619
 21
105.9545194309466
 31
0.0
  0
LINE
  5
6D2
  8
0
 62
     0
 10
367.29726246892233
 20
95.977671407175123
 30
0.0
 11
367.55477165483961
 21
96.745121255157542
 31
0.0
  0
LINE
  5
6D3
  8
0
 62
     0
 10
364.20715223791558
 20
86.768273231385976
 30
0.0
 11
364.46466142383292
 21
87.535723079368452
 31
0.0
  0
LINE
  5
6D4
  8
0
 62
     0
 10
361.117042006909
 20
77.5588750555969
 30
0.0
 11
361.37455119282617
 21
78.326324903579334
 31
0.0
  0
LINE
  5
6D5
  8
0
 62
     0
 10
358.02693177590231
 20
68.34947687980781
 30
0.0
 11
358.28444096181948
 21
69.116926727790215
 31
0.0
  0
LINE
  5
6D6
  8
0
 62
     0
 10
354.93682154489562
 20
59.140078704018713
 30
0.0
 11
355.19433073081291
 21
59.907528552001132
 31
0.0
  0
LINE
  5
6D7
  8
0
 62
     0
 10
351.84671131388887
 20
49.930680528229601
 30
0.0
 11
352.10422049980622
 21
50.698130376212021
 31
0.0
  0
LINE
  5
6D8
  8
0
 62
     0
 10
348.75660108288218
 20
40.72128235244049
 30
0.0
 11
349.01411026879941
 21
41.488732200422923
 31
0.0
  0
LINE
  5
6D9
  8
0
 62
     0
 10
345.66649085187561
 20
31.511884176651389
 30
0.0
 11
345.92400003779272
 21
32.279334024633819
 31
0.0
  0
LINE
  5
6DA
  8
0
 62
     0
 10
368.98687885444292
 20
128.71912122452861
 30
0.0
 11
369.24438804036009
 21
129.48657107251111
 31
0.0
  0
LINE
  5
6DB
  8
0
 62
     0
 10
365.89676862343617
 20
119.5097230487395
 30
0.0
 11
366.15427780935352
 21
120.27717289672201
 31
0.0
  0
LINE
  5
6DC
  8
0
 62
     0
 10
362.8066583924296
 20
110.3003248729504
 30
0.0
 11
363.06416757834683
 21
111.0677747209329
 31
0.0
  0
LINE
  5
6DD
  8
0
 62
     0
 10
359.71654816142279
 20
101.09092669716129
 30
0.0
 11
359.97405734734008
 21
101.8583765451438
 31
0.0
  0
LINE
  5
6DE
  8
0
 62
     0
 10
356.62643793041627
 20
91.881528521372275
 30
0.0
 11
356.88394711633339
 21
92.648978369354666
 31
0.0
  0
LINE
  5
6DF
  8
0
 62
     0
 10
353.53632769940958
 20
82.672130345583156
 30
0.0
 11
353.7938368853267
 21
83.439580193565561
 31
0.0
  0
LINE
  5
6E0
  8
0
 62
     0
 10
350.44621746840278
 20
73.462732169794037
 30
0.0
 11
350.70372665432001
 21
74.230182017776457
 31
0.0
  0
LINE
  5
6E1
  8
0
 62
     0
 10
347.35610723739609
 20
64.253333994004961
 30
0.0
 11
347.6136164233132
 21
65.020783841987367
 31
0.0
  0
LINE
  5
6E2
  8
0
 62
     0
 10
344.2659970063894
 20
55.04393581821585
 30
0.0
 11
344.52350619230663
 21
55.811385666198248
 31
0.0
  0
LINE
  5
6E3
  8
0
 62
     0
 10
361.40616454694339
 20
133.83237651451481
 30
0.0
 11
361.66367373286067
 21
134.59982636249731
 31
0.0
  0
LINE
  5
6E4
  8
0
 62
     0
 10
358.31605431593681
 20
124.6229783387258
 30
0.0
 11
358.57356350185398
 21
125.39042818670821
 31
0.0
  0
LINE
  5
6E5
  8
0
 62
     0
 10
355.22594408493012
 20
115.4135801629367
 30
0.0
 11
355.48345327084718
 21
116.1810300109191
 31
0.0
  0
LINE
  5
6E6
  8
0
 62
     0
 10
352.13583385392332
 20
106.20418198714761
 30
0.0
 11
352.3933430398406
 21
106.97163183513
 31
0.0
  0
LINE
  5
6E7
  8
0
 62
     0
 10
349.04572362291668
 20
96.994783811358502
 30
0.0
 11
349.30323280883391
 21
97.762233659340936
 31
0.0
  0
LINE
  5
6E8
  8
0
 62
     0
 10
345.95561339190999
 20
87.785385635569384
 30
0.0
 11
346.21312257782722
 21
88.552835483551789
 31
0.0
  0
LINE
  5
6E9
  8
0
 62
     0
 10
353.82545023944402
 20
138.94563180450101
 30
0.0
 11
354.0829594253612
 21
139.71308165248351
 31
0.0
  0
LINE
  5
6EA
  8
0
 62
     0
 10
350.73534000843728
 20
129.736233628712
 30
0.0
 11
350.99284919435439
 21
130.50368347669439
 31
0.0
  0
LINE
  5
6EB
  8
0
 62
     0
 10
347.64522977743059
 20
120.5268354529229
 30
0.0
 11
347.90273896334782
 21
121.2942853009053
 31
0.0
  0
LINE
  5
6EC
  8
0
 62
     0
 10
344.5551195464239
 20
111.31743727713381
 30
0.0
 11
344.81262873234118
 21
112.0848871251162
 31
0.0
  0
LINE
  5
6ED
  8
0
 62
     0
 10
343.1894779105852
 20
134.95335831232981
 30
0.0
 11
343.4121348868548
 21
135.6169387666807
 31
0.0
  0
LINE
  5
6EE
  8
0
 62
     0
 10
352.61533461677999
 20
26.824595248246698
 30
0.0
 11
353.24706124706688
 21
26.398490255801988
 31
0.0
  0
LINE
  5
6EF
  8
0
 62
     0
 10
345.03461505333672
 20
31.937855157583211
 30
0.0
 11
345.66634168362373
 21
31.511750165138501
 31
0.0
  0
LINE
  5
6F0
  8
0
 62
     0
 10
370.86687516104888
 20
25.80747373568968
 30
0.0
 11
371.49860179133589
 21
25.38136874324497
 31
0.0
  0
LINE
  5
6F1
  8
0
 62
     0
 10
363.28615559760573
 20
30.920733645026171
 30
0.0
 11
363.91788222789262
 21
30.494628652581468
 31
0.0
  0
LINE
  5
6F2
  8
0
 62
     0
 10
355.7054360341624
 20
36.033993554362688
 30
0.0
 11
356.33716266444918
 21
35.607888561917967
 31
0.0
  0
LINE
  5
6F3
  8
0
 62
     0
 10
348.12471647071908
 20
41.14725346369918
 30
0.0
 11
348.75644310100608
 21
40.72114847125448
 31
0.0
  0
LINE
  5
6F4
  8
0
 62
     0
 10
366.37625701498803
 20
40.13013195114209
 30
0.0
 11
367.00798364527498
 21
39.704026958697398
 31
0.0
  0
LINE
  5
6F5
  8
0
 62
     0
 10
358.7955374515447
 20
45.24339186047861
 30
0.0
 11
359.42726408183171
 21
44.817286868033882
 31
0.0
  0
LINE
  5
6F6
  8
0
 62
     0
 10
351.21481788810132
 20
50.356651769815123
 30
0.0
 11
351.84654451838838
 21
49.930546777370417
 31
0.0
  0
LINE
  5
6F7
  8
0
 62
     0
 10
343.634098324658
 20
55.469911679151622
 30
0.0
 11
344.265824954945
 21
55.043806686706922
 31
0.0
  0
LINE
  5
6F8
  8
0
 62
     0
 10
369.46635843237038
 20
49.33953025725809
 30
0.0
 11
370.09808506265739
 21
48.913425264813398
 31
0.0
  0
LINE
  5
6F9
  8
0
 62
     0
 10
361.88563886892717
 20
54.45279016659461
 30
0.0
 11
362.51736549921401
 21
54.026685174149911
 31
0.0
  0
LINE
  5
6FA
  8
0
 62
     0
 10
354.30491930548368
 20
59.566050075931109
 30
0.0
 11
354.93664593577068
 21
59.139945083486403
 31
0.0
  0
LINE
  5
6FB
  8
0
 62
     0
 10
346.72419974204041
 20
64.679309985267622
 30
0.0
 11
347.35592637232742
 21
64.253204992822916
 31
0.0
  0
LINE
  5
6FC
  8
0
 62
     0
 10
372.55645984975268
 20
58.548928563374062
 30
0.0
 11
373.18818648003969
 21
58.122823570929363
 31
0.0
  0
LINE
  5
6FD
  8
0
 62
     0
 10
364.97574028630942
 20
63.662188472710561
 30
0.0
 11
365.60746691659642
 21
63.236083480265847
 31
0.0
  0
LINE
  5
6FE
  8
0
 62
     0
 10
357.39502072286598
 20
68.775448382047074
 30
0.0
 11
358.02674735315293
 21
68.349343389602367
 31
0.0
  0
LINE
  5
6FF
  8
0
 62
     0
 10
349.81430115942283
 20
73.88870829138358
 30
0.0
 11
350.44602778970972
 21
73.462603298938859
 31
0.0
  0
LINE
  5
700
  8
0
 62
     0
 10
368.06584170369177
 20
72.871586778826526
 30
0.0
 11
368.69756833397878
 21
72.445481786381819
 31
0.0
  0
LINE
  5
701
  8
0
 62
     0
 10
360.48512214024851
 20
77.984846688163017
 30
0.0
 11
361.1168487705354
 21
77.558741695718297
 31
0.0
  0
LINE
  5
702
  8
0
 62
     0
 10
352.90440257680518
 20
83.098106597499537
 30
0.0
 11
353.53612920709207
 21
82.672001605054831
 31
0.0
  0
LINE
  5
703
  8
0
 62
     0
 10
345.32368301336197
 20
88.211366506836029
 30
0.0
 11
345.95540964364881
 21
87.785261514391323
 31
0.0
  0
LINE
  5
704
  8
0
 62
     0
 10
371.15594312107419
 20
82.080985084942483
 30
0.0
 11
371.78766975136108
 21
81.654880092497777
 31
0.0
  0
LINE
  5
705
  8
0
 62
     0
 10
363.57522355763092
 20
87.194244994278989
 30
0.0
 11
364.20695018791781
 21
86.768140001834254
 31
0.0
  0
LINE
  5
706
  8
0
 62
     0
 10
355.99450399418748
 20
92.307504903615495
 30
0.0
 11
356.62623062447449
 21
91.881399911170789
 31
0.0
  0
LINE
  5
707
  8
0
 62
     0
 10
348.41378443074427
 20
97.420764812952001
 30
0.0
 11
349.04551106103122
 21
96.99465982050728
 31
0.0
  0
LINE
  5
708
  8
0
 62
     0
 10
366.66532497501328
 20
96.403643300394918
 30
0.0
 11
367.29705160530023
 21
95.977538307950212
 31
0.0
  0
LINE
  5
709
  8
0
 62
     0
 10
359.0846054115699
 20
101.5169032097314
 30
0.0
 11
359.7163320418569
 21
101.0907982172867
 31
0.0
  0
LINE
  5
70A
  8
0
 62
     0
 10
351.50388584812652
 20
106.6301631190679
 30
0.0
 11
352.13561247841358
 21
106.2040581266232
 31
0.0
  0
LINE
  5
70B
  8
0
 62
     0
 10
343.9231662846833
 20
111.74342302840439
 30
0.0
 11
344.55489291497031
 21
111.3173180359597
 31
0.0
  0
LINE
  5
70C
  8
0
 62
     0
 10
369.75542639239558
 20
105.6130416065109
 30
0.0
 11
370.38715302268258
 21
105.1869366140662
 31
0.0
  0
LINE
  5
70D
  8
0
 62
     0
 10
362.17470682895231
 20
110.7263015158474
 30
0.0
 11
362.80643345923932
 21
110.3001965234027
 31
0.0
  0
LINE
  5
70E
  8
0
 62
     0
 10
354.59398726550887
 20
115.8395614251839
 30
0.0
 11
355.22571389579588
 21
115.4134564327392
 31
0.0
  0
LINE
  5
70F
  8
0
 62
     0
 10
347.01326770206572
 20
120.95282133452039
 30
0.0
 11
347.64499433235261
 21
120.5267163420757
 31
0.0
  0
LINE
  5
710
  8
0
 62
     0
 10
372.8455278097781
 20
114.82243991262681
 30
0.0
 11
373.18947791058531
 21
114.5904426402635
 31
0.0
  0
LINE
  5
711
  8
0
 62
     0
 10
365.26480824633478
 20
119.9356998219633
 30
0.0
 11
365.89653487662167
 21
119.5095948295186
 31
0.0
  0
LINE
  5
712
  8
0
 62
     0
 10
357.6840886828914
 20
125.0489597312998
 30
0.0
 11
358.3158153131784
 21
124.6228547388551
 31
0.0
  0
LINE
  5
713
  8
0
 62
     0
 10
350.10336911944808
 20
130.16221964063629
 30
0.0
 11
350.73509574973502
 21
129.73611464819149
 31
0.0
  0
LINE
  5
714
  8
0
 62
     0
 10
368.35490966371702
 20
129.1450981280793
 30
0.0
 11
368.98663629400397
 21
128.71899313563449
 31
0.0
  0
LINE
  5
715
  8
0
 62
     0
 10
360.77419010027359
 20
134.2583580374158
 30
0.0
 11
361.40591673056048
 21
133.83225304497111
 31
0.0
  0
LINE
  5
716
  8
0
 62
     0
 10
353.19347053683038
 20
139.37161794675231
 30
0.0
 11
353.82519716711721
 21
138.94551295430759
 31
0.0
  0
LINE
  5
717
  8
0
 62
     0
 10
370.86692046141638
 20
25.807783380034259
 30
0.0
 11
371.7561558176551
 21
26.149128851976162
 31
0.0
  0
LINE
  5
718
  8
0
 62
     0
 10
360.9473073719156
 20
22.00000067350835
 30
0.0
 11
361.08533154279201
 21
22.05298318867338
 31
0.0
  0
LINE
  5
719
  8
0
 62
     0
 10
363.28617646964722
 20
30.92105930587239
 30
0.0
 11
364.17541182588587
 21
31.26240477781429
 31
0.0
  0
LINE
  5
71A
  8
0
 62
     0
 10
352.61535219478429
 20
26.824913642569609
 30
0.0
 11
353.50458755102278
 21
27.166259114511512
 31
0.0
  0
LINE
  5
71B
  8
0
 62
     0
 10
366.37625675274109
 20
40.130480895013271
 30
0.0
 11
367.26549210897969
 21
40.47182636695517
 31
0.0
  0
LINE
  5
71C
  8
0
 62
     0
 10
355.70543247787811
 20
36.034335231710493
 30
0.0
 11
356.59466783411671
 21
36.375680703652392
 31
0.0
  0
LINE
  5
71D
  8
0
 62
     0
 10
345.03460820301501
 20
31.938189568407712
 30
0.0
 11
345.92384355925361
 21
32.279535040349607
 31
0.0
  0
LINE
  5
71E
  8
0
 62
     0
 10
369.46633703583501
 20
49.339902484154152
 30
0.0
 11
370.35557239207361
 21
49.681247956096072
 31
0.0
  0
LINE
  5
71F
  8
0
 62
     0
 10
358.79551276097197
 20
45.243756820851381
 30
0.0
 11
359.68474811721052
 21
45.58510229279328
 31
0.0
  0
LINE
  5
720
  8
0
 62
     0
 10
348.12468848610888
 20
41.147611157548582
 30
0.0
 11
349.01392384234748
 21
41.488956629490467
 31
0.0
  0
LINE
  5
721
  8
0
 62
     0
 10
372.55641731892882
 20
58.549324073295097
 30
0.0
 11
373.18947791058508
 21
58.792333266430212
 31
0.0
  0
LINE
  5
722
  8
0
 62
     0
 10
361.88559304406579
 20
54.453178409992333
 30
0.0
 11
362.77482840030439
 21
54.794523881934218
 31
0.0
  0
LINE
  5
723
  8
0
 62
     0
 10
351.21476876920269
 20
50.357032746689541
 30
0.0
 11
352.10400412544129
 21
50.698378218631433
 31
0.0
  0
LINE
  5
724
  8
0
 62
     0
 10
364.97567332715971
 20
63.662599999133242
 30
0.0
 11
365.86490868339831
 21
64.003945471075127
 31
0.0
  0
LINE
  5
725
  8
0
 62
     0
 10
354.30484905229662
 20
59.566454335830443
 30
0.0
 11
355.1940844085351
 21
59.907799807772342
 31
0.0
  0
LINE
  5
726
  8
0
 62
     0
 10
343.63402477743358
 20
55.470308672527651
 30
0.0
 11
344.52326013367218
 21
55.811654144469571
 31
0.0
  0
LINE
  5
727
  8
0
 62
     0
 10
368.06575361025352
 20
72.872021588274109
 30
0.0
 11
368.95498896649212
 21
73.213367060216001
 31
0.0
  0
LINE
  5
728
  8
0
 62
     0
 10
357.39492933539037
 20
68.775875924971331
 30
0.0
 11
358.28416469162897
 21
69.117221396913223
 31
0.0
  0
LINE
  5
729
  8
0
 62
     0
 10
346.72410506052728
 20
64.679730261668553
 30
0.0
 11
347.61334041676599
 21
65.021075733610445
 31
0.0
  0
LINE
  5
72A
  8
0
 62
     0
 10
371.15583389334722
 20
82.081443177415025
 30
0.0
 11
372.04506924958571
 21
82.422788649356889
 31
0.0
  0
LINE
  5
72B
  8
0
 62
     0
 10
360.4850096184843
 20
77.985297514112219
 30
0.0
 11
361.3742449747229
 21
78.326642986054111
 31
0.0
  0
LINE
  5
72C
  8
0
 62
     0
 10
349.8141853436212
 20
73.889151850809455
 30
0.0
 11
350.70342069985992
 21
74.230497322751347
 31
0.0
  0
LINE
  5
72D
  8
0
 62
     0
 10
363.57508990157811
 20
87.194719103253121
 30
0.0
 11
364.46432525781682
 21
87.536064575194999
 31
0.0
  0
LINE
  5
72E
  8
0
 62
     0
 10
352.90426562671507
 20
83.098573439950343
 30
0.0
 11
353.79350098295367
 21
83.439918911892221
 31
0.0
  0
LINE
  5
72F
  8
0
 62
     0
 10
366.66517018467209
 20
96.40414069239408
 30
0.0
 11
367.55440554091069
 21
96.745486164335972
 31
0.0
  0
LINE
  5
730
  8
0
 62
     0
 10
355.99434590980911
 20
92.307995029091302
 30
0.0
 11
356.88358126604771
 21
92.649340501033194
 31
0.0
  0
LINE
  5
731
  8
0
 62
     0
 10
345.32352163494591
 20
88.211849365788524
 30
0.0
 11
346.21275699118462
 21
88.553194837730416
 31
0.0
  0
LINE
  5
732
  8
0
 62
     0
 10
369.7552504677659
 20
105.613562281535
 30
0.0
 11
370.64448582400451
 21
105.9549077534768
 31
0.0
  0
LINE
  5
733
  8
0
 62
     0
 10
359.08442619290292
 20
101.5174166182322
 30
0.0
 11
359.97366154914153
 21
101.8587620901741
 31
0.0
  0
LINE
  5
734
  8
0
 62
     0
 10
348.41360191803977
 20
97.421270954929426
 30
0.0
 11
349.30283727427837
 21
97.762616426871304
 31
0.0
  0
LINE
  5
735
  8
0
 62
     0
 10
372.84533075085977
 20
114.8229838706758
 30
0.0
 11
373.1894779105852
 21
114.95508958805399
 31
0.0
  0
LINE
  5
736
  8
0
 62
     0
 10
362.17450647599679
 20
110.72683820737311
 30
0.0
 11
363.06374183223539
 21
111.068183679315
 31
0.0
  0
LINE
  5
737
  8
0
 62
     0
 10
351.5036822011337
 20
106.6306925440703
 30
0.0
 11
352.3929175573723
 21
106.97203801601221
 31
0.0
  0
LINE
  5
738
  8
0
 62
     0
 10
365.26458675909049
 20
119.93625979651399
 30
0.0
 11
366.15382211532921
 21
120.2776052684559
 31
0.0
  0
LINE
  5
739
  8
0
 62
     0
 10
354.59376248422763
 20
115.8401141332112
 30
0.0
 11
355.48299784046623
 21
116.18145960515309
 31
0.0
  0
LINE
  5
73A
  8
0
 62
     0
 10
343.92293820936447
 20
111.7439684699084
 30
0.0
 11
344.81217356560302
 21
112.0853139418503
 31
0.0
  0
LINE
  5
73B
  8
0
 62
     0
 10
368.35466704218442
 20
129.14568138565491
 30
0.0
 11
369.24390239842307
 21
129.48702685759679
 31
0.0
  0
LINE
  5
73C
  8
0
 62
     0
 10
357.68384276732138
 20
125.0495357223521
 30
0.0
 11
358.57307812355998
 21
125.390881194294
 31
0.0
  0
LINE
  5
73D
  8
0
 62
     0
 10
347.01301849245829
 20
120.9533900590493
 30
0.0
 11
347.90225384869689
 21
121.2947355309912
 31
0.0
  0
LINE
  5
73E
  8
0
 62
     0
 10
360.77392305041531
 20
134.25895731149299
 30
0.0
 11
361.66315840665391
 21
134.6003027834349
 31
0.0
  0
LINE
  5
73F
  8
0
 62
     0
 10
350.10309877555238
 20
130.1628116481902
 30
0.0
 11
350.99233413179093
 21
130.50415712013211
 31
0.0
  0
LINE
  5
740
  8
0
 62
     0
 10
353.19317905864608
 20
139.37223323733119
 30
0.0
 11
354.08241441488468
 21
139.71357870927309
 31
0.0
  0
LINE
  5
741
  8
0
 62
     0
 10
343.1894779105852
 20
135.5321721493481
 30
0.0
 11
343.41159014002159
 21
135.6174330459703
 31
0.0
  0
LINE
  5
742
  8
0
 62
     0
 10
348.89038066834041
 20
23.984884634685489
 30
0.0
 11
350.01987683338371
 21
23.809706402155051
 31
0.0
  0
LINE
  5
743
  8
0
 62
     0
 10
360.76061095903708
 20
36.356140527715361
 30
0.0
 11
361.89010712408037
 21
36.180962295184933
 31
0.0
  0
LINE
  5
744
  8
0
 62
     0
 10
347.20665697851751
 20
38.458279318080571
 30
0.0
 11
348.33615314356081
 21
38.283101085550143
 31
0.0
  0
LINE
  5
745
  8
0
 62
     0
 10
372.63084124973381
 20
48.727396420745237
 30
0.0
 11
373.1894779105852
 21
48.640755150147463
 31
0.0
  0
LINE
  5
746
  8
0
 62
     0
 10
359.07688726921418
 20
50.829535211110432
 30
0.0
 11
360.20638343425748
 21
50.654356978580033
 31
0.0
  0
LINE
  5
747
  8
0
 62
     0
 10
345.52293328869467
 20
52.93167400147567
 30
0.0
 11
346.65242945373791
 21
52.756495768945207
 31
0.0
  0
LINE
  5
748
  8
0
 62
     0
 10
370.94711755991102
 20
63.20079110414035
 30
0.0
 11
372.07661372495431
 21
63.025612871609887
 31
0.0
  0
LINE
  5
749
  8
0
 62
     0
 10
357.3931635793914
 20
65.302929894505539
 30
0.0
 11
358.52265974443458
 21
65.127751661975111
 31
0.0
  0
LINE
  5
74A
  8
0
 62
     0
 10
343.83920959887178
 20
67.405068684870741
 30
0.0
 11
344.96870576391512
 21
67.229890452340314
 31
0.0
  0
LINE
  5
74B
  8
0
 62
     0
 10
369.26339387008812
 20
77.674185787535421
 30
0.0
 11
370.39289003513142
 21
77.499007555004994
 31
0.0
  0
LINE
  5
74C
  8
0
 62
     0
 10
355.7094398895685
 20
79.776324577900638
 30
0.0
 11
356.83893605461168
 21
79.601146345370211
 31
0.0
  0
LINE
  5
74D
  8
0
 62
     0
 10
343.1894779105852
 20
81.718097271517919
 30
0.0
 11
343.28498207409223
 21
81.703285135735413
 31
0.0
  0
LINE
  5
74E
  8
0
 62
     0
 10
367.57967018026523
 20
92.147580470930521
 30
0.0
 11
368.70916634530852
 21
91.972402238400093
 31
0.0
  0
LINE
  5
74F
  8
0
 62
     0
 10
354.02571619974572
 20
94.249719261295724
 30
0.0
 11
355.15521236478889
 21
94.074541028765282
 31
0.0
  0
LINE
  5
750
  8
0
 62
     0
 10
365.89594649044233
 20
106.62097515432561
 30
0.0
 11
367.02544265548562
 21
106.44579692179521
 31
0.0
  0
LINE
  5
751
  8
0
 62
     0
 10
352.3419925099227
 20
108.72311394469079
 30
0.0
 11
353.471488674966
 21
108.5479357121604
 31
0.0
  0
LINE
  5
752
  8
0
 62
     0
 10
364.21222280061937
 20
121.09436983772071
 30
0.0
 11
365.34171896566278
 21
120.91919160519031
 31
0.0
  0
LINE
  5
753
  8
0
 62
     0
 10
350.65826882009992
 20
123.19650862808589
 30
0.0
 11
351.78776498514321
 21
123.0213303955554
 31
0.0
  0
LINE
  5
754
  8
0
 62
     0
 10
362.52849911079659
 20
135.56776452111581
 30
0.0
 11
363.65799527583988
 21
135.39258628858531
 31
0.0
  0
LINE
  5
755
  8
0
 62
     0
 10
348.97454513027708
 20
137.66990331148099
 30
0.0
 11
350.10404129532043
 21
137.49472507895049
 31
0.0
  0
LINE
  5
756
  8
0
 62
     0
 10
363.6575679226213
 20
135.39324562648969
 30
0.0
 11
363.57467625212502
 21
136.10577954668449
 31
0.0
  0
LINE
  5
757
  8
0
 62
     0
 10
365.34131032344169
 20
120.9198544368728
 30
0.0
 11
365.2009984567066
 21
122.12597036934091
 31
0.0
  0
LINE
  5
758
  8
0
 62
     0
 10
367.02505272426203
 20
106.44646324725601
 30
0.0
 11
366.88474085752699
 21
107.6525791797241
 31
0.0
  0
LINE
  5
759
  8
0
 62
     0
 10
368.7087951250823
 20
91.973072057639115
 30
0.0
 11
368.56848325834733
 21
93.179187990107152
 31
0.0
  0
LINE
  5
75A
  8
0
 62
     0
 10
370.39253752590258
 20
77.49968086802221
 30
0.0
 11
370.25222565916761
 21
78.70579680049029
 31
0.0
  0
LINE
  5
75B
  8
0
 62
     0
 10
372.0762799267228
 20
63.02628967840532
 30
0.0
 11
371.93596805998789
 21
64.232405610873386
 31
0.0
  0
LINE
  5
75C
  8
0
 62
     0
 10
350.10361379848911
 20
137.4953590216042
 30
0.0
 11
349.96330193175419
 21
138.7014749540723
 31
0.0
  0
LINE
  5
75D
  8
0
 62
     0
 10
351.78735619930939
 20
123.0219678319873
 30
0.0
 11
351.64704433257441
 21
124.22808376445541
 31
0.0
  0
LINE
  5
75E
  8
0
 62
     0
 10
353.47109860012978
 20
108.54857664237041
 30
0.0
 11
353.3307867333948
 21
109.7546925748385
 31
0.0
  0
LINE
  5
75F
  8
0
 62
     0
 10
355.15484100095023
 20
94.075185452753544
 30
0.0
 11
355.01452913421508
 21
95.281301385221624
 31
0.0
  0
LINE
  5
760
  8
0
 62
     0
 10
356.83858340177039
 20
79.601794263136654
 30
0.0
 11
356.69827153503547
 21
80.807910195604734
 31
0.0
  0
LINE
  5
761
  8
0
 62
     0
 10
358.5223258025909
 20
65.128403073519749
 30
0.0
 11
358.38201393585581
 21
66.334519005987843
 31
0.0
  0
LINE
  5
762
  8
0
 62
     0
 10
360.20606820341118
 20
50.655011883902887
 30
0.0
 11
360.0657563366762
 21
51.861127816370953
 31
0.0
  0
LINE
  5
763
  8
0
 62
     0
 10
361.88981060423151
 20
36.181620694286003
 30
0.0
 11
361.74949873749648
 21
37.387736626754069
 31
0.0
  0
LINE
  5
764
  8
0
 62
     0
 10
363.53961020050281
 20
22.00000067350841
 30
0.0
 11
363.43324113831682
 21
22.9143454371372
 31
0.0
  0
LINE
  5
765
  8
0
 62
     0
 10
343.28462927763837
 20
81.703907658251069
 30
0.0
 11
343.18947791058559
 21
82.521825504183212
 31
0.0
  0
LINE
  5
766
  8
0
 62
     0
 10
344.96837167845871
 20
67.230516468634164
 30
0.0
 11
344.82805981172368
 21
68.436632401102244
 31
0.0
  0
LINE
  5
767
  8
0
 62
     0
 10
346.65211407927887
 20
52.757125279017281
 30
0.0
 11
346.51180221254401
 21
53.963241211485339
 31
0.0
  0
LINE
  5
768
  8
0
 62
     0
 10
348.33585648009938
 20
38.283734089400397
 30
0.0
 11
348.19554461336429
 21
39.48985002186847
 31
0.0
  0
LINE
  5
769
  8
0
 62
     0
 10
350.01959888091972
 20
23.810342899783521
 30
0.0
 11
349.87928701418468
 21
25.01645883225159
 31
0.0
  0
LINE
  5
76A
  8
0
 62
     0
 10
362.5554573187863
 20
22.000000673508371
 30
0.0
 11
363.4331395692588
 21
22.914734187705129
 31
0.0
  0
LINE
  5
76B
  8
0
 62
     0
 10
372.63041704010851
 20
48.72852085654165
 30
0.0
 11
373.18947791058508
 21
49.311182422758392
 31
0.0
  0
LINE
  5
76C
  8
0
 62
     0
 10
360.76021033639222
 20
36.35721462756765
 30
0.0
 11
361.7493942283686
 21
37.388156813315483
 31
0.0
  0
LINE
  5
76D
  8
0
 62
     0
 10
348.89000363267621
 20
23.985908398593612
 30
0.0
 11
349.87918752465242
 21
25.016850584341469
 31
0.0
  0
LINE
  5
76E
  8
0
 62
     0
 10
370.9466716992182
 20
63.201943482151997
 30
0.0
 11
371.93585559119452
 21
64.232885667899851
 31
0.0
  0
LINE
  5
76F
  8
0
 62
     0
 10
359.07646499550202
 20
50.83063725317799
 30
0.0
 11
360.06564888747818
 21
51.861579438925823
 31
0.0
  0
LINE
  5
770
  8
0
 62
     0
 10
347.20625829178567
 20
38.459331024203983
 30
0.0
 11
348.19544218376211
 21
39.490273209951809
 31
0.0
  0
LINE
  5
771
  8
0
 62
     0
 10
369.26292635832772
 20
77.675366107762372
 30
0.0
 11
370.2521102503041
 21
78.70630829351019
 31
0.0
  0
LINE
  5
772
  8
0
 62
     0
 10
357.3927196546116
 20
65.304059878788351
 30
0.0
 11
358.38190354658792
 21
66.33500206453617
 31
0.0
  0
LINE
  5
773
  8
0
 62
     0
 10
345.52251295089548
 20
52.93275364981433
 30
0.0
 11
346.51169684287169
 21
53.963695835562149
 31
0.0
  0
LINE
  5
774
  8
0
 62
     0
 10
367.57918101743741
 20
92.148788733372754
 30
0.0
 11
368.56836490941379
 21
93.179730919120558
 31
0.0
  0
LINE
  5
775
  8
0
 62
     0
 10
355.70897431372123
 20
79.777482504398733
 30
0.0
 11
356.69815820569761
 21
80.808424690146566
 31
0.0
  0
LINE
  5
776
  8
0
 62
     0
 10
343.83876761000511
 20
67.406176275424727
 30
0.0
 11
344.82795150198137
 21
68.43711846117256
 31
0.0
  0
LINE
  5
777
  8
0
 62
     0
 10
365.89543567654709
 20
106.62221135898309
 30
0.0
 11
366.88461956852342
 21
107.6531535447309
 31
0.0
  0
LINE
  5
778
  8
0
 62
     0
 10
354.02522897283097
 20
94.250905130009102
 30
0.0
 11
355.0144128648073
 21
95.281847315756934
 31
0.0
  0
LINE
  5
779
  8
0
 62
     0
 10
364.21169033565678
 20
121.09563398459341
 30
0.0
 11
365.20087422763322
 21
122.12657617034129
 31
0.0
  0
LINE
  5
77A
  8
0
 62
     0
 10
352.34148363194078
 20
108.7243277556194
 30
0.0
 11
353.33066752391687
 21
109.7552699413673
 31
0.0
  0
LINE
  5
77B
  8
0
 62
     0
 10
362.52794499476647
 20
135.56905661020389
 30
0.0
 11
363.11600596264799
 21
136.18194250988171
 31
0.0
  0
LINE
  5
77C
  8
0
 62
     0
 10
350.65773829105018
 20
123.19775038122989
 30
0.0
 11
351.64692218302667
 21
124.2286925669777
 31
0.0
  0
LINE
  5
77D
  8
0
 62
     0
 10
348.97399295015998
 20
137.67117300684021
 30
0.0
 11
349.96317684213642
 21
138.70211519258811
 31
0.0
  0
LINE
  5
77E
  8
0
 62
     0
 10
371.58526807188173
 20
130.06380074263731
 30
0.0
 11
371.4384291689143
 21
130.85987145970671
 31
0.0
  0
LINE
  5
77F
  8
0
 62
     0
 10
362.47607615297551
 20
130.86081495645519
 30
0.0
 11
362.32923725000808
 21
131.65688567352461
 31
0.0
  0
LINE
  5
780
  8
0
 62
     0
 10
364.238142988584
 20
121.3079663516228
 30
0.0
 11
364.09130408561663
 21
122.10403706869219
 31
0.0
  0
LINE
  5
781
  8
0
 62
     0
 10
366.00020982419272
 20
111.7551177467904
 30
0.0
 11
365.85337092122518
 21
112.5511884638598
 31
0.0
  0
LINE
  5
782
  8
0
 62
     0
 10
367.7622766598011
 20
102.202269141958
 30
0.0
 11
367.61543775683373
 21
102.9983398590274
 31
0.0
  0
LINE
  5
783
  8
0
 62
     0
 10
369.52434349540971
 20
92.649420537125621
 30
0.0
 11
369.37750459244228
 21
93.445491254195005
 31
0.0
  0
LINE
  5
784
  8
0
 62
     0
 10
371.2864103310182
 20
83.096571932293216
 30
0.0
 11
371.13957142805077
 21
83.892642649362543
 31
0.0
  0
LINE
  5
785
  8
0
 62
     0
 10
373.0484771666267
 20
73.54372332746081
 30
0.0
 11
372.90163826365938
 21
74.339794044530194
 31
0.0
  0
LINE
  5
786
  8
0
 62
     0
 10
353.36688423406912
 20
131.657829170273
 30
0.0
 11
353.22004533110169
 21
132.45389988734229
 31
0.0
  0
LINE
  5
787
  8
0
 62
     0
 10
355.12895106967773
 20
122.1049805654406
 30
0.0
 11
354.98211216671018
 21
122.90105128251
 31
0.0
  0
LINE
  5
788
  8
0
 62
     0
 10
356.89101790528628
 20
112.55213196060819
 30
0.0
 11
356.74417900231879
 21
113.34820267767761
 31
0.0
  0
LINE
  5
789
  8
0
 62
     0
 10
358.65308474089483
 20
102.9992833557758
 30
0.0
 11
358.50624583792722
 21
103.7953540728451
 31
0.0
  0
LINE
  5
78A
  8
0
 62
     0
 10
360.41515157650321
 20
93.446434750943425
 30
0.0
 11
360.26831267353577
 21
94.242505468012766
 31
0.0
  0
LINE
  5
78B
  8
0
 62
     0
 10
362.17721841211181
 20
83.893586146110977
 30
0.0
 11
362.03037950914438
 21
84.68965686318036
 31
0.0
  0
LINE
  5
78C
  8
0
 62
     0
 10
363.93928524772042
 20
74.340737541278585
 30
0.0
 11
363.79244634475288
 21
75.136808258347955
 31
0.0
  0
LINE
  5
78D
  8
0
 62
     0
 10
365.70135208332891
 20
64.78788893644618
 30
0.0
 11
365.5545131803616
 21
65.583959653515535
 31
0.0
  0
LINE
  5
78E
  8
0
 62
     0
 10
367.46341891893752
 20
55.23504033161376
 30
0.0
 11
367.31658001597009
 21
56.031111048683151
 31
0.0
  0
LINE
  5
78F
  8
0
 62
     0
 10
369.22548575454601
 20
45.682191726781362
 30
0.0
 11
369.07864685157858
 21
46.478262443850753
 31
0.0
  0
LINE
  5
790
  8
0
 62
     0
 10
370.98755259015462
 20
36.12934312194897
 30
0.0
 11
370.84071368718719
 21
36.925413839018333
 31
0.0
  0
LINE
  5
791
  8
0
 62
     0
 10
372.74961942576311
 20
26.576494517116579
 30
0.0
 11
372.60278052279568
 21
27.372565234185931
 31
0.0
  0
LINE
  5
792
  8
0
 62
     0
 10
344.2576923151625
 20
132.45484338409091
 30
0.0
 11
344.11085341219518
 21
133.25091410116019
 31
0.0
  0
LINE
  5
793
  8
0
 62
     0
 10
346.01975915077111
 20
122.9019947792585
 30
0.0
 11
345.87292024780368
 21
123.6980654963278
 31
0.0
  0
LINE
  5
794
  8
0
 62
     0
 10
347.7818259863796
 20
113.3491461744261
 30
0.0
 11
347.63498708341223
 21
114.14521689149539
 31
0.0
  0
LINE
  5
795
  8
0
 62
     0
 10
349.54389282198809
 20
103.79629756959361
 30
0.0
 11
349.39705391902078
 21
104.592368286663
 31
0.0
  0
LINE
  5
796
  8
0
 62
     0
 10
351.3059596575967
 20
94.243448964761242
 30
0.0
 11
351.15912075462933
 21
95.039519681830654
 31
0.0
  0
LINE
  5
797
  8
0
 62
     0
 10
353.06802649320531
 20
84.690600359928851
 30
0.0
 11
352.92118759023788
 21
85.486671076998221
 31
0.0
  0
LINE
  5
798
  8
0
 62
     0
 10
354.8300933288138
 20
75.13775175509646
 30
0.0
 11
354.68325442584643
 21
75.933822472165843
 31
0.0
  0
LINE
  5
799
  8
0
 62
     0
 10
356.59216016442241
 20
65.58490315026404
 30
0.0
 11
356.44532126145481
 21
66.380973867333424
 31
0.0
  0
LINE
  5
79A
  8
0
 62
     0
 10
358.3542270000309
 20
56.032054545431642
 30
0.0
 11
358.20738809706347
 21
56.828125262501018
 31
0.0
  0
LINE
  5
79B
  8
0
 62
     0
 10
360.11629383563951
 20
46.479205940599243
 30
0.0
 11
359.96945493267202
 21
47.275276657668613
 31
0.0
  0
LINE
  5
79C
  8
0
 62
     0
 10
361.878360671248
 20
36.926357335766852
 30
0.0
 11
361.73152176828057
 21
37.722428052836207
 31
0.0
  0
LINE
  5
79D
  8
0
 62
     0
 10
363.6404275068565
 20
27.373508730934439
 30
0.0
 11
363.49358860388918
 21
28.169579448003802
 31
0.0
  0
LINE
  5
79E
  8
0
 62
     0
 10
343.95883457429881
 20
85.487614573746654
 30
0.0
 11
343.81199567133137
 21
86.283685290816024
 31
0.0
  0
LINE
  5
79F
  8
0
 62
     0
 10
345.7209014099073
 20
75.93476596891422
 30
0.0
 11
345.57406250693992
 21
76.730836685983547
 31
0.0
  0
LINE
  5
7A0
  8
0
 62
     0
 10
347.48296824551591
 20
66.381917364081829
 30
0.0
 11
347.33612934254847
 21
67.177988081151184
 31
0.0
  0
LINE
  5
7A1
  8
0
 62
     0
 10
349.24503508112429
 20
56.829068759249417
 30
0.0
 11
349.09819617815702
 21
57.625139476318779
 31
0.0
  0
LINE
  5
7A2
  8
0
 62
     0
 10
351.00710191673289
 20
47.276220154417018
 30
0.0
 11
350.86026301376558
 21
48.072290871486381
 31
0.0
  0
LINE
  5
7A3
  8
0
 62
     0
 10
352.7691687523415
 20
37.723371549584613
 30
0.0
 11
352.62232984937418
 21
38.519442266653989
 31
0.0
  0
LINE
  5
7A4
  8
0
 62
     0
 10
354.53123558794999
 20
28.170522944752211
 30
0.0
 11
354.38439668498268
 21
28.96659366182158
 31
0.0
  0
LINE
  5
7A5
  8
0
 62
     0
 10
343.65997683343488
 20
38.520385763402402
 30
0.0
 11
343.51313793046751
 21
39.316456480471771
 31
0.0
  0
LINE
  5
7A6
  8
0
 62
     0
 10
345.42204366904338
 20
28.967537158570021
 30
0.0
 11
345.275204766076
 21
29.763607875639369
 31
0.0
  0
LINE
  5
7A7
  8
0
 62
     0
 10
371.98950131864558
 20
26.645293835786859
 30
0.0
 11
372.74860167859151
 21
26.57888115981315
 31
0.0
  0
LINE
  5
7A8
  8
0
 62
     0
 10
362.88029699929461
 20
27.442245947471442
 30
0.0
 11
363.63939735924049
 21
27.375833271497729
 31
0.0
  0
LINE
  5
7A9
  8
0
 62
     0
 10
353.77109267994359
 20
28.239198059156031
 30
0.0
 11
354.53019303988958
 21
28.172785383182308
 31
0.0
  0
LINE
  5
7AA
  8
0
 62
     0
 10
344.66188836059263
 20
29.036150170840621
 30
0.0
 11
345.42098872053862
 21
28.969737494866902
 31
0.0
  0
LINE
  5
7AB
  8
0
 62
     0
 10
370.2273600198622
 20
36.198125979895849
 30
0.0
 11
370.98646037980802
 21
36.131713303922133
 31
0.0
  0
LINE
  5
7AC
  8
0
 62
     0
 10
361.11815570051118
 20
36.995078091580439
 30
0.0
 11
361.87725606045723
 21
36.928665415606723
 31
0.0
  0
LINE
  5
7AD
  8
0
 62
     0
 10
352.00895138116027
 20
37.792030203265043
 30
0.0
 11
352.76805174110621
 21
37.725617527291313
 31
0.0
  0
LINE
  5
7AE
  8
0
 62
     0
 10
343.18947791058508
 20
38.563634150208003
 30
0.0
 11
343.65884742175518
 21
38.522569638975909
 31
0.0
  0
LINE
  5
7AF
  8
0
 62
     0
 10
368.46521872107883
 20
45.75095812400486
 30
0.0
 11
369.2243190810247
 21
45.684545448031123
 31
0.0
  0
LINE
  5
7B0
  8
0
 62
     0
 10
359.35601440172792
 20
46.54791023568945
 30
0.0
 11
360.11511476167368
 21
46.48149755971572
 31
0.0
  0
LINE
  5
7B1
  8
0
 62
     0
 10
350.24681008237678
 20
47.34486234737404
 30
0.0
 11
351.00591044232277
 21
47.278449671400317
 31
0.0
  0
LINE
  5
7B2
  8
0
 62
     0
 10
366.70307742229551
 20
55.30379026811385
 30
0.0
 11
367.4621777822415
 21
55.237377592140142
 31
0.0
  0
LINE
  5
7B3
  8
0
 62
     0
 10
357.59387310294471
 20
56.10074237979844
 30
0.0
 11
358.35297346289047
 21
56.034329703824731
 31
0.0
  0
LINE
  5
7B4
  8
0
 62
     0
 10
348.48466878359358
 20
56.897694491483037
 30
0.0
 11
349.24376914353951
 21
56.831281815509321
 31
0.0
  0
LINE
  5
7B5
  8
0
 62
     0
 10
364.9409361235119
 20
64.856622412222862
 30
0.0
 11
365.70003648345812
 21
64.790209736249153
 31
0.0
  0
LINE
  5
7B6
  8
0
 62
     0
 10
355.83173180416122
 20
65.653574523907437
 30
0.0
 11
356.5908321641071
 21
65.587161847933729
 31
0.0
  0
LINE
  5
7B7
  8
0
 62
     0
 10
346.7225274848102
 20
66.450526635592013
 30
0.0
 11
347.48162784475619
 21
66.384113959618304
 31
0.0
  0
LINE
  5
7B8
  8
0
 62
     0
 10
372.28799914407972
 20
73.612502444647291
 30
0.0
 11
373.04709950402571
 21
73.546089768673582
 31
0.0
  0
LINE
  5
7B9
  8
0
 62
     0
 10
363.1787948247287
 20
74.409454556331866
 30
0.0
 11
363.93789518467452
 21
74.343041880358143
 31
0.0
  0
LINE
  5
7BA
  8
0
 62
     0
 10
354.06959050537768
 20
75.206406668016456
 30
0.0
 11
354.82869086532372
 21
75.139993992042733
 31
0.0
  0
LINE
  5
7BB
  8
0
 62
     0
 10
344.96038618602682
 20
76.003358779701017
 30
0.0
 11
345.71948654597281
 21
75.936946103727294
 31
0.0
  0
LINE
  5
7BC
  8
0
 62
     0
 10
370.5258578452964
 20
83.165334588756295
 30
0.0
 11
371.28495820524228
 21
83.098921912782558
 31
0.0
  0
LINE
  5
7BD
  8
0
 62
     0
 10
361.41665352594538
 20
83.962286700440828
 30
0.0
 11
362.17575388589142
 21
83.895874024467176
 31
0.0
  0
LINE
  5
7BE
  8
0
 62
     0
 10
352.30744920659453
 20
84.759238812125403
 30
0.0
 11
353.0665495665404
 21
84.692826136151737
 31
0.0
  0
LINE
  5
7BF
  8
0
 62
     0
 10
343.1982448872435
 20
85.556190923810021
 30
0.0
 11
343.95734524718938
 21
85.489778247836327
 31
0.0
  0
LINE
  5
7C0
  8
0
 62
     0
 10
368.76371654651291
 20
92.718166732865285
 30
0.0
 11
369.52281690645913
 21
92.651754056891562
 31
0.0
  0
LINE
  5
7C1
  8
0
 62
     0
 10
359.65451222716212
 20
93.515118844549846
 30
0.0
 11
360.41361258710799
 21
93.448706168576123
 31
0.0
  0
LINE
  5
7C2
  8
0
 62
     0
 10
350.54530790781098
 20
94.312070956234422
 30
0.0
 11
351.30440826775703
 21
94.245658280260713
 31
0.0
  0
LINE
  5
7C3
  8
0
 62
     0
 10
367.0015752477297
 20
102.2709988769743
 30
0.0
 11
367.76067560767558
 21
102.20458620100059
 31
0.0
  0
LINE
  5
7C4
  8
0
 62
     0
 10
357.89237092837868
 20
103.06795098865879
 30
0.0
 11
358.65147128832467
 21
103.0015383126851
 31
0.0
  0
LINE
  5
7C5
  8
0
 62
     0
 10
348.78316660902772
 20
103.8649031003434
 30
0.0
 11
349.54226696897371
 21
103.7984904243697
 31
0.0
  0
LINE
  5
7C6
  8
0
 62
     0
 10
365.23943394894633
 20
111.82383102108329
 30
0.0
 11
365.99853430889232
 21
111.7574183451095
 31
0.0
  0
LINE
  5
7C7
  8
0
 62
     0
 10
356.13022962959531
 20
112.6207831327678
 30
0.0
 11
356.8893299895413
 21
112.5543704567941
 31
0.0
  0
LINE
  5
7C8
  8
0
 62
     0
 10
347.0210253102444
 20
113.4177352444524
 30
0.0
 11
347.78012567019027
 21
113.35132256847869
 31
0.0
  0
LINE
  5
7C9
  8
0
 62
     0
 10
372.58649696951392
 20
120.57971105350769
 30
0.0
 11
373.18947791058531
 21
120.52695705684179
 31
0.0
  0
LINE
  5
7CA
  8
0
 62
     0
 10
363.47729265016289
 20
121.3766631651923
 30
0.0
 11
364.23639301010888
 21
121.3102504892186
 31
0.0
  0
LINE
  5
7CB
  8
0
 62
     0
 10
354.36808833081199
 20
122.1736152768769
 30
0.0
 11
355.12718869075792
 21
122.10720260090309
 31
0.0
  0
LINE
  5
7CC
  8
0
 62
     0
 10
345.25888401146102
 20
122.97056738856141
 30
0.0
 11
346.01798437140678
 21
122.9041547125877
 31
0.0
  0
LINE
  5
7CD
  8
0
 62
     0
 10
370.8243556707306
 20
130.1325431976166
 30
0.0
 11
371.58345603067647
 21
130.0661305216428
 31
0.0
  0
LINE
  5
7CE
  8
0
 62
     0
 10
361.71515135137969
 20
130.92949530930119
 30
0.0
 11
362.47425171132562
 21
130.86308263332751
 31
0.0
  0
LINE
  5
7CF
  8
0
 62
     0
 10
352.60594703202872
 20
131.72644742098581
 30
0.0
 11
353.36504739197471
 21
131.6600347450121
 31
0.0
  0
LINE
  5
7D0
  8
0
 62
     0
 10
343.4967427126777
 20
132.5233995326704
 30
0.0
 11
344.25584307262358
 21
132.45698685669669
 31
0.0
  0
LINE
  5
7D1
  8
0
 62
     0
 10
371.99015784011988
 20
26.64541103572942
 30
0.0
 11
372.60241303834641
 21
27.37506836780025
 31
0.0
  0
LINE
  5
7D2
  8
0
 62
     0
 10
370.22798676903687
 20
36.198253297524523
 30
0.0
 11
370.8402419672633
 21
36.927910629595353
 31
0.0
  0
LINE
  5
7D3
  8
0
 62
     0
 10
362.88092439031982
 20
27.44236531267461
 30
0.0
 11
363.49317958854618
 21
28.172022644745429
 31
0.0
  0
LINE
  5
7D4
  8
0
 62
     0
 10
368.4658156979537
 20
45.751095559319587
 30
0.0
 11
369.07807089618018
 21
46.480752891390409
 31
0.0
  0
LINE
  5
7D5
  8
0
 62
     0
 10
361.11875331923648
 20
36.995207574469667
 30
0.0
 11
361.73100851746312
 21
37.724864906540503
 31
0.0
  0
LINE
  5
7D6
  8
0
 62
     0
 10
353.77169094051948
 20
28.239319589619761
 30
0.0
 11
354.3839461387459
 21
28.968976921690569
 31
0.0
  0
LINE
  5
7D7
  8
0
 62
     0
 10
366.70364462687058
 20
55.303937821114637
 30
0.0
 11
367.31589982509712
 21
56.03359515318548
 31
0.0
  0
LINE
  5
7D8
  8
0
 62
     0
 10
359.35658224815347
 20
46.548049836264717
 30
0.0
 11
359.96883744637989
 21
47.27770716833556
 31
0.0
  0
LINE
  5
7D9
  8
0
 62
     0
 10
352.00951986943642
 20
37.792161851414811
 30
0.0
 11
352.62177506766278
 21
38.52181918348564
 31
0.0
  0
LINE
  5
7DA
  8
0
 62
     0
 10
344.66245749071919
 20
29.036273866564901
 30
0.0
 11
345.27471268894578
 21
29.76593119863572
 31
0.0
  0
LINE
  5
7DB
  8
0
 62
     0
 10
372.28853593450481
 20
73.612668067759657
 30
0.0
 11
372.90079113273117
 21
74.3423253998305
 31
0.0
  0
LINE
  5
7DC
  8
0
 62
     0
 10
364.94147355578758
 20
64.856780082909751
 30
0.0
 11
365.55372875401412
 21
65.58643741498058
 31
0.0
  0
LINE
  5
7DD
  8
0
 62
     0
 10
357.59441117707053
 20
56.100892098059809
 30
0.0
 11
358.206666375297
 21
56.830549430130652
 31
0.0
  0
LINE
  5
7DE
  8
0
 62
     0
 10
350.24734879835341
 20
47.345004113209889
 30
0.0
 11
350.85960399657972
 21
48.074661445280711
 31
0.0
  0
LINE
  5
7DF
  8
0
 62
     0
 10
343.18947791058508
 20
38.933761126645891
 30
0.0
 11
343.51254161786272
 21
39.318773460430812
 31
0.0
  0
LINE
  5
7E0
  8
0
 62
     0
 10
370.52636486342169
 20
83.165510329554735
 30
0.0
 11
371.13862006164823
 21
83.895167661625564
 31
0.0
  0
LINE
  5
7E1
  8
0
 62
     0
 10
363.17930248470458
 20
74.409622344704815
 30
0.0
 11
363.791557682931
 21
75.139279676775658
 31
0.0
  0
LINE
  5
7E2
  8
0
 62
     0
 10
355.83224010598752
 20
65.653734359854894
 30
0.0
 11
356.44449530421389
 21
66.383391691925723
 31
0.0
  0
LINE
  5
7E3
  8
0
 62
     0
 10
348.4851777272703
 20
56.897846375004981
 30
0.0
 11
349.09743292549678
 21
57.627503707075817
 31
0.0
  0
LINE
  5
7E4
  8
0
 62
     0
 10
368.76419379233857
 20
92.71835259134977
 30
0.0
 11
369.37644899056511
 21
93.448009923420628
 31
0.0
  0
LINE
  5
7E5
  8
0
 62
     0
 10
361.41713141362158
 20
83.962464606499907
 30
0.0
 11
362.029386611848
 21
84.692121938570736
 31
0.0
  0
LINE
  5
7E6
  8
0
 62
     0
 10
354.07006903490452
 20
75.206576621649987
 30
0.0
 11
354.68232423313088
 21
75.936233953720802
 31
0.0
  0
LINE
  5
7E7
  8
0
 62
     0
 10
346.72300665618741
 20
66.450688636800066
 30
0.0
 11
347.33526185441377
 21
67.180345968870895
 31
0.0
  0
LINE
  5
7E8
  8
0
 62
     0
 10
367.00202272125568
 20
102.27119485314491
 30
0.0
 11
367.61427791948211
 21
103.00085218521571
 31
0.0
  0
LINE
  5
7E9
  8
0
 62
     0
 10
359.65496034253852
 20
93.515306868294942
 30
0.0
 11
360.26721554076482
 21
94.244964200365771
 31
0.0
  0
LINE
  5
7EA
  8
0
 62
     0
 10
352.3078979638214
 20
84.759418883444994
 30
0.0
 11
352.92015316204788
 21
85.489076215515865
 31
0.0
  0
LINE
  5
7EB
  8
0
 62
     0
 10
344.96083558510441
 20
76.003530898595059
 30
0.0
 11
345.57309078333083
 21
76.733188230665945
 31
0.0
  0
LINE
  5
7EC
  8
0
 62
     0
 10
372.58691402888968
 20
120.5799250997899
 30
0.0
 11
373.18947791058503
 21
121.2980327705678
 31
0.0
  0
LINE
  5
7ED
  8
0
 62
     0
 10
365.23985165017262
 20
111.82403711494
 30
0.0
 11
365.85210684839899
 21
112.5536944470108
 31
0.0
  0
LINE
  5
7EE
  8
0
 62
     0
 10
357.8927892714554
 20
103.06814913009001
 30
0.0
 11
358.50504446968188
 21
103.79780646216091
 31
0.0
  0
LINE
  5
7EF
  8
0
 62
     0
 10
350.54572689273829
 20
94.312261145240129
 30
0.0
 11
351.15798209096482
 21
95.041918477310986
 31
0.0
  0
LINE
  5
7F0
  8
0
 62
     0
 10
343.19866451402129
 20
85.556373160390208
 30
0.0
 11
343.8109197122476
 21
86.286030492461066
 31
0.0
  0
LINE
  5
7F1
  8
0
 62
     0
 10
370.82474295780662
 20
130.13276736158491
 30
0.0
 11
371.4369981560331
 21
130.8624246936557
 31
0.0
  0
LINE
  5
7F2
  8
0
 62
     0
 10
363.47768057908968
 20
121.376879376735
 30
0.0
 11
364.08993577731599
 21
122.10653670880581
 31
0.0
  0
LINE
  5
7F3
  8
0
 62
     0
 10
356.13061820037251
 20
112.6209913918851
 30
0.0
 11
356.74287339859887
 21
113.3506487239559
 31
0.0
  0
LINE
  5
7F4
  8
0
 62
     0
 10
348.78355582165528
 20
103.86510340703499
 30
0.0
 11
349.39581101988182
 21
104.59476073910599
 31
0.0
  0
LINE
  5
7F5
  8
0
 62
     0
 10
361.71550950800651
 20
130.92972163853011
 30
0.0
 11
362.32776470623293
 21
131.6593789706009
 31
0.0
  0
LINE
  5
7F6
  8
0
 62
     0
 10
354.36844712928939
 20
122.17383365368011
 30
0.0
 11
354.98070232751581
 21
122.90349098575101
 31
0.0
  0
LINE
  5
7F7
  8
0
 62
     0
 10
347.02138475057228
 20
113.4179456688302
 30
0.0
 11
347.6336399487987
 21
114.1476030009011
 31
0.0
  0
LINE
  5
7F8
  8
0
 62
     0
 10
352.60627605820639
 20
131.7266759154752
 30
0.0
 11
353.21853125643281
 21
132.45633324754601
 31
0.0
  0
LINE
  5
7F9
  8
0
 62
     0
 10
345.25921367948922
 20
122.97078793062531
 30
0.0
 11
345.8714688777157
 21
123.70044526269621
 31
0.0
  0
LINE
  5
7FA
  8
0
 62
     0
 10
343.49704260840628
 20
132.52363019242031
 30
0.0
 11
344.10929780663253
 21
133.25328752449121
 31
0.0
  0
ENDBLK
  5
7FC
  8
0
  0
BLOCK
  8
0
  2
*X6
 70
     1
 10
0.0
 20
0.0
 30
0.0
  3
*X6
  1

  0
LINE
  5
7FE
  8
0
 62
     0
 10
154.9599604796978
 20
32.536467271300737
 30
0.0
 11
154.9599604796978
 21
32.536467271300737
 31
0.0
  0
LINE
  5
7FF
  8
0
 62
     0
 10
165.40953175668241
 20
31.019293241033751
 30
0.0
 11
165.40953175668241
 21
31.019293241033751
 31
0.0
  0
LINE
  5
800
  8
0
 62
     0
 10
162.36641954899841
 20
33.807791822967388
 30
0.0
 11
162.36641954899841
 21
33.807791822967388
 31
0.0
  0
LINE
  5
801
  8
0
 62
     0
 10
155.4843042485445
 20
40.114088615955772
 30
0.0
 11
155.4843042485445
 21
40.114088615955772
 31
0.0
  0
LINE
  5
802
  8
0
 62
     0
 10
172.81599082598331
 20
32.290617792700402
 30
0.0
 11
172.81599082598331
 21
32.290617792700402
 31
0.0
  0
LINE
  5
803
  8
0
 62
     0
 10
169.7728786182995
 20
35.07911637463404
 30
0.0
 11
169.7728786182995
 21
35.07911637463404
 31
0.0
  0
LINE
  5
804
  8
0
 62
     0
 10
162.8907633178454
 20
41.385413167622417
 30
0.0
 11
162.8907633178454
 21
41.385413167622417
 31
0.0
  0
LINE
  5
805
  8
0
 62
     0
 10
158.04051062990621
 20
45.829850907442811
 30
0.0
 11
158.04051062990621
 21
45.829850907442811
 31
0.0
  0
LINE
  5
806
  8
0
 62
     0
 10
154.9973984222224
 20
48.618349489376442
 30
0.0
 11
154.9973984222224
 21
48.618349489376442
 31
0.0
  0
LINE
  5
807
  8
0
 62
     0
 10
180.2224498952842
 20
33.561942344367019
 30
0.0
 11
180.2224498952842
 21
33.561942344367019
 31
0.0
  0
LINE
  5
808
  8
0
 62
     0
 10
177.17933768760039
 20
36.350440926300656
 30
0.0
 11
177.17933768760039
 21
36.350440926300656
 31
0.0
  0
LINE
  5
809
  8
0
 62
     0
 10
170.29722238714629
 20
42.65673771928904
 30
0.0
 11
170.29722238714629
 21
42.65673771928904
 31
0.0
  0
LINE
  5
80A
  8
0
 62
     0
 10
165.4469696992071
 20
47.10117545910942
 30
0.0
 11
165.4469696992071
 21
47.10117545910942
 31
0.0
  0
LINE
  5
80B
  8
0
 62
     0
 10
162.4038574915235
 20
49.889674041043072
 30
0.0
 11
162.4038574915235
 21
49.889674041043072
 31
0.0
  0
LINE
  5
80C
  8
0
 62
     0
 10
155.52174219106939
 20
56.195970834031449
 30
0.0
 11
155.52174219106939
 21
56.195970834031449
 31
0.0
  0
LINE
  5
80D
  8
0
 62
     0
 10
177.7036814564471
 20
43.92806227095577
 30
0.0
 11
177.7036814564471
 21
43.92806227095577
 31
0.0
  0
LINE
  5
80E
  8
0
 62
     0
 10
172.85342876850811
 20
48.372500010776157
 30
0.0
 11
172.85342876850811
 21
48.372500010776157
 31
0.0
  0
LINE
  5
80F
  8
0
 62
     0
 10
169.8103165608243
 20
51.160998592709781
 30
0.0
 11
169.8103165608243
 21
51.160998592709781
 31
0.0
  0
LINE
  5
810
  8
0
 62
     0
 10
162.92820126037009
 20
57.467295385698172
 30
0.0
 11
162.92820126037009
 21
57.467295385698172
 31
0.0
  0
LINE
  5
811
  8
0
 62
     0
 10
158.0779485724311
 20
61.911733125518573
 30
0.0
 11
158.0779485724311
 21
61.911733125518573
 31
0.0
  0
LINE
  5
812
  8
0
 62
     0
 10
155.03483636474709
 20
64.700231707452204
 30
0.0
 11
155.03483636474709
 21
64.700231707452204
 31
0.0
  0
LINE
  5
813
  8
0
 62
     0
 10
180.259887837809
 20
49.643824562442781
 30
0.0
 11
180.259887837809
 21
49.643824562442781
 31
0.0
  0
LINE
  5
814
  8
0
 62
     0
 10
177.2167756301252
 20
52.432323144376419
 30
0.0
 11
177.2167756301252
 21
52.432323144376419
 31
0.0
  0
LINE
  5
815
  8
0
 62
     0
 10
170.3346603296711
 20
58.738619937364788
 30
0.0
 11
170.3346603296711
 21
58.738619937364788
 31
0.0
  0
LINE
  5
816
  8
0
 62
     0
 10
165.4844076417321
 20
63.18305767718519
 30
0.0
 11
165.4844076417321
 21
63.18305767718519
 31
0.0
  0
LINE
  5
817
  8
0
 62
     0
 10
162.4412954340483
 20
65.971556259118827
 30
0.0
 11
162.4412954340483
 21
65.971556259118827
 31
0.0
  0
LINE
  5
818
  8
0
 62
     0
 10
155.5591801335942
 20
72.277853052107204
 30
0.0
 11
155.5591801335942
 21
72.277853052107204
 31
0.0
  0
LINE
  5
819
  8
0
 62
     0
 10
177.7411193989721
 20
60.00994448903144
 30
0.0
 11
177.7411193989721
 21
60.00994448903144
 31
0.0
  0
LINE
  5
81A
  8
0
 62
     0
 10
172.890866711033
 20
64.454382228851827
 30
0.0
 11
172.890866711033
 21
64.454382228851827
 31
0.0
  0
LINE
  5
81B
  8
0
 62
     0
 10
169.84775450334919
 20
67.242880810785465
 30
0.0
 11
169.84775450334919
 21
67.242880810785465
 31
0.0
  0
LINE
  5
81C
  8
0
 62
     0
 10
162.96563920289509
 20
73.549177603773842
 30
0.0
 11
162.96563920289509
 21
73.549177603773842
 31
0.0
  0
LINE
  5
81D
  8
0
 62
     0
 10
158.11538651495599
 20
77.993615343594243
 30
0.0
 11
158.11538651495599
 21
77.993615343594243
 31
0.0
  0
LINE
  5
81E
  8
0
 62
     0
 10
155.07227430727221
 20
80.782113925527867
 30
0.0
 11
155.07227430727221
 21
80.782113925527867
 31
0.0
  0
LINE
  5
81F
  8
0
 62
     0
 10
180.29732578033381
 20
65.725706780518465
 30
0.0
 11
180.29732578033381
 21
65.725706780518465
 31
0.0
  0
LINE
  5
820
  8
0
 62
     0
 10
177.25421357265009
 20
68.514205362452103
 30
0.0
 11
177.25421357265009
 21
68.514205362452103
 31
0.0
  0
LINE
  5
821
  8
0
 62
     0
 10
170.37209827219601
 20
74.820502155440479
 30
0.0
 11
170.37209827219601
 21
74.820502155440479
 31
0.0
  0
LINE
  5
822
  8
0
 62
     0
 10
165.52184558425691
 20
79.26493989526081
 30
0.0
 11
165.52184558425691
 21
79.26493989526081
 31
0.0
  0
LINE
  5
823
  8
0
 62
     0
 10
162.4787333765731
 20
82.053438477194504
 30
0.0
 11
162.4787333765731
 21
82.053438477194504
 31
0.0
  0
LINE
  5
824
  8
0
 62
     0
 10
155.596618076119
 20
88.359735270182838
 30
0.0
 11
155.596618076119
 21
88.359735270182838
 31
0.0
  0
LINE
  5
825
  8
0
 62
     0
 10
177.77855734149691
 20
76.09182670710706
 30
0.0
 11
177.77855734149691
 21
76.09182670710706
 31
0.0
  0
LINE
  5
826
  8
0
 62
     0
 10
172.9283046535578
 20
80.536264446927504
 30
0.0
 11
172.9283046535578
 21
80.536264446927504
 31
0.0
  0
LINE
  5
827
  8
0
 62
     0
 10
169.88519244587411
 20
83.324763028861142
 30
0.0
 11
169.88519244587411
 21
83.324763028861142
 31
0.0
  0
LINE
  5
828
  8
0
 62
     0
 10
163.00307714541989
 20
89.631059821849519
 30
0.0
 11
163.00307714541989
 21
89.631059821849519
 31
0.0
  0
LINE
  5
829
  8
0
 62
     0
 10
158.1528244574809
 20
94.075497561669906
 30
0.0
 11
158.1528244574809
 21
94.075497561669906
 31
0.0
  0
LINE
  5
82A
  8
0
 62
     0
 10
155.1097122497971
 20
96.863996143603558
 30
0.0
 11
155.1097122497971
 21
96.863996143603558
 31
0.0
  0
LINE
  5
82B
  8
0
 62
     0
 10
180.3347637228587
 20
81.807588998594184
 30
0.0
 11
180.3347637228587
 21
81.807588998594184
 31
0.0
  0
LINE
  5
82C
  8
0
 62
     0
 10
177.291651515175
 20
84.596087580527794
 30
0.0
 11
177.291651515175
 21
84.596087580527794
 31
0.0
  0
LINE
  5
82D
  8
0
 62
     0
 10
170.40953621472079
 20
90.902384373516185
 30
0.0
 11
170.40953621472079
 21
90.902384373516185
 31
0.0
  0
LINE
  5
82E
  8
0
 62
     0
 10
165.5592835267818
 20
95.346822113336586
 30
0.0
 11
165.5592835267818
 21
95.346822113336586
 31
0.0
  0
LINE
  5
82F
  8
0
 62
     0
 10
162.51617131909799
 20
98.135320695270195
 30
0.0
 11
162.51617131909799
 21
98.135320695270195
 31
0.0
  0
LINE
  5
830
  8
0
 62
     0
 10
155.63405601864389
 20
104.4416174882586
 30
0.0
 11
155.63405601864389
 21
104.4416174882586
 31
0.0
  0
LINE
  5
831
  8
0
 62
     0
 10
177.81599528402171
 20
92.173708925182837
 30
0.0
 11
177.81599528402171
 21
92.173708925182837
 31
0.0
  0
LINE
  5
832
  8
0
 62
     0
 10
172.96574259608261
 20
96.61814666500328
 30
0.0
 11
172.96574259608261
 21
96.61814666500328
 31
0.0
  0
LINE
  5
833
  8
0
 62
     0
 10
169.9226303883988
 20
99.406645246936918
 30
0.0
 11
169.9226303883988
 21
99.406645246936918
 31
0.0
  0
LINE
  5
834
  8
0
 62
     0
 10
163.0405150879447
 20
105.7129420399253
 30
0.0
 11
163.0405150879447
 21
105.7129420399253
 31
0.0
  0
LINE
  5
835
  8
0
 62
     0
 10
158.19026240000571
 20
110.1573797797457
 30
0.0
 11
158.19026240000571
 21
110.1573797797457
 31
0.0
  0
LINE
  5
836
  8
0
 62
     0
 10
155.1471501923219
 20
112.94587836167931
 30
0.0
 11
155.1471501923219
 21
112.94587836167931
 31
0.0
  0
LINE
  5
837
  8
0
 62
     0
 10
180.3722016653835
 20
97.889471216669904
 30
0.0
 11
180.3722016653835
 21
97.889471216669904
 31
0.0
  0
LINE
  5
838
  8
0
 62
     0
 10
177.32908945769969
 20
100.6779697986035
 30
0.0
 11
177.32908945769969
 21
100.6779697986035
 31
0.0
  0
LINE
  5
839
  8
0
 62
     0
 10
170.44697415724559
 20
106.9842665915919
 30
0.0
 11
170.44697415724559
 21
106.9842665915919
 31
0.0
  0
LINE
  5
83A
  8
0
 62
     0
 10
165.5967214693064
 20
111.42870433141231
 30
0.0
 11
165.5967214693064
 21
111.42870433141231
 31
0.0
  0
LINE
  5
83B
  8
0
 62
     0
 10
162.5536092616228
 20
114.2172029133459
 30
0.0
 11
162.5536092616228
 21
114.2172029133459
 31
0.0
  0
LINE
  5
83C
  8
0
 62
     0
 10
155.67149396116869
 20
120.52349970633431
 30
0.0
 11
155.67149396116869
 21
120.52349970633431
 31
0.0
  0
LINE
  5
83D
  8
0
 62
     0
 10
177.85343322654651
 20
108.2555911432585
 30
0.0
 11
177.85343322654651
 21
108.2555911432585
 31
0.0
  0
LINE
  5
83E
  8
0
 62
     0
 10
173.0031805386075
 20
112.7000288830789
 30
0.0
 11
173.0031805386075
 21
112.7000288830789
 31
0.0
  0
LINE
  5
83F
  8
0
 62
     0
 10
169.96006833092369
 20
115.4885274650126
 30
0.0
 11
169.96006833092369
 21
115.4885274650126
 31
0.0
  0
LINE
  5
840
  8
0
 62
     0
 10
163.07795303046959
 20
121.7948242580009
 30
0.0
 11
163.07795303046959
 21
121.7948242580009
 31
0.0
  0
LINE
  5
841
  8
0
 62
     0
 10
158.22770034253051
 20
126.2392619978213
 30
0.0
 11
158.22770034253051
 21
126.2392619978213
 31
0.0
  0
LINE
  5
842
  8
0
 62
     0
 10
155.18458813484671
 20
129.02776057975501
 30
0.0
 11
155.18458813484671
 21
129.02776057975501
 31
0.0
  0
LINE
  5
843
  8
0
 62
     0
 10
180.40963960790839
 20
113.97135343474559
 30
0.0
 11
180.40963960790839
 21
113.97135343474559
 31
0.0
  0
LINE
  5
844
  8
0
 62
     0
 10
177.36652740022461
 20
116.7598520166792
 30
0.0
 11
177.36652740022461
 21
116.7598520166792
 31
0.0
  0
LINE
  5
845
  8
0
 62
     0
 10
170.48441209977051
 20
123.0661488096675
 30
0.0
 11
170.48441209977051
 21
123.0661488096675
 31
0.0
  0
LINE
  5
846
  8
0
 62
     0
 10
165.6341594118314
 20
127.510586549488
 30
0.0
 11
165.6341594118314
 21
127.510586549488
 31
0.0
  0
LINE
  5
847
  8
0
 62
     0
 10
162.5910472041476
 20
130.29908513142161
 30
0.0
 11
162.5910472041476
 21
130.29908513142161
 31
0.0
  0
LINE
  5
848
  8
0
 62
     0
 10
155.7089319036935
 20
136.60538192441001
 30
0.0
 11
155.7089319036935
 21
136.60538192441001
 31
0.0
  0
LINE
  5
849
  8
0
 62
     0
 10
163.1153909729945
 20
137.87670647607661
 30
0.0
 11
163.1153909729945
 21
137.87670647607661
 31
0.0
  0
LINE
  5
84A
  8
0
 62
     0
 10
158.2651382850554
 20
142.32114421589699
 30
0.0
 11
158.2651382850554
 21
142.32114421589699
 31
0.0
  0
LINE
  5
84B
  8
0
 62
     0
 10
177.8908711690714
 20
124.3374733613342
 30
0.0
 11
177.8908711690714
 21
124.3374733613342
 31
0.0
  0
LINE
  5
84C
  8
0
 62
     0
 10
173.04061848113241
 20
128.78191110115461
 30
0.0
 11
173.04061848113241
 21
128.78191110115461
 31
0.0
  0
LINE
  5
84D
  8
0
 62
     0
 10
169.99750627344861
 20
131.57040968308829
 30
0.0
 11
169.99750627344861
 21
131.57040968308829
 31
0.0
  0
LINE
  5
84E
  8
0
 62
     0
 10
180.44707755043319
 20
130.05323565282129
 30
0.0
 11
180.44707755043319
 21
130.05323565282129
 31
0.0
  0
LINE
  5
84F
  8
0
 62
     0
 10
155.96120278303121
 20
32.155315473173822
 30
0.0
 11
155.96120278303121
 21
32.155315473173822
 31
0.0
  0
LINE
  5
850
  8
0
 62
     0
 10
162.7407325413748
 20
31.868878273540108
 30
0.0
 11
162.7407325413748
 21
31.868878273540108
 31
0.0
  0
LINE
  5
851
  8
0
 62
     0
 10
154.3860968791524
 20
37.191368193823763
 30
0.0
 11
154.3860968791524
 21
37.191368193823763
 31
0.0
  0
LINE
  5
852
  8
0
 62
     0
 10
169.52026229971841
 20
31.582441073906448
 30
0.0
 11
169.52026229971841
 21
31.582441073906448
 31
0.0
  0
LINE
  5
853
  8
0
 62
     0
 10
161.1656266374959
 20
36.904930994190089
 30
0.0
 11
161.1656266374959
 21
36.904930994190089
 31
0.0
  0
LINE
  5
854
  8
0
 62
     0
 10
158.48785879703999
 20
38.610857250691268
 30
0.0
 11
158.48785879703999
 21
38.610857250691268
 31
0.0
  0
LINE
  5
855
  8
0
 62
     0
 10
176.29979205806191
 20
31.296003874272831
 30
0.0
 11
176.29979205806191
 21
31.296003874272831
 31
0.0
  0
LINE
  5
856
  8
0
 62
     0
 10
167.9451563958394
 20
36.618493794556471
 30
0.0
 11
167.9451563958394
 21
36.618493794556471
 31
0.0
  0
LINE
  5
857
  8
0
 62
     0
 10
165.26738855538341
 20
38.324420051057608
 30
0.0
 11
165.26738855538341
 21
38.324420051057608
 31
0.0
  0
LINE
  5
858
  8
0
 62
     0
 10
154.18142969589601
 20
45.386954752972443
 30
0.0
 11
154.18142969589601
 21
45.386954752972443
 31
0.0
  0
LINE
  5
859
  8
0
 62
     0
 10
183.0793218164055
 20
31.009566674639132
 30
0.0
 11
183.0793218164055
 21
31.009566674639132
 31
0.0
  0
LINE
  5
85A
  8
0
 62
     0
 10
174.72468615418299
 20
36.332056594922769
 30
0.0
 11
174.72468615418299
 21
36.332056594922769
 31
0.0
  0
LINE
  5
85B
  8
0
 62
     0
 10
172.0469183137271
 20
38.037982851423941
 30
0.0
 11
172.0469183137271
 21
38.037982851423941
 31
0.0
  0
LINE
  5
85C
  8
0
 62
     0
 10
160.9609594542396
 20
45.100517553338769
 30
0.0
 11
160.9609594542396
 21
45.100517553338769
 31
0.0
  0
LINE
  5
85D
  8
0
 62
     0
 10
181.5042159125266
 20
36.045619395289101
 30
0.0
 11
181.5042159125266
 21
36.045619395289101
 31
0.0
  0
LINE
  5
85E
  8
0
 62
     0
 10
178.82644807207069
 20
37.751545651790252
 30
0.0
 11
178.82644807207069
 21
37.751545651790252
 31
0.0
  0
LINE
  5
85F
  8
0
 62
     0
 10
167.74048921258321
 20
44.81408035370508
 30
0.0
 11
167.74048921258321
 21
44.81408035370508
 31
0.0
  0
LINE
  5
860
  8
0
 62
     0
 10
159.38585355036079
 20
50.13657027398871
 30
0.0
 11
159.38585355036079
 21
50.13657027398871
 31
0.0
  0
LINE
  5
861
  8
0
 62
     0
 10
156.70808570990491
 20
51.842496530489903
 30
0.0
 11
156.70808570990491
 21
51.842496530489903
 31
0.0
  0
LINE
  5
862
  8
0
 62
     0
 10
174.5200189709268
 20
44.527643154071392
 30
0.0
 11
174.5200189709268
 21
44.527643154071392
 31
0.0
  0
LINE
  5
863
  8
0
 62
     0
 10
166.16538330870441
 20
49.850133074355043
 30
0.0
 11
166.16538330870441
 21
49.850133074355043
 31
0.0
  0
LINE
  5
864
  8
0
 62
     0
 10
163.48761546824841
 20
51.556059330856201
 30
0.0
 11
163.48761546824841
 21
51.556059330856201
 31
0.0
  0
LINE
  5
865
  8
0
 62
     0
 10
181.2995487292703
 20
44.241205954437767
 30
0.0
 11
181.2995487292703
 21
44.241205954437767
 31
0.0
  0
LINE
  5
866
  8
0
 62
     0
 10
172.94491306704791
 20
49.563695874721418
 30
0.0
 11
172.94491306704791
 21
49.563695874721418
 31
0.0
  0
LINE
  5
867
  8
0
 62
     0
 10
170.26714522659199
 20
51.26962213122259
 30
0.0
 11
170.26714522659199
 21
51.26962213122259
 31
0.0
  0
LINE
  5
868
  8
0
 62
     0
 10
159.1811863671044
 20
58.332156833137418
 30
0.0
 11
159.1811863671044
 21
58.332156833137418
 31
0.0
  0
LINE
  5
869
  8
0
 62
     0
 10
179.72444282539121
 20
49.277258675087701
 30
0.0
 11
179.72444282539121
 21
49.277258675087701
 31
0.0
  0
LINE
  5
86A
  8
0
 62
     0
 10
177.04667498493561
 20
50.983184931588859
 30
0.0
 11
177.04667498493561
 21
50.983184931588859
 31
0.0
  0
LINE
  5
86B
  8
0
 62
     0
 10
165.9607161254481
 20
58.045719633503701
 30
0.0
 11
165.9607161254481
 21
58.045719633503701
 31
0.0
  0
LINE
  5
86C
  8
0
 62
     0
 10
157.60608046322571
 20
63.368209553787338
 30
0.0
 11
157.60608046322571
 21
63.368209553787338
 31
0.0
  0
LINE
  5
86D
  8
0
 62
     0
 10
154.92831262276971
 20
65.07413581028851
 30
0.0
 11
154.92831262276971
 21
65.07413581028851
 31
0.0
  0
LINE
  5
86E
  8
0
 62
     0
 10
172.74024588379169
 20
57.759282433869991
 30
0.0
 11
172.74024588379169
 21
57.759282433869991
 31
0.0
  0
LINE
  5
86F
  8
0
 62
     0
 10
164.38561022156929
 20
63.081772354153642
 30
0.0
 11
164.38561022156929
 21
63.081772354153642
 31
0.0
  0
LINE
  5
870
  8
0
 62
     0
 10
161.7078423811133
 20
64.787698610654786
 30
0.0
 11
161.7078423811133
 21
64.787698610654786
 31
0.0
  0
LINE
  5
871
  8
0
 62
     0
 10
179.51977564213519
 20
57.472845234236402
 30
0.0
 11
179.51977564213519
 21
57.472845234236402
 31
0.0
  0
LINE
  5
872
  8
0
 62
     0
 10
171.16513997991271
 20
62.795335154520053
 30
0.0
 11
171.16513997991271
 21
62.795335154520053
 31
0.0
  0
LINE
  5
873
  8
0
 62
     0
 10
168.4873721394568
 20
64.501261411021218
 30
0.0
 11
168.4873721394568
 21
64.501261411021218
 31
0.0
  0
LINE
  5
874
  8
0
 62
     0
 10
157.4014132799692
 20
71.563796112936046
 30
0.0
 11
157.4014132799692
 21
71.563796112936046
 31
0.0
  0
LINE
  5
875
  8
0
 62
     0
 10
177.94466973825641
 20
62.508897954886251
 30
0.0
 11
177.94466973825641
 21
62.508897954886251
 31
0.0
  0
LINE
  5
876
  8
0
 62
     0
 10
175.26690189780061
 20
64.214824211387423
 30
0.0
 11
175.26690189780061
 21
64.214824211387423
 31
0.0
  0
LINE
  5
877
  8
0
 62
     0
 10
164.1809430383131
 20
71.277358913302251
 30
0.0
 11
164.1809430383131
 21
71.277358913302251
 31
0.0
  0
LINE
  5
878
  8
0
 62
     0
 10
155.8263073760906
 20
76.599848833585895
 30
0.0
 11
155.8263073760906
 21
76.599848833585895
 31
0.0
  0
LINE
  5
879
  8
0
 62
     0
 10
182.04643165614399
 20
63.928387011753813
 30
0.0
 11
182.04643165614399
 21
63.928387011753813
 31
0.0
  0
LINE
  5
87A
  8
0
 62
     0
 10
170.9604727966564
 20
70.990921713668641
 30
0.0
 11
170.9604727966564
 21
70.990921713668641
 31
0.0
  0
LINE
  5
87B
  8
0
 62
     0
 10
162.6058371344341
 20
76.313411633952299
 30
0.0
 11
162.6058371344341
 21
76.313411633952299
 31
0.0
  0
LINE
  5
87C
  8
0
 62
     0
 10
159.92806929397821
 20
78.019337890453457
 30
0.0
 11
159.92806929397821
 21
78.019337890453457
 31
0.0
  0
LINE
  5
87D
  8
0
 62
     0
 10
177.7400025550001
 20
70.704484514035002
 30
0.0
 11
177.7400025550001
 21
70.704484514035002
 31
0.0
  0
LINE
  5
87E
  8
0
 62
     0
 10
169.3853668927776
 20
76.026974434318632
 30
0.0
 11
169.3853668927776
 21
76.026974434318632
 31
0.0
  0
LINE
  5
87F
  8
0
 62
     0
 10
166.70759905232171
 20
77.732900690819818
 30
0.0
 11
166.70759905232171
 21
77.732900690819818
 31
0.0
  0
LINE
  5
880
  8
0
 62
     0
 10
155.62164019283421
 20
84.795435392734646
 30
0.0
 11
155.62164019283421
 21
84.795435392734646
 31
0.0
  0
LINE
  5
881
  8
0
 62
     0
 10
176.1648966511213
 20
75.740537234684908
 30
0.0
 11
176.1648966511213
 21
75.740537234684908
 31
0.0
  0
LINE
  5
882
  8
0
 62
     0
 10
173.48712881066541
 20
77.446463491186066
 30
0.0
 11
173.48712881066541
 21
77.446463491186066
 31
0.0
  0
LINE
  5
883
  8
0
 62
     0
 10
162.40116995117791
 20
84.508998193100908
 30
0.0
 11
162.40116995117791
 21
84.508998193100908
 31
0.0
  0
LINE
  5
884
  8
0
 62
     0
 10
154.04653428895551
 20
89.831488113384552
 30
0.0
 11
154.04653428895551
 21
89.831488113384552
 31
0.0
  0
LINE
  5
885
  8
0
 62
     0
 10
182.9444264094648
 20
75.454100035051283
 30
0.0
 11
182.9444264094648
 21
75.454100035051283
 31
0.0
  0
LINE
  5
886
  8
0
 62
     0
 10
180.2666585690088
 20
77.160026291552455
 30
0.0
 11
180.2666585690088
 21
77.160026291552455
 31
0.0
  0
LINE
  5
887
  8
0
 62
     0
 10
169.18069970952141
 20
84.222560993467283
 30
0.0
 11
169.18069970952141
 21
84.222560993467283
 31
0.0
  0
LINE
  5
888
  8
0
 62
     0
 10
160.8260640472989
 20
89.545050913750913
 30
0.0
 11
160.8260640472989
 21
89.545050913750913
 31
0.0
  0
LINE
  5
889
  8
0
 62
     0
 10
158.14829620684301
 20
91.250977170252099
 30
0.0
 11
158.14829620684301
 21
91.250977170252099
 31
0.0
  0
LINE
  5
88A
  8
0
 62
     0
 10
175.96022946786499
 20
83.936123793833545
 30
0.0
 11
175.96022946786499
 21
83.936123793833545
 31
0.0
  0
LINE
  5
88B
  8
0
 62
     0
 10
167.6055938056426
 20
89.258613714117217
 30
0.0
 11
167.6055938056426
 21
89.258613714117217
 31
0.0
  0
LINE
  5
88C
  8
0
 62
     0
 10
164.92782596518671
 20
90.964539970618404
 30
0.0
 11
164.92782596518671
 21
90.964539970618404
 31
0.0
  0
LINE
  5
88D
  8
0
 62
     0
 10
153.84186710569921
 20
98.027074672533203
 30
0.0
 11
153.84186710569921
 21
98.027074672533203
 31
0.0
  0
LINE
  5
88E
  8
0
 62
     0
 10
182.73975922620861
 20
83.649686594199878
 30
0.0
 11
182.73975922620861
 21
83.649686594199878
 31
0.0
  0
LINE
  5
88F
  8
0
 62
     0
 10
174.38512356398621
 20
88.972176514483479
 30
0.0
 11
174.38512356398621
 21
88.972176514483479
 31
0.0
  0
LINE
  5
890
  8
0
 62
     0
 10
171.7073557235303
 20
90.678102770984694
 30
0.0
 11
171.7073557235303
 21
90.678102770984694
 31
0.0
  0
LINE
  5
891
  8
0
 62
     0
 10
160.62139686404279
 20
97.740637472899479
 30
0.0
 11
160.62139686404279
 21
97.740637472899479
 31
0.0
  0
LINE
  5
892
  8
0
 62
     0
 10
181.16465332232971
 20
88.685739314849911
 30
0.0
 11
181.16465332232971
 21
88.685739314849911
 31
0.0
  0
LINE
  5
893
  8
0
 62
     0
 10
178.48688548187371
 20
90.391665571351069
 30
0.0
 11
178.48688548187371
 21
90.391665571351069
 31
0.0
  0
LINE
  5
894
  8
0
 62
     0
 10
167.40092662238629
 20
97.454200273265911
 30
0.0
 11
167.40092662238629
 21
97.454200273265911
 31
0.0
  0
LINE
  5
895
  8
0
 62
     0
 10
159.04629096016379
 20
102.7766901935495
 30
0.0
 11
159.04629096016379
 21
102.7766901935495
 31
0.0
  0
LINE
  5
896
  8
0
 62
     0
 10
156.3685231197079
 20
104.4826164500507
 30
0.0
 11
156.3685231197079
 21
104.4826164500507
 31
0.0
  0
LINE
  5
897
  8
0
 62
     0
 10
174.18045638072991
 20
97.167763073632244
 30
0.0
 11
174.18045638072991
 21
97.167763073632244
 31
0.0
  0
LINE
  5
898
  8
0
 62
     0
 10
165.8258207185074
 20
102.4902529939158
 30
0.0
 11
165.8258207185074
 21
102.4902529939158
 31
0.0
  0
LINE
  5
899
  8
0
 62
     0
 10
163.1480528780514
 20
104.196179250417
 30
0.0
 11
163.1480528780514
 21
104.196179250417
 31
0.0
  0
LINE
  5
89A
  8
0
 62
     0
 10
180.95998613907341
 20
96.881325873998563
 30
0.0
 11
180.95998613907341
 21
96.881325873998563
 31
0.0
  0
LINE
  5
89B
  8
0
 62
     0
 10
172.60535047685099
 20
102.20381579428221
 30
0.0
 11
172.60535047685099
 21
102.20381579428221
 31
0.0
  0
LINE
  5
89C
  8
0
 62
     0
 10
169.9275826363951
 20
103.90974205078339
 30
0.0
 11
169.9275826363951
 21
103.90974205078339
 31
0.0
  0
LINE
  5
89D
  8
0
 62
     0
 10
158.8416237769076
 20
110.97227675269821
 30
0.0
 11
158.8416237769076
 21
110.97227675269821
 31
0.0
  0
LINE
  5
89E
  8
0
 62
     0
 10
179.3848802351946
 20
101.9173785946485
 30
0.0
 11
179.3848802351946
 21
101.9173785946485
 31
0.0
  0
LINE
  5
89F
  8
0
 62
     0
 10
176.70711239473869
 20
103.6233048511497
 30
0.0
 11
176.70711239473869
 21
103.6233048511497
 31
0.0
  0
LINE
  5
8A0
  8
0
 62
     0
 10
165.6211535352511
 20
110.6858395530645
 30
0.0
 11
165.6211535352511
 21
110.6858395530645
 31
0.0
  0
LINE
  5
8A1
  8
0
 62
     0
 10
157.2665178730287
 20
116.0083294733482
 30
0.0
 11
157.2665178730287
 21
116.0083294733482
 31
0.0
  0
LINE
  5
8A2
  8
0
 62
     0
 10
154.58875003257279
 20
117.7142557298493
 30
0.0
 11
154.58875003257279
 21
117.7142557298493
 31
0.0
  0
LINE
  5
8A3
  8
0
 62
     0
 10
172.40068329359471
 20
110.3994023534308
 30
0.0
 11
172.40068329359471
 21
110.3994023534308
 31
0.0
  0
LINE
  5
8A4
  8
0
 62
     0
 10
164.04604763137229
 20
115.7218922737145
 30
0.0
 11
164.04604763137229
 21
115.7218922737145
 31
0.0
  0
LINE
  5
8A5
  8
0
 62
     0
 10
161.3682797909164
 20
117.4278185302157
 30
0.0
 11
161.3682797909164
 21
117.4278185302157
 31
0.0
  0
LINE
  5
8A6
  8
0
 62
     0
 10
179.18021305193841
 20
110.11296515379711
 30
0.0
 11
179.18021305193841
 21
110.11296515379711
 31
0.0
  0
LINE
  5
8A7
  8
0
 62
     0
 10
170.8255773897159
 20
115.43545507408081
 30
0.0
 11
170.8255773897159
 21
115.43545507408081
 31
0.0
  0
LINE
  5
8A8
  8
0
 62
     0
 10
168.14780954925999
 20
117.14138133058179
 30
0.0
 11
168.14780954925999
 21
117.14138133058179
 31
0.0
  0
LINE
  5
8A9
  8
0
 62
     0
 10
157.06185068977251
 20
124.20391603249681
 30
0.0
 11
157.06185068977251
 21
124.20391603249681
 31
0.0
  0
LINE
  5
8AA
  8
0
 62
     0
 10
177.6051071480592
 20
115.1490178744472
 30
0.0
 11
177.6051071480592
 21
115.1490178744472
 31
0.0
  0
LINE
  5
8AB
  8
0
 62
     0
 10
174.9273393076034
 20
116.8549441309483
 30
0.0
 11
174.9273393076034
 21
116.8549441309483
 31
0.0
  0
LINE
  5
8AC
  8
0
 62
     0
 10
163.8413804481159
 20
123.9174788328632
 30
0.0
 11
163.8413804481159
 21
123.9174788328632
 31
0.0
  0
LINE
  5
8AD
  8
0
 62
     0
 10
155.48674478589359
 20
129.2399687531468
 30
0.0
 11
155.48674478589359
 21
129.2399687531468
 31
0.0
  0
LINE
  5
8AE
  8
0
 62
     0
 10
181.70686906594719
 20
116.5685069313146
 30
0.0
 11
181.70686906594719
 21
116.5685069313146
 31
0.0
  0
LINE
  5
8AF
  8
0
 62
     0
 10
170.62091020645971
 20
123.6310416332294
 30
0.0
 11
170.62091020645971
 21
123.6310416332294
 31
0.0
  0
LINE
  5
8B0
  8
0
 62
     0
 10
162.26627454423729
 20
128.9535315535131
 30
0.0
 11
162.26627454423729
 21
128.9535315535131
 31
0.0
  0
LINE
  5
8B1
  8
0
 62
     0
 10
159.58850670378129
 20
130.6594578100142
 30
0.0
 11
159.58850670378129
 21
130.6594578100142
 31
0.0
  0
LINE
  5
8B2
  8
0
 62
     0
 10
177.4004399648033
 20
123.3446044335958
 30
0.0
 11
177.4004399648033
 21
123.3446044335958
 31
0.0
  0
LINE
  5
8B3
  8
0
 62
     0
 10
169.04580430258079
 20
128.66709435387941
 30
0.0
 11
169.04580430258079
 21
128.66709435387941
 31
0.0
  0
LINE
  5
8B4
  8
0
 62
     0
 10
166.36803646212491
 20
130.37302061038059
 30
0.0
 11
166.36803646212491
 21
130.37302061038059
 31
0.0
  0
LINE
  5
8B5
  8
0
 62
     0
 10
155.2820776026374
 20
137.43555531229541
 30
0.0
 11
155.2820776026374
 21
137.43555531229541
 31
0.0
  0
LINE
  5
8B6
  8
0
 62
     0
 10
175.8253340609244
 20
128.3806571542458
 30
0.0
 11
175.8253340609244
 21
128.3806571542458
 31
0.0
  0
LINE
  5
8B7
  8
0
 62
     0
 10
173.14756622046849
 20
130.0865834107469
 30
0.0
 11
173.14756622046849
 21
130.0865834107469
 31
0.0
  0
LINE
  5
8B8
  8
0
 62
     0
 10
162.06160736098099
 20
137.14911811266171
 30
0.0
 11
162.06160736098099
 21
137.14911811266171
 31
0.0
  0
LINE
  5
8B9
  8
0
 62
     0
 10
153.70697169875851
 20
142.4716080329454
 30
0.0
 11
153.70697169875851
 21
142.4716080329454
 31
0.0
  0
LINE
  5
8BA
  8
0
 62
     0
 10
160.48650145710221
 20
142.18517083331159
 30
0.0
 11
160.48650145710221
 21
142.18517083331159
 31
0.0
  0
LINE
  5
8BB
  8
0
 62
     0
 10
182.60486381926799
 20
128.09421995461199
 30
0.0
 11
182.60486381926799
 21
128.09421995461199
 31
0.0
  0
LINE
  5
8BC
  8
0
 62
     0
 10
179.9270959788121
 20
129.8001462111132
 30
0.0
 11
179.9270959788121
 21
129.8001462111132
 31
0.0
  0
LINE
  5
8BD
  8
0
 62
     0
 10
178.9504389334428
 20
30.45484011466327
 30
0.0
 11
178.9504389334428
 21
30.45484011466327
 31
0.0
  0
LINE
  5
8BE
  8
0
 62
     0
 10
182.29142205895809
 20
35.46386885556926
 30
0.0
 11
182.29142205895809
 21
35.46386885556926
 31
0.0
  0
LINE
  5
8BF
  8
0
 62
     0
 10
177.48152645848921
 20
34.830634086632898
 30
0.0
 11
177.48152645848921
 21
34.830634086632898
 31
0.0
  0
LINE
  5
8C0
  8
0
 62
     0
 10
174.30221064927869
 20
34.412069219731251
 30
0.0
 11
174.30221064927869
 21
34.412069219731251
 31
0.0
  0
LINE
  5
8C1
  8
0
 62
     0
 10
166.28152086525071
 20
33.356125377290248
 30
0.0
 11
166.28152086525071
 21
33.356125377290248
 31
0.0
  0
LINE
  5
8C2
  8
0
 62
     0
 10
161.47162526478181
 20
32.722890608353893
 30
0.0
 11
161.47162526478181
 21
32.722890608353893
 31
0.0
  0
LINE
  5
8C3
  8
0
 62
     0
 10
158.2923094555714
 20
32.304325741452253
 30
0.0
 11
158.2923094555714
 21
32.304325741452253
 31
0.0
  0
LINE
  5
8C4
  8
0
 62
     0
 10
180.82250958400439
 20
39.839662827538852
 30
0.0
 11
180.82250958400439
 21
39.839662827538852
 31
0.0
  0
LINE
  5
8C5
  8
0
 62
     0
 10
177.64319377479401
 20
39.421097960637212
 30
0.0
 11
177.64319377479401
 21
39.421097960637212
 31
0.0
  0
LINE
  5
8C6
  8
0
 62
     0
 10
169.62250399076581
 20
38.365154118196223
 30
0.0
 11
169.62250399076581
 21
38.365154118196223
 31
0.0
  0
LINE
  5
8C7
  8
0
 62
     0
 10
164.8126083902971
 20
37.731919349259861
 30
0.0
 11
164.8126083902971
 21
37.731919349259861
 31
0.0
  0
LINE
  5
8C8
  8
0
 62
     0
 10
161.63329258108661
 20
37.313354482358207
 30
0.0
 11
161.63329258108661
 21
37.313354482358207
 31
0.0
  0
LINE
  5
8C9
  8
0
 62
     0
 10
153.6126027970586
 20
36.257410639917211
 30
0.0
 11
153.6126027970586
 21
36.257410639917211
 31
0.0
  0
LINE
  5
8CA
  8
0
 62
     0
 10
180.98417690030919
 20
44.430126701543188
 30
0.0
 11
180.98417690030919
 21
44.430126701543188
 31
0.0
  0
LINE
  5
8CB
  8
0
 62
     0
 10
172.9634871162813
 20
43.374182859102199
 30
0.0
 11
172.9634871162813
 21
43.374182859102199
 31
0.0
  0
LINE
  5
8CC
  8
0
 62
     0
 10
168.15359151581239
 20
42.740948090165837
 30
0.0
 11
168.15359151581239
 21
42.740948090165837
 31
0.0
  0
LINE
  5
8CD
  8
0
 62
     0
 10
164.9742757066019
 20
42.32238322326419
 30
0.0
 11
164.9742757066019
 21
42.32238322326419
 31
0.0
  0
LINE
  5
8CE
  8
0
 62
     0
 10
156.95358592257381
 20
41.266439380823194
 30
0.0
 11
156.95358592257381
 21
41.266439380823194
 31
0.0
  0
LINE
  5
8CF
  8
0
 62
     0
 10
176.30447024179659
 20
48.383211600008138
 30
0.0
 11
176.30447024179659
 21
48.383211600008138
 31
0.0
  0
LINE
  5
8D0
  8
0
 62
     0
 10
171.49457464132769
 20
47.74997683107177
 30
0.0
 11
171.49457464132769
 21
47.74997683107177
 31
0.0
  0
LINE
  5
8D1
  8
0
 62
     0
 10
168.31525883211719
 20
47.331411964170137
 30
0.0
 11
168.31525883211719
 21
47.331411964170137
 31
0.0
  0
LINE
  5
8D2
  8
0
 62
     0
 10
160.29456904808919
 20
46.275468121729148
 30
0.0
 11
160.29456904808919
 21
46.275468121729148
 31
0.0
  0
LINE
  5
8D3
  8
0
 62
     0
 10
155.48467344762031
 20
45.6422333527928
 30
0.0
 11
155.48467344762031
 21
45.6422333527928
 31
0.0
  0
LINE
  5
8D4
  8
0
 62
     0
 10
179.6454533673118
 20
53.392240340914142
 30
0.0
 11
179.6454533673118
 21
53.392240340914142
 31
0.0
  0
LINE
  5
8D5
  8
0
 62
     0
 10
174.83555776684301
 20
52.759005571977781
 30
0.0
 11
174.83555776684301
 21
52.759005571977781
 31
0.0
  0
LINE
  5
8D6
  8
0
 62
     0
 10
171.6562419576324
 20
52.340440705076141
 30
0.0
 11
171.6562419576324
 21
52.340440705076141
 31
0.0
  0
LINE
  5
8D7
  8
0
 62
     0
 10
163.63555217360451
 20
51.284496862635152
 30
0.0
 11
163.63555217360451
 21
51.284496862635152
 31
0.0
  0
LINE
  5
8D8
  8
0
 62
     0
 10
158.8256565731356
 20
50.65126209369879
 30
0.0
 11
158.8256565731356
 21
50.65126209369879
 31
0.0
  0
LINE
  5
8D9
  8
0
 62
     0
 10
155.64634076392511
 20
50.232697226797143
 30
0.0
 11
155.64634076392511
 21
50.232697226797143
 31
0.0
  0
LINE
  5
8DA
  8
0
 62
     0
 10
182.9864364928271
 20
58.401269081820111
 30
0.0
 11
182.9864364928271
 21
58.401269081820111
 31
0.0
  0
LINE
  5
8DB
  8
0
 62
     0
 10
178.1765408923581
 20
57.768034312883742
 30
0.0
 11
178.1765408923581
 21
57.768034312883742
 31
0.0
  0
LINE
  5
8DC
  8
0
 62
     0
 10
174.99722508314781
 20
57.349469445982102
 30
0.0
 11
174.99722508314781
 21
57.349469445982102
 31
0.0
  0
LINE
  5
8DD
  8
0
 62
     0
 10
166.9765352991198
 20
56.293525603541099
 30
0.0
 11
166.9765352991198
 21
56.293525603541099
 31
0.0
  0
LINE
  5
8DE
  8
0
 62
     0
 10
162.1666396986509
 20
55.660290834604737
 30
0.0
 11
162.1666396986509
 21
55.660290834604737
 31
0.0
  0
LINE
  5
8DF
  8
0
 62
     0
 10
158.9873238894404
 20
55.24172596770309
 30
0.0
 11
158.9873238894404
 21
55.24172596770309
 31
0.0
  0
LINE
  5
8E0
  8
0
 62
     0
 10
181.51752401787351
 20
62.777063053789732
 30
0.0
 11
181.51752401787351
 21
62.777063053789732
 31
0.0
  0
LINE
  5
8E1
  8
0
 62
     0
 10
178.33820820866299
 20
62.358498186888092
 30
0.0
 11
178.33820820866299
 21
62.358498186888092
 31
0.0
  0
LINE
  5
8E2
  8
0
 62
     0
 10
170.31751842463501
 20
61.302554344447088
 30
0.0
 11
170.31751842463501
 21
61.302554344447088
 31
0.0
  0
LINE
  5
8E3
  8
0
 62
     0
 10
165.50762282416611
 20
60.669319575510727
 30
0.0
 11
165.50762282416611
 21
60.669319575510727
 31
0.0
  0
LINE
  5
8E4
  8
0
 62
     0
 10
162.3283070149557
 20
60.250754708609058
 30
0.0
 11
162.3283070149557
 21
60.250754708609058
 31
0.0
  0
LINE
  5
8E5
  8
0
 62
     0
 10
154.30761723092769
 20
59.194810866168091
 30
0.0
 11
154.30761723092769
 21
59.194810866168091
 31
0.0
  0
LINE
  5
8E6
  8
0
 62
     0
 10
181.67919133417831
 20
67.367526927794046
 30
0.0
 11
181.67919133417831
 21
67.367526927794046
 31
0.0
  0
LINE
  5
8E7
  8
0
 62
     0
 10
173.65850155015031
 20
66.311583085353035
 30
0.0
 11
173.65850155015031
 21
66.311583085353035
 31
0.0
  0
LINE
  5
8E8
  8
0
 62
     0
 10
168.8486059496814
 20
65.678348316416674
 30
0.0
 11
168.8486059496814
 21
65.678348316416674
 31
0.0
  0
LINE
  5
8E9
  8
0
 62
     0
 10
165.66929014047099
 20
65.259783449515041
 30
0.0
 11
165.66929014047099
 21
65.259783449515041
 31
0.0
  0
LINE
  5
8EA
  8
0
 62
     0
 10
157.64860035644301
 20
64.203839607074045
 30
0.0
 11
157.64860035644301
 21
64.203839607074045
 31
0.0
  0
LINE
  5
8EB
  8
0
 62
     0
 10
176.99948467566571
 20
71.320611826259025
 30
0.0
 11
176.99948467566571
 21
71.320611826259025
 31
0.0
  0
LINE
  5
8EC
  8
0
 62
     0
 10
172.18958907519681
 20
70.687377057322649
 30
0.0
 11
172.18958907519681
 21
70.687377057322649
 31
0.0
  0
LINE
  5
8ED
  8
0
 62
     0
 10
169.01027326598631
 20
70.268812190421031
 30
0.0
 11
169.01027326598631
 21
70.268812190421031
 31
0.0
  0
LINE
  5
8EE
  8
0
 62
     0
 10
160.98958348195831
 20
69.212868347980034
 30
0.0
 11
160.98958348195831
 21
69.212868347980034
 31
0.0
  0
LINE
  5
8EF
  8
0
 62
     0
 10
156.1796878814894
 20
68.579633579043673
 30
0.0
 11
156.1796878814894
 21
68.579633579043673
 31
0.0
  0
LINE
  5
8F0
  8
0
 62
     0
 10
180.34046780118081
 20
76.329640567164986
 30
0.0
 11
180.34046780118081
 21
76.329640567164986
 31
0.0
  0
LINE
  5
8F1
  8
0
 62
     0
 10
175.53057220071199
 20
75.696405798228639
 30
0.0
 11
175.53057220071199
 21
75.696405798228639
 31
0.0
  0
LINE
  5
8F2
  8
0
 62
     0
 10
172.35125639150121
 20
75.277840931326978
 30
0.0
 11
172.35125639150121
 21
75.277840931326978
 31
0.0
  0
LINE
  5
8F3
  8
0
 62
     0
 10
164.3305666074736
 20
74.221897088885981
 30
0.0
 11
164.3305666074736
 21
74.221897088885981
 31
0.0
  0
LINE
  5
8F4
  8
0
 62
     0
 10
159.52067100700469
 20
73.58866231994962
 30
0.0
 11
159.52067100700469
 21
73.58866231994962
 31
0.0
  0
LINE
  5
8F5
  8
0
 62
     0
 10
156.3413551977942
 20
73.170097453047987
 30
0.0
 11
156.3413551977942
 21
73.170097453047987
 31
0.0
  0
LINE
  5
8F6
  8
0
 62
     0
 10
178.87155532622731
 20
80.705434539134629
 30
0.0
 11
178.87155532622731
 21
80.705434539134629
 31
0.0
  0
LINE
  5
8F7
  8
0
 62
     0
 10
175.69223951701679
 20
80.286869672232996
 30
0.0
 11
175.69223951701679
 21
80.286869672232996
 31
0.0
  0
LINE
  5
8F8
  8
0
 62
     0
 10
167.67154973298889
 20
79.230925829791985
 30
0.0
 11
167.67154973298889
 21
79.230925829791985
 31
0.0
  0
LINE
  5
8F9
  8
0
 62
     0
 10
162.8616541325199
 20
78.597691060855624
 30
0.0
 11
162.8616541325199
 21
78.597691060855624
 31
0.0
  0
LINE
  5
8FA
  8
0
 62
     0
 10
159.68233832330941
 20
78.179126193953977
 30
0.0
 11
159.68233832330941
 21
78.179126193953977
 31
0.0
  0
LINE
  5
8FB
  8
0
 62
     0
 10
182.21253845174249
 20
85.714463280040576
 30
0.0
 11
182.21253845174249
 21
85.714463280040576
 31
0.0
  0
LINE
  5
8FC
  8
0
 62
     0
 10
179.03322264253211
 20
85.295898413138914
 30
0.0
 11
179.03322264253211
 21
85.295898413138914
 31
0.0
  0
LINE
  5
8FD
  8
0
 62
     0
 10
171.0125328585041
 20
84.239954570697932
 30
0.0
 11
171.0125328585041
 21
84.239954570697932
 31
0.0
  0
LINE
  5
8FE
  8
0
 62
     0
 10
166.2026372580352
 20
83.606719801761557
 30
0.0
 11
166.2026372580352
 21
83.606719801761557
 31
0.0
  0
LINE
  5
8FF
  8
0
 62
     0
 10
163.0233214488247
 20
83.188154934859924
 30
0.0
 11
163.0233214488247
 21
83.188154934859924
 31
0.0
  0
LINE
  5
900
  8
0
 62
     0
 10
155.00263166479681
 20
82.132211092418899
 30
0.0
 11
155.00263166479681
 21
82.132211092418899
 31
0.0
  0
LINE
  5
901
  8
0
 62
     0
 10
182.3742057680474
 20
90.304927154044904
 30
0.0
 11
182.3742057680474
 21
90.304927154044904
 31
0.0
  0
LINE
  5
902
  8
0
 62
     0
 10
174.3535159840194
 20
89.248983311603951
 30
0.0
 11
174.3535159840194
 21
89.248983311603951
 31
0.0
  0
LINE
  5
903
  8
0
 62
     0
 10
169.5436203835504
 20
88.615748542667546
 30
0.0
 11
169.5436203835504
 21
88.615748542667546
 31
0.0
  0
LINE
  5
904
  8
0
 62
     0
 10
166.36430457434011
 20
88.197183675765913
 30
0.0
 11
166.36430457434011
 21
88.197183675765913
 31
0.0
  0
LINE
  5
905
  8
0
 62
     0
 10
158.3436147903121
 20
87.141239833324931
 30
0.0
 11
158.3436147903121
 21
87.141239833324931
 31
0.0
  0
LINE
  5
906
  8
0
 62
     0
 10
153.5337191898432
 20
86.508005064388527
 30
0.0
 11
153.5337191898432
 21
86.508005064388527
 31
0.0
  0
LINE
  5
907
  8
0
 62
     0
 10
177.69449910953469
 20
94.258012052509883
 30
0.0
 11
177.69449910953469
 21
94.258012052509883
 31
0.0
  0
LINE
  5
908
  8
0
 62
     0
 10
172.88460350906581
 20
93.624777283573465
 30
0.0
 11
172.88460350906581
 21
93.624777283573465
 31
0.0
  0
LINE
  5
909
  8
0
 62
     0
 10
169.7052876998554
 20
93.20621241667186
 30
0.0
 11
169.7052876998554
 21
93.20621241667186
 31
0.0
  0
LINE
  5
90A
  8
0
 62
     0
 10
161.6845979158274
 20
92.150268574230878
 30
0.0
 11
161.6845979158274
 21
92.150268574230878
 31
0.0
  0
LINE
  5
90B
  8
0
 62
     0
 10
156.87470231535841
 20
91.517033805294517
 30
0.0
 11
156.87470231535841
 21
91.517033805294517
 31
0.0
  0
LINE
  5
90C
  8
0
 62
     0
 10
153.695386506148
 20
91.098468938392884
 30
0.0
 11
153.695386506148
 21
91.098468938392884
 31
0.0
  0
LINE
  5
90D
  8
0
 62
     0
 10
181.03548223505001
 20
99.267040793415873
 30
0.0
 11
181.03548223505001
 21
99.267040793415873
 31
0.0
  0
LINE
  5
90E
  8
0
 62
     0
 10
176.22558663458111
 20
98.63380602447954
 30
0.0
 11
176.22558663458111
 21
98.63380602447954
 31
0.0
  0
LINE
  5
90F
  8
0
 62
     0
 10
173.04627082537061
 20
98.215241157577864
 30
0.0
 11
173.04627082537061
 21
98.215241157577864
 31
0.0
  0
LINE
  5
910
  8
0
 62
     0
 10
165.02558104134269
 20
97.159297315136854
 30
0.0
 11
165.02558104134269
 21
97.159297315136854
 31
0.0
  0
LINE
  5
911
  8
0
 62
     0
 10
160.21568544087381
 20
96.526062546200507
 30
0.0
 11
160.21568544087381
 21
96.526062546200507
 31
0.0
  0
LINE
  5
912
  8
0
 62
     0
 10
157.03636963166329
 20
96.107497679298859
 30
0.0
 11
157.03636963166329
 21
96.107497679298859
 31
0.0
  0
LINE
  5
913
  8
0
 62
     0
 10
179.5665697600964
 20
103.6428347653855
 30
0.0
 11
179.5665697600964
 21
103.6428347653855
 31
0.0
  0
LINE
  5
914
  8
0
 62
     0
 10
176.38725395088591
 20
103.2242698984839
 30
0.0
 11
176.38725395088591
 21
103.2242698984839
 31
0.0
  0
LINE
  5
915
  8
0
 62
     0
 10
168.36656416685801
 20
102.1683260560428
 30
0.0
 11
168.36656416685801
 21
102.1683260560428
 31
0.0
  0
LINE
  5
916
  8
0
 62
     0
 10
163.55666856638911
 20
101.5350912871065
 30
0.0
 11
163.55666856638911
 21
101.5350912871065
 31
0.0
  0
LINE
  5
917
  8
0
 62
     0
 10
160.37735275717861
 20
101.11652642020481
 30
0.0
 11
160.37735275717861
 21
101.11652642020481
 31
0.0
  0
LINE
  5
918
  8
0
 62
     0
 10
182.90755288561169
 20
108.65186350629141
 30
0.0
 11
182.90755288561169
 21
108.65186350629141
 31
0.0
  0
LINE
  5
919
  8
0
 62
     0
 10
179.72823707640109
 20
108.2332986393898
 30
0.0
 11
179.72823707640109
 21
108.2332986393898
 31
0.0
  0
LINE
  5
91A
  8
0
 62
     0
 10
171.70754729237319
 20
107.1773547969488
 30
0.0
 11
171.70754729237319
 21
107.1773547969488
 31
0.0
  0
LINE
  5
91B
  8
0
 62
     0
 10
166.89765169190429
 20
106.5441200280124
 30
0.0
 11
166.89765169190429
 21
106.5441200280124
 31
0.0
  0
LINE
  5
91C
  8
0
 62
     0
 10
163.71833588269391
 20
106.1255551611108
 30
0.0
 11
163.71833588269391
 21
106.1255551611108
 31
0.0
  0
LINE
  5
91D
  8
0
 62
     0
 10
155.6976460986659
 20
105.0696113186698
 30
0.0
 11
155.6976460986659
 21
105.0696113186698
 31
0.0
  0
LINE
  5
91E
  8
0
 62
     0
 10
183.06922020191641
 20
113.24232738029581
 30
0.0
 11
183.06922020191641
 21
113.24232738029581
 31
0.0
  0
LINE
  5
91F
  8
0
 62
     0
 10
175.0485304178884
 20
112.18638353785479
 30
0.0
 11
175.0485304178884
 21
112.18638353785479
 31
0.0
  0
LINE
  5
920
  8
0
 62
     0
 10
170.23863481741961
 20
111.5531487689184
 30
0.0
 11
170.23863481741961
 21
111.5531487689184
 31
0.0
  0
LINE
  5
921
  8
0
 62
     0
 10
167.05931900820909
 20
111.1345839020168
 30
0.0
 11
167.05931900820909
 21
111.1345839020168
 31
0.0
  0
LINE
  5
922
  8
0
 62
     0
 10
159.03862922418111
 20
110.0786400595758
 30
0.0
 11
159.03862922418111
 21
110.0786400595758
 31
0.0
  0
LINE
  5
923
  8
0
 62
     0
 10
154.2287336237122
 20
109.4454052906394
 30
0.0
 11
154.2287336237122
 21
109.4454052906394
 31
0.0
  0
LINE
  5
924
  8
0
 62
     0
 10
178.38951354340381
 20
117.1954122787608
 30
0.0
 11
178.38951354340381
 21
117.1954122787608
 31
0.0
  0
LINE
  5
925
  8
0
 62
     0
 10
173.5796179429349
 20
116.56217750982439
 30
0.0
 11
173.5796179429349
 21
116.56217750982439
 31
0.0
  0
LINE
  5
926
  8
0
 62
     0
 10
170.40030213372441
 20
116.1436126429227
 30
0.0
 11
170.40030213372441
 21
116.1436126429227
 31
0.0
  0
LINE
  5
927
  8
0
 62
     0
 10
162.3796123496964
 20
115.08766880048169
 30
0.0
 11
162.3796123496964
 21
115.08766880048169
 31
0.0
  0
LINE
  5
928
  8
0
 62
     0
 10
157.5697167492275
 20
114.4544340315454
 30
0.0
 11
157.5697167492275
 21
114.4544340315454
 31
0.0
  0
LINE
  5
929
  8
0
 62
     0
 10
154.390400940017
 20
114.0358691646437
 30
0.0
 11
154.390400940017
 21
114.0358691646437
 31
0.0
  0
LINE
  5
92A
  8
0
 62
     0
 10
181.7304966689191
 20
122.2044410196667
 30
0.0
 11
181.7304966689191
 21
122.2044410196667
 31
0.0
  0
LINE
  5
92B
  8
0
 62
     0
 10
176.9206010684502
 20
121.5712062507304
 30
0.0
 11
176.9206010684502
 21
121.5712062507304
 31
0.0
  0
LINE
  5
92C
  8
0
 62
     0
 10
173.7412852592397
 20
121.15264138382869
 30
0.0
 11
173.7412852592397
 21
121.15264138382869
 31
0.0
  0
LINE
  5
92D
  8
0
 62
     0
 10
165.7205954752117
 20
120.0966975413877
 30
0.0
 11
165.7205954752117
 21
120.0966975413877
 31
0.0
  0
LINE
  5
92E
  8
0
 62
     0
 10
160.91069987474279
 20
119.46346277245139
 30
0.0
 11
160.91069987474279
 21
119.46346277245139
 31
0.0
  0
LINE
  5
92F
  8
0
 62
     0
 10
157.73138406553241
 20
119.0448979055497
 30
0.0
 11
157.73138406553241
 21
119.0448979055497
 31
0.0
  0
LINE
  5
930
  8
0
 62
     0
 10
180.26158419396549
 20
126.5802349916363
 30
0.0
 11
180.26158419396549
 21
126.5802349916363
 31
0.0
  0
LINE
  5
931
  8
0
 62
     0
 10
177.082268384755
 20
126.1616701247347
 30
0.0
 11
177.082268384755
 21
126.1616701247347
 31
0.0
  0
LINE
  5
932
  8
0
 62
     0
 10
169.06157860072699
 20
125.1057262822937
 30
0.0
 11
169.06157860072699
 21
125.1057262822937
 31
0.0
  0
LINE
  5
933
  8
0
 62
     0
 10
164.25168300025811
 20
124.4724915133573
 30
0.0
 11
164.25168300025811
 21
124.4724915133573
 31
0.0
  0
LINE
  5
934
  8
0
 62
     0
 10
161.07236719104759
 20
124.05392664645569
 30
0.0
 11
161.07236719104759
 21
124.05392664645569
 31
0.0
  0
LINE
  5
935
  8
0
 62
     0
 10
180.42325151027021
 20
131.1706988656407
 30
0.0
 11
180.42325151027021
 21
131.1706988656407
 31
0.0
  0
LINE
  5
936
  8
0
 62
     0
 10
172.40256172624231
 20
130.11475502319971
 30
0.0
 11
172.40256172624231
 21
130.11475502319971
 31
0.0
  0
LINE
  5
937
  8
0
 62
     0
 10
167.59266612577341
 20
129.4815202542633
 30
0.0
 11
167.59266612577341
 21
129.4815202542633
 31
0.0
  0
LINE
  5
938
  8
0
 62
     0
 10
164.41335031656291
 20
129.06295538736171
 30
0.0
 11
164.41335031656291
 21
129.06295538736171
 31
0.0
  0
LINE
  5
939
  8
0
 62
     0
 10
156.39266053253499
 20
128.00701154492069
 30
0.0
 11
156.39266053253499
 21
128.00701154492069
 31
0.0
  0
LINE
  5
93A
  8
0
 62
     0
 10
167.75433344207809
 20
134.07198412826759
 30
0.0
 11
167.75433344207809
 21
134.07198412826759
 31
0.0
  0
LINE
  5
93B
  8
0
 62
     0
 10
159.73364365805031
 20
133.01604028582659
 30
0.0
 11
159.73364365805031
 21
133.01604028582659
 31
0.0
  0
LINE
  5
93C
  8
0
 62
     0
 10
154.92374805758141
 20
132.3828055168903
 30
0.0
 11
154.92374805758141
 21
132.3828055168903
 31
0.0
  0
LINE
  5
93D
  8
0
 62
     0
 10
163.07462678356541
 20
138.02506902673261
 30
0.0
 11
163.07462678356541
 21
138.02506902673261
 31
0.0
  0
LINE
  5
93E
  8
0
 62
     0
 10
158.26473118309659
 20
137.39183425779621
 30
0.0
 11
158.26473118309659
 21
137.39183425779621
 31
0.0
  0
LINE
  5
93F
  8
0
 62
     0
 10
155.08541537388609
 20
136.97326939089459
 30
0.0
 11
155.08541537388609
 21
136.97326939089459
 31
0.0
  0
LINE
  5
940
  8
0
 62
     0
 10
158.4263984994015
 20
141.9822981318006
 30
0.0
 11
158.4263984994015
 21
141.9822981318006
 31
0.0
  0
LINE
  5
941
  8
0
 62
     0
 10
177.85930248279561
 20
32.113863228906702
 30
0.0
 11
177.85930248279561
 21
32.113863228906702
 31
0.0
  0
LINE
  5
942
  8
0
 62
     0
 10
178.01373264532509
 20
36.341615172564367
 30
0.0
 11
178.01373264532509
 21
36.341615172564367
 31
0.0
  0
LINE
  5
943
  8
0
 62
     0
 10
171.26308907278701
 20
31.161664173129171
 30
0.0
 11
171.26308907278701
 21
31.161664173129171
 31
0.0
  0
LINE
  5
944
  8
0
 62
     0
 10
178.1681628078548
 20
40.569367116222011
 30
0.0
 11
178.1681628078548
 21
40.569367116222011
 31
0.0
  0
LINE
  5
945
  8
0
 62
     0
 10
171.41751923531669
 20
35.389416116786812
 30
0.0
 11
171.41751923531669
 21
35.389416116786812
 31
0.0
  0
LINE
  5
946
  8
0
 62
     0
 10
164.8482362363691
 20
30.348627980023011
 30
0.0
 11
164.8482362363691
 21
30.348627980023011
 31
0.0
  0
LINE
  5
947
  8
0
 62
     0
 10
178.32259297038439
 20
44.797119059879677
 30
0.0
 11
178.32259297038439
 21
44.797119059879677
 31
0.0
  0
LINE
  5
948
  8
0
 62
     0
 10
171.57194939784631
 20
39.617168060444477
 30
0.0
 11
171.57194939784631
 21
39.617168060444477
 31
0.0
  0
LINE
  5
949
  8
0
 62
     0
 10
165.0026663988987
 20
34.57637992368069
 30
0.0
 11
165.0026663988987
 21
34.57637992368069
 31
0.0
  0
LINE
  5
94A
  8
0
 62
     0
 10
178.4770231329139
 20
49.02487100353737
 30
0.0
 11
178.4770231329139
 21
49.02487100353737
 31
0.0
  0
LINE
  5
94B
  8
0
 62
     0
 10
171.7263795603759
 20
43.844920004102143
 30
0.0
 11
171.7263795603759
 21
43.844920004102143
 31
0.0
  0
LINE
  5
94C
  8
0
 62
     0
 10
165.15709656142829
 20
38.804131867338363
 30
0.0
 11
165.15709656142829
 21
38.804131867338363
 31
0.0
  0
LINE
  5
94D
  8
0
 62
     0
 10
158.48201989455291
 20
33.682165394016231
 30
0.0
 11
158.48201989455291
 21
33.682165394016231
 31
0.0
  0
LINE
  5
94E
  8
0
 62
     0
 10
178.63145329544349
 20
53.252622947194993
 30
0.0
 11
178.63145329544349
 21
53.252622947194993
 31
0.0
  0
LINE
  5
94F
  8
0
 62
     0
 10
171.88080972290541
 20
48.072671947759773
 30
0.0
 11
171.88080972290541
 21
48.072671947759773
 31
0.0
  0
LINE
  5
950
  8
0
 62
     0
 10
165.31152672395791
 20
43.031883810995971
 30
0.0
 11
165.31152672395791
 21
43.031883810995971
 31
0.0
  0
LINE
  5
951
  8
0
 62
     0
 10
158.6364500570825
 20
37.909917337673853
 30
0.0
 11
158.6364500570825
 21
37.909917337673853
 31
0.0
  0
LINE
  5
952
  8
0
 62
     0
 10
178.78588345797311
 20
57.480374890852652
 30
0.0
 11
178.78588345797311
 21
57.480374890852652
 31
0.0
  0
LINE
  5
953
  8
0
 62
     0
 10
172.035239885435
 20
52.300423891417417
 30
0.0
 11
172.035239885435
 21
52.300423891417417
 31
0.0
  0
LINE
  5
954
  8
0
 62
     0
 10
165.4659568864875
 20
47.25963575465363
 30
0.0
 11
165.4659568864875
 21
47.25963575465363
 31
0.0
  0
LINE
  5
955
  8
0
 62
     0
 10
158.79088021961209
 20
42.13766928133149
 30
0.0
 11
158.79088021961209
 21
42.13766928133149
 31
0.0
  0
LINE
  5
956
  8
0
 62
     0
 10
178.94031362050271
 20
61.708126834510281
 30
0.0
 11
178.94031362050271
 21
61.708126834510281
 31
0.0
  0
LINE
  5
957
  8
0
 62
     0
 10
172.1896700479646
 20
56.528175835075082
 30
0.0
 11
172.1896700479646
 21
56.528175835075082
 31
0.0
  0
LINE
  5
958
  8
0
 62
     0
 10
165.6203870490171
 20
51.487387698311267
 30
0.0
 11
165.6203870490171
 21
51.487387698311267
 31
0.0
  0
LINE
  5
959
  8
0
 62
     0
 10
158.94531038214171
 20
46.365421224989099
 30
0.0
 11
158.94531038214171
 21
46.365421224989099
 31
0.0
  0
LINE
  5
95A
  8
0
 62
     0
 10
179.0947437830323
 20
65.935878778167933
 30
0.0
 11
179.0947437830323
 21
65.935878778167933
 31
0.0
  0
LINE
  5
95B
  8
0
 62
     0
 10
172.34410021049419
 20
60.75592777873274
 30
0.0
 11
172.34410021049419
 21
60.75592777873274
 31
0.0
  0
LINE
  5
95C
  8
0
 62
     0
 10
165.7748172115466
 20
55.715139641968939
 30
0.0
 11
165.7748172115466
 21
55.715139641968939
 31
0.0
  0
LINE
  5
95D
  8
0
 62
     0
 10
159.09974054467119
 20
50.593173168646821
 30
0.0
 11
159.09974054467119
 21
50.593173168646821
 31
0.0
  0
LINE
  5
95E
  8
0
 62
     0
 10
179.24917394556181
 20
70.163630721825612
 30
0.0
 11
179.24917394556181
 21
70.163630721825612
 31
0.0
  0
LINE
  5
95F
  8
0
 62
     0
 10
172.49853037302381
 20
64.98367972239042
 30
0.0
 11
172.49853037302381
 21
64.98367972239042
 31
0.0
  0
LINE
  5
960
  8
0
 62
     0
 10
165.92924737407631
 20
59.942891585626612
 30
0.0
 11
165.92924737407631
 21
59.942891585626612
 31
0.0
  0
LINE
  5
961
  8
0
 62
     0
 10
159.2541707072009
 20
54.820925112304472
 30
0.0
 11
159.2541707072009
 21
54.820925112304472
 31
0.0
  0
LINE
  5
962
  8
0
 62
     0
 10
179.40360410809151
 20
74.391382665483292
 30
0.0
 11
179.40360410809151
 21
74.391382665483292
 31
0.0
  0
LINE
  5
963
  8
0
 62
     0
 10
172.6529605355534
 20
69.211431666048099
 30
0.0
 11
172.6529605355534
 21
69.211431666048099
 31
0.0
  0
LINE
  5
964
  8
0
 62
     0
 10
166.08367753660579
 20
64.170643529284277
 30
0.0
 11
166.08367753660579
 21
64.170643529284277
 31
0.0
  0
LINE
  5
965
  8
0
 62
     0
 10
159.40860086973041
 20
59.048677055962152
 30
0.0
 11
159.40860086973041
 21
59.048677055962152
 31
0.0
  0
LINE
  5
966
  8
0
 62
     0
 10
179.55803427062111
 20
78.619134609140943
 30
0.0
 11
179.55803427062111
 21
78.619134609140943
 31
0.0
  0
LINE
  5
967
  8
0
 62
     0
 10
172.807390698083
 20
73.439183609705736
 30
0.0
 11
172.807390698083
 21
73.439183609705736
 31
0.0
  0
LINE
  5
968
  8
0
 62
     0
 10
166.23810769913541
 20
68.398395472941928
 30
0.0
 11
166.23810769913541
 21
68.398395472941928
 31
0.0
  0
LINE
  5
969
  8
0
 62
     0
 10
159.56303103226
 20
63.276428999619782
 30
0.0
 11
159.56303103226
 21
63.276428999619782
 31
0.0
  0
LINE
  5
96A
  8
0
 62
     0
 10
179.71246443315059
 20
82.846886552798594
 30
0.0
 11
179.71246443315059
 21
82.846886552798594
 31
0.0
  0
LINE
  5
96B
  8
0
 62
     0
 10
172.96182086061259
 20
77.666935553363373
 30
0.0
 11
172.96182086061259
 21
77.666935553363373
 31
0.0
  0
LINE
  5
96C
  8
0
 62
     0
 10
166.39253786166501
 20
72.626147416599579
 30
0.0
 11
166.39253786166501
 21
72.626147416599579
 31
0.0
  0
LINE
  5
96D
  8
0
 62
     0
 10
159.71746119478971
 20
67.504180943277461
 30
0.0
 11
159.71746119478971
 21
67.504180943277461
 31
0.0
  0
LINE
  5
96E
  8
0
 62
     0
 10
179.86689459568021
 20
87.074638496456174
 30
0.0
 11
179.86689459568021
 21
87.074638496456174
 31
0.0
  0
LINE
  5
96F
  8
0
 62
     0
 10
173.11625102314221
 20
81.89468749702101
 30
0.0
 11
173.11625102314221
 21
81.89468749702101
 31
0.0
  0
LINE
  5
970
  8
0
 62
     0
 10
166.5469680241946
 20
76.853899360257216
 30
0.0
 11
166.5469680241946
 21
76.853899360257216
 31
0.0
  0
LINE
  5
971
  8
0
 62
     0
 10
159.87189135731921
 20
71.731932886935084
 30
0.0
 11
159.87189135731921
 21
71.731932886935084
 31
0.0
  0
LINE
  5
972
  8
0
 62
     0
 10
180.02132475820989
 20
91.302390440113868
 30
0.0
 11
180.02132475820989
 21
91.302390440113868
 31
0.0
  0
LINE
  5
973
  8
0
 62
     0
 10
173.27068118567169
 20
86.12243944067859
 30
0.0
 11
173.27068118567169
 21
86.12243944067859
 31
0.0
  0
LINE
  5
974
  8
0
 62
     0
 10
166.70139818672419
 20
81.081651303914825
 30
0.0
 11
166.70139818672419
 21
81.081651303914825
 31
0.0
  0
LINE
  5
975
  8
0
 62
     0
 10
160.02632151984881
 20
75.959684830592735
 30
0.0
 11
160.02632151984881
 21
75.959684830592735
 31
0.0
  0
LINE
  5
976
  8
0
 62
     0
 10
180.17575492073911
 20
95.530142383771548
 30
0.0
 11
180.17575492073911
 21
95.530142383771548
 31
0.0
  0
LINE
  5
977
  8
0
 62
     0
 10
173.42511134820131
 20
90.350191384336384
 30
0.0
 11
173.42511134820131
 21
90.350191384336384
 31
0.0
  0
LINE
  5
978
  8
0
 62
     0
 10
166.85582834925381
 20
85.309403247572561
 30
0.0
 11
166.85582834925381
 21
85.309403247572561
 31
0.0
  0
LINE
  5
979
  8
0
 62
     0
 10
160.1807516823784
 20
80.187436774250443
 30
0.0
 11
160.1807516823784
 21
80.187436774250443
 31
0.0
  0
LINE
  5
97A
  8
0
 62
     0
 10
153.43010810984029
 20
75.007485774815237
 30
0.0
 11
153.43010810984029
 21
75.007485774815237
 31
0.0
  0
LINE
  5
97B
  8
0
 62
     0
 10
180.3301850832689
 20
99.757894327429213
 30
0.0
 11
180.3301850832689
 21
99.757894327429213
 31
0.0
  0
LINE
  5
97C
  8
0
 62
     0
 10
173.57954151073091
 20
94.577943327994006
 30
0.0
 11
173.57954151073091
 21
94.577943327994006
 31
0.0
  0
LINE
  5
97D
  8
0
 62
     0
 10
167.01025851178309
 20
89.537155191230184
 30
0.0
 11
167.01025851178309
 21
89.537155191230184
 31
0.0
  0
LINE
  5
97E
  8
0
 62
     0
 10
160.33518184490799
 20
84.415188717908052
 30
0.0
 11
160.33518184490799
 21
84.415188717908052
 31
0.0
  0
LINE
  5
97F
  8
0
 62
     0
 10
153.58453827236991
 20
79.235237718472831
 30
0.0
 11
153.58453827236991
 21
79.235237718472831
 31
0.0
  0
LINE
  5
980
  8
0
 62
     0
 10
180.48461524579861
 20
103.98564627108679
 30
0.0
 11
180.48461524579861
 21
103.98564627108679
 31
0.0
  0
LINE
  5
981
  8
0
 62
     0
 10
173.7339716732605
 20
98.805695271651643
 30
0.0
 11
173.7339716732605
 21
98.805695271651643
 31
0.0
  0
LINE
  5
982
  8
0
 62
     0
 10
167.164688674313
 20
93.764907134887835
 30
0.0
 11
167.164688674313
 21
93.764907134887835
 31
0.0
  0
LINE
  5
983
  8
0
 62
     0
 10
160.48961200743759
 20
88.642940661565703
 30
0.0
 11
160.48961200743759
 21
88.642940661565703
 31
0.0
  0
LINE
  5
984
  8
0
 62
     0
 10
153.7389684348995
 20
83.462989662130525
 30
0.0
 11
153.7389684348995
 21
83.462989662130525
 31
0.0
  0
LINE
  5
985
  8
0
 62
     0
 10
180.63904540832809
 20
108.2133982147445
 30
0.0
 11
180.63904540832809
 21
108.2133982147445
 31
0.0
  0
LINE
  5
986
  8
0
 62
     0
 10
173.88840183579009
 20
103.03344721530929
 30
0.0
 11
173.88840183579009
 21
103.03344721530929
 31
0.0
  0
LINE
  5
987
  8
0
 62
     0
 10
167.31911883684251
 20
97.992659078545515
 30
0.0
 11
167.31911883684251
 21
97.992659078545515
 31
0.0
  0
LINE
  5
988
  8
0
 62
     0
 10
160.64404216996709
 20
92.870692605223425
 30
0.0
 11
160.64404216996709
 21
92.870692605223425
 31
0.0
  0
LINE
  5
989
  8
0
 62
     0
 10
153.89339859742901
 20
87.69074160578819
 30
0.0
 11
153.89339859742901
 21
87.69074160578819
 31
0.0
  0
LINE
  5
98A
  8
0
 62
     0
 10
180.79347557085771
 20
112.44115015840219
 30
0.0
 11
180.79347557085771
 21
112.44115015840219
 31
0.0
  0
LINE
  5
98B
  8
0
 62
     0
 10
174.04283199831971
 20
107.2611991589669
 30
0.0
 11
174.04283199831971
 21
107.2611991589669
 31
0.0
  0
LINE
  5
98C
  8
0
 62
     0
 10
167.47354899937221
 20
102.220411022203
 30
0.0
 11
167.47354899937221
 21
102.220411022203
 31
0.0
  0
LINE
  5
98D
  8
0
 62
     0
 10
160.7984723324968
 20
97.098444548881062
 30
0.0
 11
160.7984723324968
 21
97.098444548881062
 31
0.0
  0
LINE
  5
98E
  8
0
 62
     0
 10
154.04782875995869
 20
91.918493549445856
 30
0.0
 11
154.04782875995869
 21
91.918493549445856
 31
0.0
  0
LINE
  5
98F
  8
0
 62
     0
 10
180.94790573338739
 20
116.6689021020598
 30
0.0
 11
180.94790573338739
 21
116.6689021020598
 31
0.0
  0
LINE
  5
990
  8
0
 62
     0
 10
174.19726216084931
 20
111.4889511026246
 30
0.0
 11
174.19726216084931
 21
111.4889511026246
 31
0.0
  0
LINE
  5
991
  8
0
 62
     0
 10
167.62797916190169
 20
106.4481629658608
 30
0.0
 11
167.62797916190169
 21
106.4481629658608
 31
0.0
  0
LINE
  5
992
  8
0
 62
     0
 10
160.95290249502631
 20
101.3261964925387
 30
0.0
 11
160.95290249502631
 21
101.3261964925387
 31
0.0
  0
LINE
  5
993
  8
0
 62
     0
 10
154.2022589224882
 20
96.146245493103493
 30
0.0
 11
154.2022589224882
 21
96.146245493103493
 31
0.0
  0
LINE
  5
994
  8
0
 62
     0
 10
181.10233589591701
 20
120.8966540457174
 30
0.0
 11
181.10233589591701
 21
120.8966540457174
 31
0.0
  0
LINE
  5
995
  8
0
 62
     0
 10
174.3516923233789
 20
115.71670304628221
 30
0.0
 11
174.3516923233789
 21
115.71670304628221
 31
0.0
  0
LINE
  5
996
  8
0
 62
     0
 10
167.78240932443131
 20
110.6759149095184
 30
0.0
 11
167.78240932443131
 21
110.6759149095184
 31
0.0
  0
LINE
  5
997
  8
0
 62
     0
 10
161.1073326575559
 20
105.55394843619629
 30
0.0
 11
161.1073326575559
 21
105.55394843619629
 31
0.0
  0
LINE
  5
998
  8
0
 62
     0
 10
154.35668908501779
 20
100.3739974367611
 30
0.0
 11
154.35668908501779
 21
100.3739974367611
 31
0.0
  0
LINE
  5
999
  8
0
 62
     0
 10
181.2567660584466
 20
125.12440598937511
 30
0.0
 11
181.2567660584466
 21
125.12440598937511
 31
0.0
  0
LINE
  5
99A
  8
0
 62
     0
 10
174.50612248590841
 20
119.9444549899399
 30
0.0
 11
174.50612248590841
 21
119.9444549899399
 31
0.0
  0
LINE
  5
99B
  8
0
 62
     0
 10
167.93683948696091
 20
114.90366685317611
 30
0.0
 11
167.93683948696091
 21
114.90366685317611
 31
0.0
  0
LINE
  5
99C
  8
0
 62
     0
 10
161.26176282008541
 20
109.781700379854
 30
0.0
 11
161.26176282008541
 21
109.781700379854
 31
0.0
  0
LINE
  5
99D
  8
0
 62
     0
 10
154.51111924754741
 20
104.60174938041879
 30
0.0
 11
154.51111924754741
 21
104.60174938041879
 31
0.0
  0
LINE
  5
99E
  8
0
 62
     0
 10
181.41119622097611
 20
129.3521579330328
 30
0.0
 11
181.41119622097611
 21
129.3521579330328
 31
0.0
  0
LINE
  5
99F
  8
0
 62
     0
 10
174.66055264843811
 20
124.17220693359759
 30
0.0
 11
174.66055264843811
 21
124.17220693359759
 31
0.0
  0
LINE
  5
9A0
  8
0
 62
     0
 10
168.0912696494905
 20
119.1314187968337
 30
0.0
 11
168.0912696494905
 21
119.1314187968337
 31
0.0
  0
LINE
  5
9A1
  8
0
 62
     0
 10
161.41619298261509
 20
114.0094523235116
 30
0.0
 11
161.41619298261509
 21
114.0094523235116
 31
0.0
  0
LINE
  5
9A2
  8
0
 62
     0
 10
154.66554941007701
 20
108.8295013240764
 30
0.0
 11
154.66554941007701
 21
108.8295013240764
 31
0.0
  0
LINE
  5
9A3
  8
0
 62
     0
 10
174.81498281096771
 20
128.3999588772553
 30
0.0
 11
174.81498281096771
 21
128.3999588772553
 31
0.0
  0
LINE
  5
9A4
  8
0
 62
     0
 10
168.24569981202009
 20
123.35917074049139
 30
0.0
 11
168.24569981202009
 21
123.35917074049139
 31
0.0
  0
LINE
  5
9A5
  8
0
 62
     0
 10
161.57062314514471
 20
118.2372042671693
 30
0.0
 11
161.57062314514471
 21
118.2372042671693
 31
0.0
  0
LINE
  5
9A6
  8
0
 62
     0
 10
154.8199795726066
 20
113.0572532677341
 30
0.0
 11
154.8199795726066
 21
113.0572532677341
 31
0.0
  0
LINE
  5
9A7
  8
0
 62
     0
 10
174.96941297349721
 20
132.62771082091291
 30
0.0
 11
174.96941297349721
 21
132.62771082091291
 31
0.0
  0
LINE
  5
9A8
  8
0
 62
     0
 10
168.40012997454971
 20
127.5869226841491
 30
0.0
 11
168.40012997454971
 21
127.5869226841491
 31
0.0
  0
LINE
  5
9A9
  8
0
 62
     0
 10
161.7250533076743
 20
122.464956210827
 30
0.0
 11
161.7250533076743
 21
122.464956210827
 31
0.0
  0
LINE
  5
9AA
  8
0
 62
     0
 10
154.97440973513619
 20
117.28500521139171
 30
0.0
 11
154.97440973513619
 21
117.28500521139171
 31
0.0
  0
LINE
  5
9AB
  8
0
 62
     0
 10
168.55456013707931
 20
131.81467462780671
 30
0.0
 11
168.55456013707931
 21
131.81467462780671
 31
0.0
  0
LINE
  5
9AC
  8
0
 62
     0
 10
161.87948347020381
 20
126.69270815448461
 30
0.0
 11
161.87948347020381
 21
126.69270815448461
 31
0.0
  0
LINE
  5
9AD
  8
0
 62
     0
 10
155.12883989766581
 20
121.5127571550494
 30
0.0
 11
155.12883989766581
 21
121.5127571550494
 31
0.0
  0
LINE
  5
9AE
  8
0
 62
     0
 10
162.0339136327334
 20
130.92046009814231
 30
0.0
 11
162.0339136327334
 21
130.92046009814231
 31
0.0
  0
LINE
  5
9AF
  8
0
 62
     0
 10
155.28327006019541
 20
125.74050909870709
 30
0.0
 11
155.28327006019541
 21
125.74050909870709
 31
0.0
  0
LINE
  5
9B0
  8
0
 62
     0
 10
162.18834379526311
 20
135.14821204179981
 30
0.0
 11
162.18834379526311
 21
135.14821204179981
 31
0.0
  0
LINE
  5
9B1
  8
0
 62
     0
 10
155.437700222725
 20
129.9682610423647
 30
0.0
 11
155.437700222725
 21
129.9682610423647
 31
0.0
  0
LINE
  5
9B2
  8
0
 62
     0
 10
162.3427739577927
 20
139.37596398545759
 30
0.0
 11
162.3427739577927
 21
139.37596398545759
 31
0.0
  0
LINE
  5
9B3
  8
0
 62
     0
 10
155.59213038525451
 20
134.1960129860224
 30
0.0
 11
155.59213038525451
 21
134.1960129860224
 31
0.0
  0
LINE
  5
9B4
  8
0
 62
     0
 10
155.74656054778421
 20
138.42376492968
 30
0.0
 11
155.74656054778421
 21
138.42376492968
 31
0.0
  0
LINE
  5
9B5
  8
0
 62
     0
 10
155.90099071031369
 20
142.65151687333761
 30
0.0
 11
155.90099071031369
 21
142.65151687333761
 31
0.0
  0
LINE
  5
9B6
  8
0
 62
     0
 10
182.5828616998372
 20
59.084692165879851
 30
0.0
 11
182.84037088575451
 21
59.85214201386227
 31
0.0
  0
LINE
  5
9B7
  8
0
 62
     0
 10
179.49275146883051
 20
49.875293990090739
 30
0.0
 11
179.75026065474779
 21
50.642743838073152
 31
0.0
  0
LINE
  5
9B8
  8
0
 62
     0
 10
176.40264123782379
 20
40.665895814301642
 30
0.0
 11
176.6601504237411
 21
41.433345662284061
 31
0.0
  0
LINE
  5
9B9
  8
0
 62
     0
 10
173.3125310068171
 20
31.456497638512531
 30
0.0
 11
173.5700401927343
 21
32.223947486494971
 31
0.0
  0
LINE
  5
9BA
  8
0
 62
     0
 10
181.18236785435101
 20
82.616743807444294
 30
0.0
 11
181.43987704026841
 21
83.384193655426685
 31
0.0
  0
LINE
  5
9BB
  8
0
 62
     0
 10
178.09225762334441
 20
73.407345631655176
 30
0.0
 11
178.34976680926169
 21
74.174795479637581
 31
0.0
  0
LINE
  5
9BC
  8
0
 62
     0
 10
175.00214739233769
 20
64.197947455866071
 30
0.0
 11
175.259656578255
 21
64.965397303848491
 31
0.0
  0
LINE
  5
9BD
  8
0
 62
     0
 10
171.912037161331
 20
54.988549280076967
 30
0.0
 11
172.16954634724831
 21
55.755999128059379
 31
0.0
  0
LINE
  5
9BE
  8
0
 62
     0
 10
168.82192693032431
 20
45.779151104287862
 30
0.0
 11
169.07943611624151
 21
46.546600952270282
 31
0.0
  0
LINE
  5
9BF
  8
0
 62
     0
 10
165.73181669931759
 20
36.569752928498758
 30
0.0
 11
165.98932588523479
 21
37.337202776481192
 31
0.0
  0
LINE
  5
9C0
  8
0
 62
     0
 10
182.87198423987189
 20
115.35819362479781
 30
0.0
 11
183.12949342578909
 21
116.1256434727802
 31
0.0
  0
LINE
  5
9C1
  8
0
 62
     0
 10
179.78187400886509
 20
106.1487954490087
 30
0.0
 11
180.0393831947824
 21
106.91624529699109
 31
0.0
  0
LINE
  5
9C2
  8
0
 62
     0
 10
176.6917637778584
 20
96.939397273219583
 30
0.0
 11
176.9492729637756
 21
97.706847121202046
 31
0.0
  0
LINE
  5
9C3
  8
0
 62
     0
 10
173.60165354685171
 20
87.729999097430493
 30
0.0
 11
173.85916273276891
 21
88.497448945412927
 31
0.0
  0
LINE
  5
9C4
  8
0
 62
     0
 10
170.51154331584499
 20
78.520600921641403
 30
0.0
 11
170.76905250176219
 21
79.288050769623808
 31
0.0
  0
LINE
  5
9C5
  8
0
 62
     0
 10
167.4214330848383
 20
69.311202745852299
 30
0.0
 11
167.6789422707555
 21
70.078652593834704
 31
0.0
  0
LINE
  5
9C6
  8
0
 62
     0
 10
164.33132285383141
 20
60.101804570063187
 30
0.0
 11
164.58883203974881
 21
60.869254418045593
 31
0.0
  0
LINE
  5
9C7
  8
0
 62
     0
 10
161.2412126228248
 20
50.89240639427409
 30
0.0
 11
161.49872180874209
 21
51.65985624225651
 31
0.0
  0
LINE
  5
9C8
  8
0
 62
     0
 10
158.15110239181811
 20
41.683008218484979
 30
0.0
 11
158.40861157773529
 21
42.450458066467377
 31
0.0
  0
LINE
  5
9C9
  8
0
 62
     0
 10
155.0609921608114
 20
32.473610042695881
 30
0.0
 11
155.3185013467286
 21
33.241059890678308
 31
0.0
  0
LINE
  5
9CA
  8
0
 62
     0
 10
178.38138016337899
 20
129.68084709057311
 30
0.0
 11
178.63888934929619
 21
130.4482969385555
 31
0.0
  0
LINE
  5
9CB
  8
0
 62
     0
 10
175.2912699323723
 20
120.47144891478401
 30
0.0
 11
175.5487791182895
 21
121.2388987627665
 31
0.0
  0
LINE
  5
9CC
  8
0
 62
     0
 10
172.20115970136561
 20
111.2620507389949
 30
0.0
 11
172.45866888728281
 21
112.02950058697731
 31
0.0
  0
LINE
  5
9CD
  8
0
 62
     0
 10
169.11104947035881
 20
102.0526525632058
 30
0.0
 11
169.36855865627609
 21
102.8201024111882
 31
0.0
  0
LINE
  5
9CE
  8
0
 62
     0
 10
166.02093923935209
 20
92.843254387416735
 30
0.0
 11
166.2784484252694
 21
93.610704235399155
 31
0.0
  0
LINE
  5
9CF
  8
0
 62
     0
 10
162.9308290083454
 20
83.633856211627631
 30
0.0
 11
163.18833819426271
 21
84.401306059610036
 31
0.0
  0
LINE
  5
9D0
  8
0
 62
     0
 10
159.84071877733871
 20
74.424458035838526
 30
0.0
 11
160.09822796325591
 21
75.191907883820932
 31
0.0
  0
LINE
  5
9D1
  8
0
 62
     0
 10
156.7506085463319
 20
65.215059860049422
 30
0.0
 11
157.00811773224919
 21
65.982509708031841
 31
0.0
  0
LINE
  5
9D2
  8
0
 62
     0
 10
153.6604983153253
 20
56.005661684260311
 30
0.0
 11
153.9180075012425
 21
56.77311153224273
 31
0.0
  0
LINE
  5
9D3
  8
0
 62
     0
 10
167.7105556248728
 20
125.5847042047703
 30
0.0
 11
167.96806481079
 21
126.3521540527527
 31
0.0
  0
LINE
  5
9D4
  8
0
 62
     0
 10
164.62044539386611
 20
116.3753060289812
 30
0.0
 11
164.87795457978331
 21
117.14275587696361
 31
0.0
  0
LINE
  5
9D5
  8
0
 62
     0
 10
161.5303351628593
 20
107.165907853192
 30
0.0
 11
161.78784434877659
 21
107.9333577011745
 31
0.0
  0
LINE
  5
9D6
  8
0
 62
     0
 10
158.44022493185261
 20
97.956509677402934
 30
0.0
 11
158.69773411776981
 21
98.723959525385396
 31
0.0
  0
LINE
  5
9D7
  8
0
 62
     0
 10
155.35011470084581
 20
88.747111501613858
 30
0.0
 11
155.60762388676309
 21
89.514561349596264
 31
0.0
  0
LINE
  5
9D8
  8
0
 62
     0
 10
163.21995154838001
 20
139.90735767054551
 30
0.0
 11
163.47746073429721
 21
140.67480751852801
 31
0.0
  0
LINE
  5
9D9
  8
0
 62
     0
 10
160.12984131737321
 20
130.6979594947565
 30
0.0
 11
160.38735050329041
 21
131.46540934273881
 31
0.0
  0
LINE
  5
9DA
  8
0
 62
     0
 10
157.0397310863664
 20
121.4885613189674
 30
0.0
 11
157.2972402722838
 21
122.2560111669498
 31
0.0
  0
LINE
  5
9DB
  8
0
 62
     0
 10
153.9496208553598
 20
112.2791631431782
 30
0.0
 11
154.207130041277
 21
113.0466129911607
 31
0.0
  0
LINE
  5
9DC
  8
0
 62
     0
 10
154.4291081932648
 20
32.899671977037727
 30
0.0
 11
155.06083482355169
 21
32.47356698459302
 31
0.0
  0
LINE
  5
9DD
  8
0
 62
     0
 10
172.68064873753369
 20
31.88255046448068
 30
0.0
 11
173.31237536782069
 21
31.45644547203597
 31
0.0
  0
LINE
  5
9DE
  8
0
 62
     0
 10
165.09992917409039
 20
36.995810373817193
 30
0.0
 11
165.7316558043774
 21
36.569705381372472
 31
0.0
  0
LINE
  5
9DF
  8
0
 62
     0
 10
157.5192096106471
 20
42.109070283153677
 30
0.0
 11
158.1509362409341
 21
41.682965290708971
 31
0.0
  0
LINE
  5
9E0
  8
0
 62
     0
 10
175.7707501549161
 20
41.09194877059663
 30
0.0
 11
176.40247678520299
 21
40.665843778151931
 31
0.0
  0
LINE
  5
9E1
  8
0
 62
     0
 10
168.19003059147269
 20
46.205208679933122
 30
0.0
 11
168.82175722175961
 21
45.779103687488437
 31
0.0
  0
LINE
  5
9E2
  8
0
 62
     0
 10
160.60931102802951
 20
51.318468589269649
 30
0.0
 11
161.2410376583164
 21
50.892363596824943
 31
0.0
  0
LINE
  5
9E3
  8
0
 62
     0
 10
153.34693845304821
 20
56.217000743577387
 30
0.0
 11
153.66031809487311
 21
56.005623506161449
 31
0.0
  0
LINE
  5
9E4
  8
0
 62
     0
 10
178.8608515722984
 20
50.301347076712617
 30
0.0
 11
179.49257820258529
 21
49.87524208426791
 31
0.0
  0
LINE
  5
9E5
  8
0
 62
     0
 10
171.28013200885511
 20
55.414606986049108
 30
0.0
 11
171.91185863914211
 21
54.988501993604402
 31
0.0
  0
LINE
  5
9E6
  8
0
 62
     0
 10
163.69941244541181
 20
60.527866895385621
 30
0.0
 11
164.33113907569879
 21
60.101761902940922
 31
0.0
  0
LINE
  5
9E7
  8
0
 62
     0
 10
156.11869288196851
 20
65.641126804722134
 30
0.0
 11
156.75041951225549
 21
65.215021812277399
 31
0.0
  0
LINE
  5
9E8
  8
0
 62
     0
 10
181.9509529896807
 20
59.51074538282856
 30
0.0
 11
182.58267961996771
 21
59.084640390383861
 31
0.0
  0
LINE
  5
9E9
  8
0
 62
     0
 10
174.37023342623741
 20
64.624005292165066
 30
0.0
 11
175.0019600565243
 21
64.197900299720359
 31
0.0
  0
LINE
  5
9EA
  8
0
 62
     0
 10
166.78951386279411
 20
69.737265201501572
 30
0.0
 11
167.42124049308109
 21
69.311160209056865
 31
0.0
  0
LINE
  5
9EB
  8
0
 62
     0
 10
159.20879429935081
 20
74.850525110838063
 30
0.0
 11
159.84052092963779
 21
74.424420118393371
 31
0.0
  0
LINE
  5
9EC
  8
0
 62
     0
 10
177.46033484361979
 20
73.833403598281009
 30
0.0
 11
178.0920614739068
 21
73.407298605836345
 31
0.0
  0
LINE
  5
9ED
  8
0
 62
     0
 10
169.87961528017641
 20
78.946663507617544
 30
0.0
 11
170.5113419104635
 21
78.520558515172809
 31
0.0
  0
LINE
  5
9EE
  8
0
 62
     0
 10
162.2988957167332
 20
84.059923416954064
 30
0.0
 11
162.9306223470202
 21
83.633818424509343
 31
0.0
  0
LINE
  5
9EF
  8
0
 62
     0
 10
154.7181761532899
 20
89.173183326290555
 30
0.0
 11
155.34990278357691
 21
88.747078333845863
 31
0.0
  0
LINE
  5
9F0
  8
0
 62
     0
 10
180.5504362610022
 20
83.042801904397024
 30
0.0
 11
181.1821628912891
 21
82.616696911952346
 31
0.0
  0
LINE
  5
9F1
  8
0
 62
     0
 10
172.96971669755879
 20
88.156061813733544
 30
0.0
 11
173.6014433278458
 21
87.729956821288837
 31
0.0
  0
LINE
  5
9F2
  8
0
 62
     0
 10
165.38899713411561
 20
93.26932172307005
 30
0.0
 11
166.0207237644025
 21
92.843216730625301
 31
0.0
  0
LINE
  5
9F3
  8
0
 62
     0
 10
157.80827757067229
 20
98.382581632406556
 30
0.0
 11
158.44000420095921
 21
97.956476639961835
 31
0.0
  0
LINE
  5
9F4
  8
0
 62
     0
 10
176.05981811494109
 20
97.365460119849473
 30
0.0
 11
176.69154474522821
 21
96.939355127404767
 31
0.0
  0
LINE
  5
9F5
  8
0
 62
     0
 10
168.47909855149791
 20
102.47872002918599
 30
0.0
 11
169.11082518178489
 21
102.0526150367413
 31
0.0
  0
LINE
  5
9F6
  8
0
 62
     0
 10
160.89837898805459
 20
107.5919799385225
 30
0.0
 11
161.53010561834159
 21
107.16587494607781
 31
0.0
  0
LINE
  5
9F7
  8
0
 62
     0
 10
153.34693845304821
 20
112.68549089381339
 30
0.0
 11
153.9493860548983
 21
112.2791348554143
 31
0.0
  0
LINE
  5
9F8
  8
0
 62
     0
 10
179.14991953232351
 20
106.5748584259654
 30
0.0
 11
179.78164616261051
 21
106.1487534335207
 31
0.0
  0
LINE
  5
9F9
  8
0
 62
     0
 10
171.56919996888021
 20
111.68811833530189
 30
0.0
 11
172.2009265991671
 21
111.2620133428572
 31
0.0
  0
LINE
  5
9FA
  8
0
 62
     0
 10
163.988480405437
 20
116.8013782446384
 30
0.0
 11
164.62020703572381
 21
116.37527325219369
 31
0.0
  0
LINE
  5
9FB
  8
0
 62
     0
 10
156.40776084199359
 20
121.91463815397491
 30
0.0
 11
157.0394874722806
 21
121.4885331615302
 31
0.0
  0
LINE
  5
9FC
  8
0
 62
     0
 10
182.24002094970589
 20
115.7842567320814
 30
0.0
 11
182.87174757999281
 21
115.3581517396367
 31
0.0
  0
LINE
  5
9FD
  8
0
 62
     0
 10
174.6593013862626
 20
120.89751664141789
 30
0.0
 11
175.2910280165496
 21
120.4714116489732
 31
0.0
  0
LINE
  5
9FE
  8
0
 62
     0
 10
167.0785818228193
 20
126.0107765507544
 30
0.0
 11
167.71030845310631
 21
125.58467155830969
 31
0.0
  0
LINE
  5
9FF
  8
0
 62
     0
 10
159.49786225937601
 20
131.12403646009091
 30
0.0
 11
160.1295888896629
 21
130.69793146764621
 31
0.0
  0
LINE
  5
A00
  8
0
 62
     0
 10
162.58796367675839
 20
140.33343476620681
 30
0.0
 11
163.21969030704531
 21
139.90732977376209
 31
0.0
  0
LINE
  5
A01
  8
0
 62
     0
 10
177.74940280364501
 20
130.10691494753391
 30
0.0
 11
178.3811294339319
 21
129.6808099550891
 31
0.0
  0
LINE
  5
A02
  8
0
 62
     0
 10
172.6804135202315
 20
31.882940342084879
 30
0.0
 11
173.5696488764701
 21
32.224285814026778
 31
0.0
  0
LINE
  5
A03
  8
0
 62
     0
 10
175.77049380332539
 20
41.092361931225767
 30
0.0
 11
176.65972915956399
 21
41.433707403167674
 31
0.0
  0
LINE
  5
A04
  8
0
 62
     0
 10
165.09966952846241
 20
36.996216267923018
 30
0.0
 11
165.98890488470099
 21
37.337561739864917
 31
0.0
  0
LINE
  5
A05
  8
0
 62
     0
 10
154.42884525359941
 20
32.900070604620232
 30
0.0
 11
155.31808060983801
 21
33.241416076562118
 31
0.0
  0
LINE
  5
A06
  8
0
 62
     0
 10
178.86057408641909
 20
50.301783520366719
 30
0.0
 11
179.74980944265781
 21
50.643128992308633
 31
0.0
  0
LINE
  5
A07
  8
0
 62
     0
 10
168.1897498115562
 20
46.205637857063927
 30
0.0
 11
169.0789851677948
 21
46.546983329005847
 31
0.0
  0
LINE
  5
A08
  8
0
 62
     0
 10
157.51892553669319
 20
42.109492193761128
 30
0.0
 11
158.40816089293179
 21
42.450837665703062
 31
0.0
  0
LINE
  5
A09
  8
0
 62
     0
 10
181.9506543695131
 20
59.511205109507621
 30
0.0
 11
182.83988972575159
 21
59.852550581449499
 31
0.0
  0
LINE
  5
A0A
  8
0
 62
     0
 10
171.27983009465001
 20
55.415059446204822
 30
0.0
 11
172.16906545088861
 21
55.756404918146707
 31
0.0
  0
LINE
  5
A0B
  8
0
 62
     0
 10
160.609005819787
 20
51.318913782902037
 30
0.0
 11
161.4982411760256
 21
51.660259254843943
 31
0.0
  0
LINE
  5
A0C
  8
0
 62
     0
 10
174.36991037774399
 20
64.624481035345724
 30
0.0
 11
175.25914573398251
 21
64.96582650728763
 31
0.0
  0
LINE
  5
A0D
  8
0
 62
     0
 10
163.69908610288101
 20
60.52833537204296
 30
0.0
 11
164.5883214591195
 21
60.86968084398486
 31
0.0
  0
LINE
  5
A0E
  8
0
 62
     0
 10
153.3469384530483
 20
56.554518203895782
 30
0.0
 11
153.91749718425649
 21
56.773535180682067
 31
0.0
  0
LINE
  5
A0F
  8
0
 62
     0
 10
177.4599906608378
 20
73.833902624486669
 30
0.0
 11
178.3492260170764
 21
74.175248096428561
 31
0.0
  0
LINE
  5
A10
  8
0
 62
     0
 10
166.7891663859748
 20
69.737756961183891
 30
0.0
 11
167.6784017422134
 21
70.079102433125783
 31
0.0
  0
LINE
  5
A11
  8
0
 62
     0
 10
156.11834211111179
 20
65.641611297881113
 30
0.0
 11
157.00757746735039
 21
65.982956769823005
 31
0.0
  0
LINE
  5
A12
  8
0
 62
     0
 10
180.5500709439315
 20
83.043324213627486
 30
0.0
 11
181.4393063001701
 21
83.384669685569406
 31
0.0
  0
LINE
  5
A13
  8
0
 62
     0
 10
169.87924666906841
 20
78.94717855032475
 30
0.0
 11
170.76848202530709
 21
79.288524022266643
 31
0.0
  0
LINE
  5
A14
  8
0
 62
     0
 10
159.20842239420551
 20
74.851032887021972
 30
0.0
 11
160.09765775044411
 21
75.192378358963865
 31
0.0
  0
LINE
  5
A15
  8
0
 62
     0
 10
172.96932695216239
 20
88.156600139465652
 30
0.0
 11
173.85856230840099
 21
88.497945611407573
 31
0.0
  0
LINE
  5
A16
  8
0
 62
     0
 10
162.29850267729941
 20
84.060454476162917
 30
0.0
 11
163.18773803353801
 21
84.401799948104781
 31
0.0
  0
LINE
  5
A17
  8
0
 62
     0
 10
176.0594072352562
 20
97.366021728606555
 30
0.0
 11
176.9486425914948
 21
97.707367200548433
 31
0.0
  0
LINE
  5
A18
  8
0
 62
     0
 10
165.38858296039331
 20
93.269876065303762
 30
0.0
 11
166.27781831663191
 21
93.611221537245697
 31
0.0
  0
LINE
  5
A19
  8
0
 62
     0
 10
154.7177586855303
 20
89.173730402001027
 30
0.0
 11
155.60699404176879
 21
89.515075873942905
 31
0.0
  0
LINE
  5
A1A
  8
0
 62
     0
 10
179.1494875183501
 20
106.5754433177474
 30
0.0
 11
180.0387228745887
 21
106.91678878968931
 31
0.0
  0
LINE
  5
A1B
  8
0
 62
     0
 10
168.47866324348709
 20
102.47929765444469
 30
0.0
 11
169.36789859972569
 21
102.8206431263866
 31
0.0
  0
LINE
  5
A1C
  8
0
 62
     0
 10
157.80783896862411
 20
98.383151991141929
 30
0.0
 11
158.69707432486271
 21
98.724497463083807
 31
0.0
  0
LINE
  5
A1D
  8
0
 62
     0
 10
182.239567801444
 20
115.7848649068884
 30
0.0
 11
183.1288031576826
 21
116.12621037883029
 31
0.0
  0
LINE
  5
A1E
  8
0
 62
     0
 10
171.56874352658099
 20
111.6887192435856
 30
0.0
 11
172.45797888281959
 21
112.0300647155275
 31
0.0
  0
LINE
  5
A1F
  8
0
 62
     0
 10
160.89791925171801
 20
107.5925735802828
 30
0.0
 11
161.78715460795661
 21
107.9339190522247
 31
0.0
  0
LINE
  5
A20
  8
0
 62
     0
 10
174.65882380967491
 20
120.8981408327265
 30
0.0
 11
175.5480591659134
 21
121.2394863046684
 31
0.0
  0
LINE
  5
A21
  8
0
 62
     0
 10
163.98799953481191
 20
116.8019951694238
 30
0.0
 11
164.87723489105051
 21
117.1433406413656
 31
0.0
  0
LINE
  5
A22
  8
0
 62
     0
 10
153.34693845304821
 20
112.7172745255196
 30
0.0
 11
154.20641061618741
 21
113.0471949780629
 31
0.0
  0
LINE
  5
A23
  8
0
 62
     0
 10
177.74890409276861
 20
130.10756242186741
 30
0.0
 11
178.6381394490073
 21
130.44890789380929
 31
0.0
  0
LINE
  5
A24
  8
0
 62
     0
 10
167.07807981790569
 20
126.01141675856459
 30
0.0
 11
167.9673151741442
 21
126.3527622305065
 31
0.0
  0
LINE
  5
A25
  8
0
 62
     0
 10
156.40725554304271
 20
121.9152710952619
 30
0.0
 11
157.2964908992812
 21
122.25661656720369
 31
0.0
  0
LINE
  5
A26
  8
0
 62
     0
 10
159.49733582613661
 20
131.12469268440279
 30
0.0
 11
160.38657118237509
 21
131.46603815634469
 31
0.0
  0
LINE
  5
A27
  8
0
 62
     0
 10
162.58741610923039
 20
140.33411427354369
 30
0.0
 11
163.47665146546899
 21
140.6754597454856
 31
0.0
  0
LINE
  5
A28
  8
0
 62
     0
 10
182.92665659192849
 20
34.737155435672868
 30
0.0
 11
183.3469384530483
 21
34.671972183286407
 31
0.0
  0
LINE
  5
A29
  8
0
 62
     0
 10
169.3727026114089
 20
36.839294226038078
 30
0.0
 11
170.5021987764523
 21
36.66411599350765
 31
0.0
  0
LINE
  5
A2A
  8
0
 62
     0
 10
155.81874863088939
 20
38.941433016403288
 30
0.0
 11
156.94824479593271
 21
38.766254783872853
 31
0.0
  0
LINE
  5
A2B
  8
0
 62
     0
 10
181.24293290210571
 20
49.210550119067968
 30
0.0
 11
182.372429067149
 21
49.035371886537533
 31
0.0
  0
LINE
  5
A2C
  8
0
 62
     0
 10
167.68897892158611
 20
51.31268890943317
 30
0.0
 11
168.81847508662941
 21
51.137510676902721
 31
0.0
  0
LINE
  5
A2D
  8
0
 62
     0
 10
154.1350249410666
 20
53.414827699798387
 30
0.0
 11
155.2645211061099
 21
53.239649467267931
 31
0.0
  0
LINE
  5
A2E
  8
0
 62
     0
 10
179.55920921228281
 20
63.683944802463053
 30
0.0
 11
180.6887053773261
 21
63.508766569932611
 31
0.0
  0
LINE
  5
A2F
  8
0
 62
     0
 10
166.0052552317633
 20
65.786083592828234
 30
0.0
 11
167.13475139680659
 21
65.610905360297821
 31
0.0
  0
LINE
  5
A30
  8
0
 62
     0
 10
153.34693845304821
 20
67.749314304656863
 30
0.0
 11
153.580797416287
 21
67.713044150663023
 31
0.0
  0
LINE
  5
A31
  8
0
 62
     0
 10
177.87548552246
 20
78.157339485858131
 30
0.0
 11
179.00498168750329
 21
77.982161253327703
 31
0.0
  0
LINE
  5
A32
  8
0
 62
     0
 10
164.3215315419404
 20
80.259478276223305
 30
0.0
 11
165.45102770698369
 21
80.084300043692906
 31
0.0
  0
LINE
  5
A33
  8
0
 62
     0
 10
176.1917618326371
 20
92.63073416925323
 30
0.0
 11
177.32125799768039
 21
92.455555936722774
 31
0.0
  0
LINE
  5
A34
  8
0
 62
     0
 10
162.63780785211759
 20
94.732872959618433
 30
0.0
 11
163.76730401716091
 21
94.557694727088005
 31
0.0
  0
LINE
  5
A35
  8
0
 62
     0
 10
174.50803814281409
 20
107.1041288526483
 30
0.0
 11
175.63753430785741
 21
106.9289506201179
 31
0.0
  0
LINE
  5
A36
  8
0
 62
     0
 10
160.95408416229469
 20
109.2062676430135
 30
0.0
 11
162.08358032733801
 21
109.0310894104831
 31
0.0
  0
LINE
  5
A37
  8
0
 62
     0
 10
172.82431445299139
 20
121.5775235360434
 30
0.0
 11
173.95381061803471
 21
121.4023453035129
 31
0.0
  0
LINE
  5
A38
  8
0
 62
     0
 10
159.27036047247179
 20
123.6796623264086
 30
0.0
 11
160.39985663751509
 21
123.5044840938781
 31
0.0
  0
LINE
  5
A39
  8
0
 62
     0
 10
157.58663678264901
 20
138.15305700980369
 30
0.0
 11
158.7161329476923
 21
137.97787877727319
 31
0.0
  0
LINE
  5
A3A
  8
0
 62
     0
 10
173.9534373872315
 20
121.402659589241
 30
0.0
 11
173.81312552049641
 21
122.60877552170911
 31
0.0
  0
LINE
  5
A3B
  8
0
 62
     0
 10
175.63717978805161
 20
106.92926839962411
 30
0.0
 11
175.49686792131681
 21
108.1353843320922
 31
0.0
  0
LINE
  5
A3C
  8
0
 62
     0
 10
177.32092218887209
 20
92.455877210007287
 30
0.0
 11
177.18061032213711
 21
93.661993142475353
 31
0.0
  0
LINE
  5
A3D
  8
0
 62
     0
 10
179.00466458969251
 20
77.982486020390382
 30
0.0
 11
178.86435272295739
 21
79.188601952858463
 31
0.0
  0
LINE
  5
A3E
  8
0
 62
     0
 10
180.68840699051279
 20
63.509094830773499
 30
0.0
 11
180.5480951237777
 21
64.715210763241572
 31
0.0
  0
LINE
  5
A3F
  8
0
 62
     0
 10
182.3721493913331
 20
49.035703641156609
 30
0.0
 11
182.23183752459809
 21
50.24181957362466
 31
0.0
  0
LINE
  5
A40
  8
0
 62
     0
 10
158.71574086227889
 20
137.97816417397229
 30
0.0
 11
158.57542899554389
 21
139.18428010644041
 31
0.0
  0
LINE
  5
A41
  8
0
 62
     0
 10
160.39948326309931
 20
123.5047729843555
 30
0.0
 11
160.2591713963642
 21
124.71088891682351
 31
0.0
  0
LINE
  5
A42
  8
0
 62
     0
 10
162.08322566391959
 20
109.03138179473861
 30
0.0
 11
161.94291379718459
 21
110.2374977272067
 31
0.0
  0
LINE
  5
A43
  8
0
 62
     0
 10
163.7669680647399
 20
94.557990605121702
 30
0.0
 11
163.62665619800481
 21
95.764106537589782
 31
0.0
  0
LINE
  5
A44
  8
0
 62
     0
 10
165.45071046556029
 20
80.084599415504826
 30
0.0
 11
165.310398598825
 21
81.290715347972863
 31
0.0
  0
LINE
  5
A45
  8
0
 62
     0
 10
167.1344528663806
 20
65.611208225887921
 30
0.0
 11
166.99414099964559
 21
66.817324158356001
 31
0.0
  0
LINE
  5
A46
  8
0
 62
     0
 10
168.81819526720091
 20
51.137817036271038
 30
0.0
 11
168.6778834004659
 21
52.343932968739111
 31
0.0
  0
LINE
  5
A47
  8
0
 62
     0
 10
170.5019376680213
 20
36.664425846654161
 30
0.0
 11
170.3616258012861
 21
37.870541779122227
 31
0.0
  0
LINE
  5
A48
  8
0
 62
     0
 10
153.58049874224841
 20
67.713321621002365
 30
0.0
 11
153.4401868755134
 21
68.919437553470445
 31
0.0
  0
LINE
  5
A49
  8
0
 62
     0
 10
155.2642411430688
 20
53.239930431385481
 30
0.0
 11
155.12392927633371
 21
54.44604636385354
 31
0.0
  0
LINE
  5
A4A
  8
0
 62
     0
 10
156.94798354388911
 20
38.766539241768598
 30
0.0
 11
156.8076716771541
 21
39.972655174236671
 31
0.0
  0
LINE
  5
A4B
  8
0
 62
     0
 10
182.92632443828839
 20
34.737882532619537
 30
0.0
 11
183.3469384530483
 21
35.176252723693317
 31
0.0
  0
LINE
  5
A4C
  8
0
 62
     0
 10
181.24257909739811
 20
49.211305158229912
 30
0.0
 11
182.2317629893744
 21
50.242247343977731
 31
0.0
  0
LINE
  5
A4D
  8
0
 62
     0
 10
169.3723723936819
 20
36.839998929255891
 30
0.0
 11
170.3615562856582
 21
37.870941115003731
 31
0.0
  0
LINE
  5
A4E
  8
0
 62
     0
 10
179.55883375650771
 20
63.684727783840259
 30
0.0
 11
180.54801764848409
 21
64.715669969588092
 31
0.0
  0
LINE
  5
A4F
  8
0
 62
     0
 10
167.6886270527915
 20
51.313421554866238
 30
0.0
 11
168.67781094476791
 21
52.344363740614078
 31
0.0
  0
LINE
  5
A50
  8
0
 62
     0
 10
155.8184203490753
 20
38.942115325892232
 30
0.0
 11
156.80760424105171
 21
39.97305751164005
 31
0.0
  0
LINE
  5
A51
  8
0
 62
     0
 10
177.8750884156174
 20
78.158150409450684
 30
0.0
 11
178.86427230759381
 21
79.189092595198517
 31
0.0
  0
LINE
  5
A52
  8
0
 62
     0
 10
166.00488171190119
 20
65.786844180476635
 30
0.0
 11
166.9940656038776
 21
66.817786366224496
 31
0.0
  0
LINE
  5
A53
  8
0
 62
     0
 10
154.13467500818501
 20
53.415537951502642
 30
0.0
 11
155.12385890016139
 21
54.446480137250461
 31
0.0
  0
LINE
  5
A54
  8
0
 62
     0
 10
176.19134307472709
 20
92.631573035060995
 30
0.0
 11
177.18052696670341
 21
93.662515220808856
 31
0.0
  0
LINE
  5
A55
  8
0
 62
     0
 10
164.32113637101091
 20
80.260266806086989
 30
0.0
 11
165.31032026298729
 21
81.291208991834779
 31
0.0
  0
LINE
  5
A56
  8
0
 62
     0
 10
153.3469384530483
 20
68.822794279346454
 30
0.0
 11
153.44011355927111
 21
68.919902762860801
 31
0.0
  0
LINE
  5
A57
  8
0
 62
     0
 10
174.5075977338368
 20
107.10499566067141
 30
0.0
 11
175.4967816258131
 21
108.1359378464192
 31
0.0
  0
LINE
  5
A58
  8
0
 62
     0
 10
162.6373910301206
 20
94.733689431697357
 30
0.0
 11
163.62657492209701
 21
95.764631617445204
 31
0.0
  0
LINE
  5
A59
  8
0
 62
     0
 10
172.82385239294641
 20
121.5784182862818
 30
0.0
 11
173.8130362849229
 21
122.60936047202961
 31
0.0
  0
LINE
  5
A5A
  8
0
 62
     0
 10
160.9536456892304
 20
109.2071120573077
 30
0.0
 11
161.94282958120669
 21
110.2380542430556
 31
0.0
  0
LINE
  5
A5B
  8
0
 62
     0
 10
159.26990034834
 20
123.68053468291799
 30
0.0
 11
160.2590842403163
 21
124.7114768686659
 31
0.0
  0
LINE
  5
A5C
  8
0
 62
     0
 10
157.58615500744969
 20
138.1539573085285
 30
0.0
 11
158.57533889942599
 21
139.18489949427621
 31
0.0
  0
LINE
  5
A5D
  8
0
 62
     0
 10
178.8163714460614
 20
127.6954020231465
 30
0.0
 11
178.66953254309399
 21
128.4914727402159
 31
0.0
  0
LINE
  5
A5E
  8
0
 62
     0
 10
180.57843828167
 20
118.14255341831409
 30
0.0
 11
180.4315993787024
 21
118.93862413538351
 31
0.0
  0
LINE
  5
A5F
  8
0
 62
     0
 10
182.34050511727861
 20
108.5897048134817
 30
0.0
 11
182.19366621431121
 21
109.3857755305511
 31
0.0
  0
LINE
  5
A60
  8
0
 62
     0
 10
167.94511269154631
 20
138.04526484179669
 30
0.0
 11
167.79827378857891
 21
138.84133555886609
 31
0.0
  0
LINE
  5
A61
  8
0
 62
     0
 10
169.70717952715489
 20
128.49241623696429
 30
0.0
 11
169.5603406241874
 21
129.28848695403369
 31
0.0
  0
LINE
  5
A62
  8
0
 62
     0
 10
171.4692463627635
 20
118.9395676321319
 30
0.0
 11
171.3224074597961
 21
119.7356383492013
 31
0.0
  0
LINE
  5
A63
  8
0
 62
     0
 10
173.23131319837211
 20
109.38671902729951
 30
0.0
 11
173.0844742954047
 21
110.1827897443689
 31
0.0
  0
LINE
  5
A64
  8
0
 62
     0
 10
174.9933800339806
 20
99.833870422467143
 30
0.0
 11
174.8465411310132
 21
100.6299411395365
 31
0.0
  0
LINE
  5
A65
  8
0
 62
     0
 10
176.75544686958921
 20
90.281021817634695
 30
0.0
 11
176.6086079666218
 21
91.077092534704079
 31
0.0
  0
LINE
  5
A66
  8
0
 62
     0
 10
178.51751370519781
 20
80.728173212802346
 30
0.0
 11
178.37067480223041
 21
81.524243929871687
 31
0.0
  0
LINE
  5
A67
  8
0
 62
     0
 10
180.27958054080639
 20
71.175324607969941
 30
0.0
 11
180.13274163783899
 21
71.971395325039296
 31
0.0
  0
LINE
  5
A68
  8
0
 62
     0
 10
182.0416473764148
 20
61.622476003137521
 30
0.0
 11
181.8948084734476
 21
62.418546720206891
 31
0.0
  0
LINE
  5
A69
  8
0
 62
     0
 10
158.83592077263981
 20
138.84227905561451
 30
0.0
 11
158.68908186967241
 21
139.63834977268391
 31
0.0
  0
LINE
  5
A6A
  8
0
 62
     0
 10
160.59798760824839
 20
129.28943045078211
 30
0.0
 11
160.45114870528101
 21
130.0855011678515
 31
0.0
  0
LINE
  5
A6B
  8
0
 62
     0
 10
162.36005444385691
 20
119.7365818459497
 30
0.0
 11
162.21321554088959
 21
120.5326525630191
 31
0.0
  0
LINE
  5
A6C
  8
0
 62
     0
 10
164.1221212794654
 20
110.1837332411173
 30
0.0
 11
163.97528237649809
 21
110.97980395818659
 31
0.0
  0
LINE
  5
A6D
  8
0
 62
     0
 10
165.8841881150741
 20
100.6308846362849
 30
0.0
 11
165.73734921210669
 21
101.4269553533543
 31
0.0
  0
LINE
  5
A6E
  8
0
 62
     0
 10
167.6462549506827
 20
91.078036031452555
 30
0.0
 11
167.4994160477153
 21
91.874106748521925
 31
0.0
  0
LINE
  5
A6F
  8
0
 62
     0
 10
169.40832178629131
 20
81.525187426620164
 30
0.0
 11
169.26148288332391
 21
82.321258143689519
 31
0.0
  0
LINE
  5
A70
  8
0
 62
     0
 10
171.1703886218998
 20
71.972338821787744
 30
0.0
 11
171.02354971893249
 21
72.768409538857085
 31
0.0
  0
LINE
  5
A71
  8
0
 62
     0
 10
172.93245545750841
 20
62.419490216955353
 30
0.0
 11
172.78561655454109
 21
63.215560934024708
 31
0.0
  0
LINE
  5
A72
  8
0
 62
     0
 10
174.69452229311699
 20
52.866641612122933
 30
0.0
 11
174.54768339014959
 21
53.66271232919231
 31
0.0
  0
LINE
  5
A73
  8
0
 62
     0
 10
176.4565891287256
 20
43.313793007290528
 30
0.0
 11
176.30975022575811
 21
44.10986372435989
 31
0.0
  0
LINE
  5
A74
  8
0
 62
     0
 10
178.21865596433409
 20
33.760944402458129
 30
0.0
 11
178.0718170613668
 21
34.557015119527499
 31
0.0
  0
LINE
  5
A75
  8
0
 62
     0
 10
155.01292936055901
 20
110.9807474549352
 30
0.0
 11
154.86609045759161
 21
111.7768181720045
 31
0.0
  0
LINE
  5
A76
  8
0
 62
     0
 10
156.77499619616751
 20
101.42789885010269
 30
0.0
 11
156.62815729320019
 21
102.22396956717211
 31
0.0
  0
LINE
  5
A77
  8
0
 62
     0
 10
158.53706303177611
 20
91.875050245270373
 30
0.0
 11
158.39022412880871
 21
92.671120962339714
 31
0.0
  0
LINE
  5
A78
  8
0
 62
     0
 10
160.29912986738469
 20
82.322201640437953
 30
0.0
 11
160.15229096441729
 21
83.118272357507294
 31
0.0
  0
LINE
  5
A79
  8
0
 62
     0
 10
162.0611967029933
 20
72.769353035605562
 30
0.0
 11
161.9143578000259
 21
73.565423752674945
 31
0.0
  0
LINE
  5
A7A
  8
0
 62
     0
 10
163.82326353860179
 20
63.216504430773163
 30
0.0
 11
163.6764246356345
 21
64.012575147842526
 31
0.0
  0
LINE
  5
A7B
  8
0
 62
     0
 10
165.5853303742104
 20
53.663655825940751
 30
0.0
 11
165.438491471243
 21
54.45972654301012
 31
0.0
  0
LINE
  5
A7C
  8
0
 62
     0
 10
167.34739720981901
 20
44.110807221108331
 30
0.0
 11
167.2005583068516
 21
44.906877938177701
 31
0.0
  0
LINE
  5
A7D
  8
0
 62
     0
 10
169.10946404542759
 20
34.55795861627594
 30
0.0
 11
168.96262514246021
 21
35.354029333345331
 31
0.0
  0
LINE
  5
A7E
  8
0
 62
     0
 10
154.71407161969529
 20
64.013518644590974
 30
0.0
 11
154.5672327167278
 21
64.809589361660343
 31
0.0
  0
LINE
  5
A7F
  8
0
 62
     0
 10
156.4761384553039
 20
54.460670039758568
 30
0.0
 11
156.32929955233641
 21
55.256740756827917
 31
0.0
  0
LINE
  5
A80
  8
0
 62
     0
 10
158.2382052909125
 20
44.907821434926149
 30
0.0
 11
158.0913663879451
 21
45.703892151995532
 31
0.0
  0
LINE
  5
A81
  8
0
 62
     0
 10
160.00027212652111
 20
35.354972830093757
 30
0.0
 11
159.85343322355371
 21
36.151043547163141
 31
0.0
  0
LINE
  5
A82
  8
0
 62
     0
 10
177.4583519110594
 20
33.828456037054181
 30
0.0
 11
178.2174522710053
 21
33.76204336108048
 31
0.0
  0
LINE
  5
A83
  8
0
 62
     0
 10
168.3491475917084
 20
34.625408148738771
 30
0.0
 11
169.10824795165439
 21
34.558995472765048
 31
0.0
  0
LINE
  5
A84
  8
0
 62
     0
 10
159.23994327235761
 20
35.422360260423361
 30
0.0
 11
159.99904363230351
 21
35.355947584449652
 31
0.0
  0
LINE
  5
A85
  8
0
 62
     0
 10
175.69621061227599
 20
43.381288181163171
 30
0.0
 11
176.45531097222201
 21
43.314875505189463
 31
0.0
  0
LINE
  5
A86
  8
0
 62
     0
 10
166.58700629292511
 20
44.178240292847768
 30
0.0
 11
167.3461066528711
 21
44.111827616874017
 31
0.0
  0
LINE
  5
A87
  8
0
 62
     0
 10
157.47780197357409
 20
44.975192404532351
 30
0.0
 11
158.23690233352011
 21
44.908779728558642
 31
0.0
  0
LINE
  5
A88
  8
0
 62
     0
 10
183.04327363284361
 20
52.137168213587607
 30
0.0
 11
183.34693845304821
 21
52.110600984308071
 31
0.0
  0
LINE
  5
A89
  8
0
 62
     0
 10
173.9340693134927
 20
52.934120325272197
 30
0.0
 11
174.6931696734386
 21
52.867707649298481
 31
0.0
  0
LINE
  5
A8A
  8
0
 62
     0
 10
164.82486499414179
 20
53.731072436956772
 30
0.0
 11
165.5839653540877
 21
53.664659760983056
 31
0.0
  0
LINE
  5
A8B
  8
0
 62
     0
 10
155.71566067479091
 20
54.528024548641369
 30
0.0
 11
156.47476103473679
 21
54.461611872667632
 31
0.0
  0
LINE
  5
A8C
  8
0
 62
     0
 10
181.28113233406029
 20
61.690000357696611
 30
0.0
 11
182.04023269400619
 21
61.623587681722888
 31
0.0
  0
LINE
  5
A8D
  8
0
 62
     0
 10
172.17192801470941
 20
62.486952469381201
 30
0.0
 11
172.93102837465531
 21
62.420539793407492
 31
0.0
  0
LINE
  5
A8E
  8
0
 62
     0
 10
163.0627236953585
 20
63.283904581065791
 30
0.0
 11
163.8218240553044
 21
63.217491905092082
 31
0.0
  0
LINE
  5
A8F
  8
0
 62
     0
 10
153.95351937600759
 20
64.080856692750373
 30
0.0
 11
154.7126197359535
 21
64.01444401677665
 31
0.0
  0
LINE
  5
A90
  8
0
 62
     0
 10
179.51899103527691
 20
71.242832501805665
 30
0.0
 11
180.2780913952229
 21
71.176419825831942
 31
0.0
  0
LINE
  5
A91
  8
0
 62
     0
 10
170.409786715926
 20
72.039784613490241
 30
0.0
 11
171.16888707587191
 21
71.973371937516518
 31
0.0
  0
LINE
  5
A92
  8
0
 62
     0
 10
161.30058239657509
 20
72.836736725174802
 30
0.0
 11
162.059682756521
 21
72.770324049201093
 31
0.0
  0
LINE
  5
A93
  8
0
 62
     0
 10
177.75684973649359
 20
80.795664645914613
 30
0.0
 11
178.5159500964395
 21
80.729251969940904
 31
0.0
  0
LINE
  5
A94
  8
0
 62
     0
 10
168.64764541714271
 20
81.592616757599188
 30
0.0
 11
169.40674577708859
 21
81.526204081625465
 31
0.0
  0
LINE
  5
A95
  8
0
 62
     0
 10
159.5384410977918
 20
82.389568869283764
 30
0.0
 11
160.29754145773771
 21
82.323156193310055
 31
0.0
  0
LINE
  5
A96
  8
0
 62
     0
 10
175.99470843771019
 20
90.348496790023631
 30
0.0
 11
176.75380879765609
 21
90.282084114049937
 31
0.0
  0
LINE
  5
A97
  8
0
 62
     0
 10
166.88550411835931
 20
91.145448901708207
 30
0.0
 11
167.64460447830521
 21
91.079036225734498
 31
0.0
  0
LINE
  5
A98
  8
0
 62
     0
 10
157.7762997990084
 20
91.942401013392768
 30
0.0
 11
158.5354001589543
 21
91.875988337419074
 31
0.0
  0
LINE
  5
A99
  8
0
 62
     0
 10
183.3417714582778
 20
99.10437682244806
 30
0.0
 11
183.34693845304821
 21
99.10392476898113
 31
0.0
  0
LINE
  5
A9A
  8
0
 62
     0
 10
174.2325671389269
 20
99.901328934132636
 30
0.0
 11
174.9916674988728
 21
99.834916258158941
 31
0.0
  0
LINE
  5
A9B
  8
0
 62
     0
 10
165.1233628195759
 20
100.6982810458172
 30
0.0
 11
165.88246317952181
 21
100.6318683698435
 31
0.0
  0
LINE
  5
A9C
  8
0
 62
     0
 10
156.01415850022511
 20
101.4952331575018
 30
0.0
 11
156.77325886017101
 21
101.42882048152811
 31
0.0
  0
LINE
  5
A9D
  8
0
 62
     0
 10
181.57963015949451
 20
108.65720896655699
 30
0.0
 11
182.33873051944039
 21
108.5907962905833
 31
0.0
  0
LINE
  5
A9E
  8
0
 62
     0
 10
172.47042584014361
 20
109.4541610782416
 30
0.0
 11
173.22952620008951
 21
109.3877484022679
 31
0.0
  0
LINE
  5
A9F
  8
0
 62
     0
 10
163.36122152079261
 20
110.2511131899262
 30
0.0
 11
164.1203218807384
 21
110.18470051395251
 31
0.0
  0
LINE
  5
AA0
  8
0
 62
     0
 10
154.2520172014417
 20
111.04806530161071
 30
0.0
 11
155.01111756138761
 21
110.981652625637
 31
0.0
  0
LINE
  5
AA1
  8
0
 62
     0
 10
179.81748886071111
 20
118.210041110666
 30
0.0
 11
180.57658922065701
 21
118.1436284346923
 31
0.0
  0
LINE
  5
AA2
  8
0
 62
     0
 10
170.7082845413602
 20
119.0069932223506
 30
0.0
 11
171.4673849013061
 21
118.94058054637691
 31
0.0
  0
LINE
  5
AA3
  8
0
 62
     0
 10
161.59908022200909
 20
119.80394533403521
 30
0.0
 11
162.3581805819552
 21
119.7375326580615
 31
0.0
  0
LINE
  5
AA4
  8
0
 62
     0
 10
178.05534756192779
 20
127.762873254775
 30
0.0
 11
178.81444792187369
 21
127.69646057880129
 31
0.0
  0
LINE
  5
AA5
  8
0
 62
     0
 10
168.94614324257691
 20
128.55982536645959
 30
0.0
 11
169.70524360252281
 21
128.49341269048591
 31
0.0
  0
LINE
  5
AA6
  8
0
 62
     0
 10
159.836938923226
 20
129.35677747814421
 30
0.0
 11
160.5960392831719
 21
129.29036480217039
 31
0.0
  0
LINE
  5
AA7
  8
0
 62
     0
 10
167.1840019437935
 20
138.1126575105686
 30
0.0
 11
167.94310230373941
 21
138.04624483459489
 31
0.0
  0
LINE
  5
AA8
  8
0
 62
     0
 10
158.0747976244426
 20
138.90960962225321
 30
0.0
 11
158.8338979843885
 21
138.84319694627951
 31
0.0
  0
LINE
  5
AA9
  8
0
 62
     0
 10
177.45842646539879
 20
33.828608589782611
 30
0.0
 11
178.07068166362521
 21
34.55826592185344
 31
0.0
  0
LINE
  5
AAA
  8
0
 62
     0
 10
183.04331777303281
 20
52.137338836427602
 30
0.0
 11
183.3469384530483
 21
52.499179872621859
 31
0.0
  0
LINE
  5
AAB
  8
0
 62
     0
 10
175.69625539431561
 20
43.381450851577661
 30
0.0
 11
176.30851059254201
 21
44.11110818364849
 31
0.0
  0
LINE
  5
AAC
  8
0
 62
     0
 10
168.34919301559859
 20
34.625562866727748
 30
0.0
 11
168.96144821382501
 21
35.355220198798577
 31
0.0
  0
LINE
  5
AAD
  8
0
 62
     0
 10
181.28114670194981
 20
61.690181098222659
 30
0.0
 11
181.8934019001762
 21
62.419838430293467
 31
0.0
  0
LINE
  5
AAE
  8
0
 62
     0
 10
173.9340843232327
 20
52.934293113372732
 30
0.0
 11
174.546339521459
 21
53.663950445443582
 31
0.0
  0
LINE
  5
AAF
  8
0
 62
     0
 10
166.5870219445155
 20
44.178405128522819
 30
0.0
 11
167.19927714274201
 21
44.908062460593641
 31
0.0
  0
LINE
  5
AB0
  8
0
 62
     0
 10
159.23995956579839
 20
35.422517143672898
 30
0.0
 11
159.85221476402481
 21
36.152174475743728
 31
0.0
  0
LINE
  5
AB1
  8
0
 62
     0
 10
179.51897563086681
 20
71.243023360017744
 30
0.0
 11
180.13123082909311
 21
71.972680692088574
 31
0.0
  0
LINE
  5
AB2
  8
0
 62
     0
 10
172.17191325214961
 20
62.48713537516781
 30
0.0
 11
172.784168450376
 21
63.21679270723866
 31
0.0
  0
LINE
  5
AB3
  8
0
 62
     0
 10
164.8248508734325
 20
53.731247390317911
 30
0.0
 11
165.43710607165889
 21
54.460904722388747
 31
0.0
  0
LINE
  5
AB4
  8
0
 62
     0
 10
157.4777884947153
 20
44.975359405467991
 30
0.0
 11
158.09004369294169
 21
45.705016737538827
 31
0.0
  0
LINE
  5
AB5
  8
0
 62
     0
 10
177.7568045597836
 20
80.795865621812837
 30
0.0
 11
178.36905975801011
 21
81.525522953883666
 31
0.0
  0
LINE
  5
AB6
  8
0
 62
     0
 10
170.40974218106641
 20
72.039977636962917
 30
0.0
 11
171.021997379293
 21
72.769634969033731
 31
0.0
  0
LINE
  5
AB7
  8
0
 62
     0
 10
163.06267980234941
 20
63.284089652112982
 30
0.0
 11
163.6749350005758
 21
64.013746984183825
 31
0.0
  0
LINE
  5
AB8
  8
0
 62
     0
 10
155.7156174236323
 20
54.528201667263083
 30
0.0
 11
156.32787262185869
 21
55.257858999333891
 31
0.0
  0
LINE
  5
AB9
  8
0
 62
     0
 10
183.3416958674178
 20
99.104595868457821
 30
0.0
 11
183.3469384530483
 21
99.110843738717364
 31
0.0
  0
LINE
  5
ABA
  8
0
 62
     0
 10
175.99463348870071
 20
90.348707883607887
 30
0.0
 11
176.60688868692711
 21
91.078365215678716
 31
0.0
  0
LINE
  5
ABB
  8
0
 62
     0
 10
168.6475711099834
 20
81.592819898757952
 30
0.0
 11
169.25982630820991
 21
82.322477230828781
 31
0.0
  0
LINE
  5
ABC
  8
0
 62
     0
 10
161.3005087312664
 20
72.836931913908032
 30
0.0
 11
161.9127639294928
 21
73.566589245978861
 31
0.0
  0
LINE
  5
ABD
  8
0
 62
     0
 10
153.95344635254909
 20
64.081043929058126
 30
0.0
 11
154.56570155077571
 21
64.810701261128955
 31
0.0
  0
LINE
  5
ABE
  8
0
 62
     0
 10
181.57952479633471
 20
108.6574381302529
 30
0.0
 11
182.19177999456119
 21
109.3870954623237
 31
0.0
  0
LINE
  5
ABF
  8
0
 62
     0
 10
174.2324624176176
 20
99.90155014540295
 30
0.0
 11
174.84471761584399
 21
100.63120747747379
 31
0.0
  0
LINE
  5
AC0
  8
0
 62
     0
 10
166.88540003890051
 20
91.145662160553059
 30
0.0
 11
167.49765523712691
 21
91.875319492623845
 31
0.0
  0
LINE
  5
AC1
  8
0
 62
     0
 10
159.53833766018329
 20
82.389774175703096
 30
0.0
 11
160.15059285840979
 21
83.119431507773925
 31
0.0
  0
LINE
  5
AC2
  8
0
 62
     0
 10
179.81735372525171
 20
118.21028039204791
 30
0.0
 11
180.4296089234781
 21
118.93993772411881
 31
0.0
  0
LINE
  5
AC3
  8
0
 62
     0
 10
172.47029134653451
 20
109.454392407198
 30
0.0
 11
173.08254654476099
 21
110.1840497392689
 31
0.0
  0
LINE
  5
AC4
  8
0
 62
     0
 10
165.1232289678174
 20
100.69850442234809
 30
0.0
 11
165.7354841660439
 21
101.4281617544188
 31
0.0
  0
LINE
  5
AC5
  8
0
 62
     0
 10
157.77616658910031
 20
91.942616437498202
 30
0.0
 11
158.38842178732671
 21
92.67227376956906
 31
0.0
  0
LINE
  5
AC6
  8
0
 62
     0
 10
178.0551826541687
 20
127.763122653843
 30
0.0
 11
178.6674378523951
 21
128.49277998591381
 31
0.0
  0
LINE
  5
AC7
  8
0
 62
     0
 10
170.70812027545151
 20
119.00723466899311
 30
0.0
 11
171.3203754736779
 21
119.73689200106389
 31
0.0
  0
LINE
  5
AC8
  8
0
 62
     0
 10
163.36105789673439
 20
110.2513466841432
 30
0.0
 11
163.97331309496079
 21
110.981004016214
 31
0.0
  0
LINE
  5
AC9
  8
0
 62
     0
 10
156.01399551801731
 20
101.49545869929329
 30
0.0
 11
156.62625071624359
 21
102.2251160313641
 31
0.0
  0
LINE
  5
ACA
  8
0
 62
     0
 10
168.94594920436839
 20
128.56007693078811
 30
0.0
 11
169.55820440259481
 21
129.2897342628589
 31
0.0
  0
LINE
  5
ACB
  8
0
 62
     0
 10
161.59888682565131
 20
119.80418894593819
 30
0.0
 11
162.2111420238777
 21
120.53384627800899
 31
0.0
  0
LINE
  5
ACC
  8
0
 62
     0
 10
154.25182444693411
 20
111.0483009610883
 30
0.0
 11
154.8640796451605
 21
111.7779582931591
 31
0.0
  0
LINE
  5
ACD
  8
0
 62
     0
 10
167.18377813328539
 20
138.11291919258321
 30
0.0
 11
167.79603333151189
 21
138.84257652465411
 31
0.0
  0
LINE
  5
ACE
  8
0
 62
     0
 10
159.8367157545683
 20
129.35703120773331
 30
0.0
 11
160.4489709527947
 21
130.0866885398041
 31
0.0
  0
LINE
  5
ACF
  8
0
 62
     0
 10
158.07454468348519
 20
138.90987346952841
 30
0.0
 11
158.68679988171161
 21
139.63953080159919
 31
0.0
  0
ENDBLK
  5
AD1
  8
0
  0
BLOCK
  8
0
  2
*X7
 70
     1
 10
0.0
 20
0.0
 30
0.0
  3
*X7
  1

  0
LINE
  5
AD3
  8
0
 62
     0
 10
207.29207979112601
 20
32.931478259546637
 30
0.0
 11
207.29207979112601
 21
32.931478259546637
 31
0.0
  0
LINE
  5
AD4
  8
0
 62
     0
 10
214.69853886042699
 20
34.202802811213267
 30
0.0
 11
214.69853886042699
 21
34.202802811213267
 31
0.0
  0
LINE
  5
AD5
  8
0
 62
     0
 10
209.84828617248789
 20
38.647240551033661
 30
0.0
 11
209.84828617248789
 21
38.647240551033661
 31
0.0
  0
LINE
  5
AD6
  8
0
 62
     0
 10
206.80517396480411
 20
41.435739132967292
 30
0.0
 11
206.80517396480411
 21
41.435739132967292
 31
0.0
  0
LINE
  5
AD7
  8
0
 62
     0
 10
222.1049979297278
 20
35.474127362879919
 30
0.0
 11
222.1049979297278
 21
35.474127362879919
 31
0.0
  0
LINE
  5
AD8
  8
0
 62
     0
 10
217.2547452417887
 20
39.918565102700313
 30
0.0
 11
217.2547452417887
 21
39.918565102700313
 31
0.0
  0
LINE
  5
AD9
  8
0
 62
     0
 10
214.21163303410501
 20
42.707063684633923
 30
0.0
 11
214.21163303410501
 21
42.707063684633923
 31
0.0
  0
LINE
  5
ADA
  8
0
 62
     0
 10
207.32951773365079
 20
49.013360477622321
 30
0.0
 11
207.32951773365079
 21
49.013360477622321
 31
0.0
  0
LINE
  5
ADB
  8
0
 62
     0
 10
229.5114569990287
 20
36.745451914546571
 30
0.0
 11
229.5114569990287
 21
36.745451914546571
 31
0.0
  0
LINE
  5
ADC
  8
0
 62
     0
 10
224.66120431108959
 20
41.189889654366937
 30
0.0
 11
224.66120431108959
 21
41.189889654366937
 31
0.0
  0
LINE
  5
ADD
  8
0
 62
     0
 10
221.6180921034057
 20
43.978388236300582
 30
0.0
 11
221.6180921034057
 21
43.978388236300582
 31
0.0
  0
LINE
  5
ADE
  8
0
 62
     0
 10
214.7359768029518
 20
50.284685029288958
 30
0.0
 11
214.7359768029518
 21
50.284685029288958
 31
0.0
  0
LINE
  5
ADF
  8
0
 62
     0
 10
209.88572411501269
 20
54.729122769109352
 30
0.0
 11
209.88572411501269
 21
54.729122769109352
 31
0.0
  0
LINE
  5
AE0
  8
0
 62
     0
 10
206.84261190732889
 20
57.517621351042997
 30
0.0
 11
206.84261190732889
 21
57.517621351042997
 31
0.0
  0
LINE
  5
AE1
  8
0
 62
     0
 10
232.06766338039051
 20
42.461214206033652
 30
0.0
 11
232.06766338039051
 21
42.461214206033652
 31
0.0
  0
LINE
  5
AE2
  8
0
 62
     0
 10
229.02455117270671
 20
45.24971278796729
 30
0.0
 11
229.02455117270671
 21
45.24971278796729
 31
0.0
  0
LINE
  5
AE3
  8
0
 62
     0
 10
222.14243587225261
 20
51.556009580955667
 30
0.0
 11
222.14243587225261
 21
51.556009580955667
 31
0.0
  0
LINE
  5
AE4
  8
0
 62
     0
 10
217.29218318431359
 20
56.000447320776068
 30
0.0
 11
217.29218318431359
 21
56.000447320776068
 31
0.0
  0
LINE
  5
AE5
  8
0
 62
     0
 10
214.24907097662989
 20
58.788945902709699
 30
0.0
 11
214.24907097662989
 21
58.788945902709699
 31
0.0
  0
LINE
  5
AE6
  8
0
 62
     0
 10
207.36695567617571
 20
65.09524269569809
 30
0.0
 11
207.36695567617571
 21
65.09524269569809
 31
0.0
  0
LINE
  5
AE7
  8
0
 62
     0
 10
229.54889494155361
 20
52.827334132622283
 30
0.0
 11
229.54889494155361
 21
52.827334132622283
 31
0.0
  0
LINE
  5
AE8
  8
0
 62
     0
 10
224.69864225361439
 20
57.271771872442649
 30
0.0
 11
224.69864225361439
 21
57.271771872442649
 31
0.0
  0
LINE
  5
AE9
  8
0
 62
     0
 10
221.6555300459307
 20
60.060270454376301
 30
0.0
 11
221.6555300459307
 21
60.060270454376301
 31
0.0
  0
LINE
  5
AEA
  8
0
 62
     0
 10
214.7734147454766
 20
66.366567247364685
 30
0.0
 11
214.7734147454766
 21
66.366567247364685
 31
0.0
  0
LINE
  5
AEB
  8
0
 62
     0
 10
209.9231620575375
 20
70.811004987185044
 30
0.0
 11
209.9231620575375
 21
70.811004987185044
 31
0.0
  0
LINE
  5
AEC
  8
0
 62
     0
 10
206.88004984985369
 20
73.599503569118696
 30
0.0
 11
206.88004984985369
 21
73.599503569118696
 31
0.0
  0
LINE
  5
AED
  8
0
 62
     0
 10
232.1051013229154
 20
58.543096424109322
 30
0.0
 11
232.1051013229154
 21
58.543096424109322
 31
0.0
  0
LINE
  5
AEE
  8
0
 62
     0
 10
229.0619891152316
 20
61.33159500604296
 30
0.0
 11
229.0619891152316
 21
61.33159500604296
 31
0.0
  0
LINE
  5
AEF
  8
0
 62
     0
 10
222.17987381477749
 20
67.637891799031337
 30
0.0
 11
222.17987381477749
 21
67.637891799031337
 31
0.0
  0
LINE
  5
AF0
  8
0
 62
     0
 10
217.32962112683839
 20
72.082329538851695
 30
0.0
 11
217.32962112683839
 21
72.082329538851695
 31
0.0
  0
LINE
  5
AF1
  8
0
 62
     0
 10
214.2865089191547
 20
74.870828120785362
 30
0.0
 11
214.2865089191547
 21
74.870828120785362
 31
0.0
  0
LINE
  5
AF2
  8
0
 62
     0
 10
229.58633288407839
 20
68.909216350698031
 30
0.0
 11
229.58633288407839
 21
68.909216350698031
 31
0.0
  0
LINE
  5
AF3
  8
0
 62
     0
 10
224.73608019613931
 20
73.353654090518432
 30
0.0
 11
224.73608019613931
 21
73.353654090518432
 31
0.0
  0
LINE
  5
AF4
  8
0
 62
     0
 10
221.69296798845551
 20
76.142152672452056
 30
0.0
 11
221.69296798845551
 21
76.142152672452056
 31
0.0
  0
LINE
  5
AF5
  8
0
 62
     0
 10
232.14253926544021
 20
74.624978642185013
 30
0.0
 11
232.14253926544021
 21
74.624978642185013
 31
0.0
  0
LINE
  5
AF6
  8
0
 62
     0
 10
229.09942705775649
 20
77.413477224118651
 30
0.0
 11
229.09942705775649
 21
77.413477224118651
 31
0.0
  0
LINE
  5
AF7
  8
0
 62
     0
 10
203.4179110914362
 20
30.150255075738119
 30
0.0
 11
203.4179110914362
 21
30.150255075738119
 31
0.0
  0
LINE
  5
AF8
  8
0
 62
     0
 10
208.62233494590089
 20
34.89987059675439
 30
0.0
 11
208.62233494590089
 21
34.89987059675439
 31
0.0
  0
LINE
  5
AF9
  8
0
 62
     0
 10
205.944567105445
 20
36.605796853255548
 30
0.0
 11
205.944567105445
 21
36.605796853255548
 31
0.0
  0
LINE
  5
AFA
  8
0
 62
     0
 10
215.4018647042445
 20
34.613433397120751
 30
0.0
 11
215.4018647042445
 21
34.613433397120751
 31
0.0
  0
LINE
  5
AFB
  8
0
 62
     0
 10
212.7240968637885
 20
36.319359653621909
 30
0.0
 11
212.7240968637885
 21
36.319359653621909
 31
0.0
  0
LINE
  5
AFC
  8
0
 62
     0
 10
222.18139446258809
 20
34.326996197486977
 30
0.0
 11
222.18139446258809
 21
34.326996197486977
 31
0.0
  0
LINE
  5
AFD
  8
0
 62
     0
 10
219.5036266221322
 20
36.032922453988149
 30
0.0
 11
219.5036266221322
 21
36.032922453988149
 31
0.0
  0
LINE
  5
AFE
  8
0
 62
     0
 10
208.41766776264481
 20
43.095457155902977
 30
0.0
 11
208.41766776264481
 21
43.095457155902977
 31
0.0
  0
LINE
  5
AFF
  8
0
 62
     0
 10
228.96092422093159
 20
34.04055899785336
 30
0.0
 11
228.96092422093159
 21
34.04055899785336
 31
0.0
  0
LINE
  5
B00
  8
0
 62
     0
 10
226.2831563804757
 20
35.746485254354532
 30
0.0
 11
226.2831563804757
 21
35.746485254354532
 31
0.0
  0
LINE
  5
B01
  8
0
 62
     0
 10
215.1971975209882
 20
42.809019956269353
 30
0.0
 11
215.1971975209882
 21
42.809019956269353
 31
0.0
  0
LINE
  5
B02
  8
0
 62
     0
 10
206.84256185876581
 20
48.131509876552997
 30
0.0
 11
206.84256185876581
 21
48.131509876552997
 31
0.0
  0
LINE
  5
B03
  8
0
 62
     0
 10
204.16479401830989
 20
49.837436133054148
 30
0.0
 11
204.16479401830989
 21
49.837436133054148
 31
0.0
  0
LINE
  5
B04
  8
0
 62
     0
 10
233.06268613881929
 20
35.460048054720893
 30
0.0
 11
233.06268613881929
 21
35.460048054720893
 31
0.0
  0
LINE
  5
B05
  8
0
 62
     0
 10
221.97672727933181
 20
42.522582756635721
 30
0.0
 11
221.97672727933181
 21
42.522582756635721
 31
0.0
  0
LINE
  5
B06
  8
0
 62
     0
 10
213.62209161710931
 20
47.845072676919351
 30
0.0
 11
213.62209161710931
 21
47.845072676919351
 31
0.0
  0
LINE
  5
B07
  8
0
 62
     0
 10
210.94432377665339
 20
49.550998933420551
 30
0.0
 11
210.94432377665339
 21
49.550998933420551
 31
0.0
  0
LINE
  5
B08
  8
0
 62
     0
 10
228.7562570376754
 20
42.23614555700199
 30
0.0
 11
228.7562570376754
 21
42.23614555700199
 31
0.0
  0
LINE
  5
B09
  8
0
 62
     0
 10
220.401621375453
 20
47.558635477285613
 30
0.0
 11
220.401621375453
 21
47.558635477285613
 31
0.0
  0
LINE
  5
B0A
  8
0
 62
     0
 10
217.72385353499709
 20
49.264561733786792
 30
0.0
 11
217.72385353499709
 21
49.264561733786792
 31
0.0
  0
LINE
  5
B0B
  8
0
 62
     0
 10
206.63789467550961
 20
56.32709643570162
 30
0.0
 11
206.63789467550961
 21
56.32709643570162
 31
0.0
  0
LINE
  5
B0C
  8
0
 62
     0
 10
227.1811511337965
 20
47.272198277651952
 30
0.0
 11
227.1811511337965
 21
47.272198277651952
 31
0.0
  0
LINE
  5
B0D
  8
0
 62
     0
 10
224.50338329334059
 20
48.978124534153139
 30
0.0
 11
224.50338329334059
 21
48.978124534153139
 31
0.0
  0
LINE
  5
B0E
  8
0
 62
     0
 10
213.41742443385311
 20
56.040659236067967
 30
0.0
 11
213.41742443385311
 21
56.040659236067967
 31
0.0
  0
LINE
  5
B0F
  8
0
 62
     0
 10
205.06278877163069
 20
61.363149156351611
 30
0.0
 11
205.06278877163069
 21
61.363149156351611
 31
0.0
  0
LINE
  5
B10
  8
0
 62
     0
 10
231.2829130516842
 20
48.691687334519457
 30
0.0
 11
231.2829130516842
 21
48.691687334519457
 31
0.0
  0
LINE
  5
B11
  8
0
 62
     0
 10
220.1969541921967
 20
55.754222036434271
 30
0.0
 11
220.1969541921967
 21
55.754222036434271
 31
0.0
  0
LINE
  5
B12
  8
0
 62
     0
 10
211.84231852997431
 20
61.076711956717929
 30
0.0
 11
211.84231852997431
 21
61.076711956717929
 31
0.0
  0
LINE
  5
B13
  8
0
 62
     0
 10
209.16455068951839
 20
62.782638213219087
 30
0.0
 11
209.16455068951839
 21
62.782638213219087
 31
0.0
  0
LINE
  5
B14
  8
0
 62
     0
 10
226.97648395054031
 20
55.467784836800639
 30
0.0
 11
226.97648395054031
 21
55.467784836800639
 31
0.0
  0
LINE
  5
B15
  8
0
 62
     0
 10
218.62184828831781
 20
60.790274757084291
 30
0.0
 11
218.62184828831781
 21
60.790274757084291
 31
0.0
  0
LINE
  5
B16
  8
0
 62
     0
 10
215.94408044786189
 20
62.496201013585427
 30
0.0
 11
215.94408044786189
 21
62.496201013585427
 31
0.0
  0
LINE
  5
B17
  8
0
 62
     0
 10
204.8581215883745
 20
69.558735715500276
 30
0.0
 11
204.8581215883745
 21
69.558735715500276
 31
0.0
  0
LINE
  5
B18
  8
0
 62
     0
 10
225.40137804666139
 20
60.503837557450623
 30
0.0
 11
225.40137804666139
 21
60.503837557450623
 31
0.0
  0
LINE
  5
B19
  8
0
 62
     0
 10
222.72361020620551
 20
62.209763813951781
 30
0.0
 11
222.72361020620551
 21
62.209763813951781
 31
0.0
  0
LINE
  5
B1A
  8
0
 62
     0
 10
211.637651346718
 20
69.272298515866609
 30
0.0
 11
211.637651346718
 21
69.272298515866609
 31
0.0
  0
LINE
  5
B1B
  8
0
 62
     0
 10
232.18090780500501
 20
60.21740035781697
 30
0.0
 11
232.18090780500501
 21
60.21740035781697
 31
0.0
  0
LINE
  5
B1C
  8
0
 62
     0
 10
229.50313996454909
 20
61.923326614318107
 30
0.0
 11
229.50313996454909
 21
61.923326614318107
 31
0.0
  0
LINE
  5
B1D
  8
0
 62
     0
 10
218.41718110506159
 20
68.985861316232942
 30
0.0
 11
218.41718110506159
 21
68.985861316232942
 31
0.0
  0
LINE
  5
B1E
  8
0
 62
     0
 10
210.06254544283911
 20
74.308351236516586
 30
0.0
 11
210.06254544283911
 21
74.308351236516586
 31
0.0
  0
LINE
  5
B1F
  8
0
 62
     0
 10
207.3847776023832
 20
76.014277493017772
 30
0.0
 11
207.3847776023832
 21
76.014277493017772
 31
0.0
  0
LINE
  5
B20
  8
0
 62
     0
 10
225.1967108634052
 20
68.699424116599261
 30
0.0
 11
225.1967108634052
 21
68.699424116599261
 31
0.0
  0
LINE
  5
B21
  8
0
 62
     0
 10
216.84207520118269
 20
74.02191403688289
 30
0.0
 11
216.84207520118269
 21
74.02191403688289
 31
0.0
  0
LINE
  5
B22
  8
0
 62
     0
 10
214.16430736072681
 20
75.727840293384062
 30
0.0
 11
214.16430736072681
 21
75.727840293384062
 31
0.0
  0
LINE
  5
B23
  8
0
 62
     0
 10
231.9762406217487
 20
68.412986916965608
 30
0.0
 11
231.9762406217487
 21
68.412986916965608
 31
0.0
  0
LINE
  5
B24
  8
0
 62
     0
 10
223.62160495952631
 20
73.735476837249252
 30
0.0
 11
223.62160495952631
 21
73.735476837249252
 31
0.0
  0
LINE
  5
B25
  8
0
 62
     0
 10
220.94383711907031
 20
75.441403093750424
 30
0.0
 11
220.94383711907031
 21
75.441403093750424
 31
0.0
  0
LINE
  5
B26
  8
0
 62
     0
 10
230.40113471786981
 20
73.44903963761557
 30
0.0
 11
230.40113471786981
 21
73.44903963761557
 31
0.0
  0
LINE
  5
B27
  8
0
 62
     0
 10
227.72336687741389
 20
75.154965894116742
 30
0.0
 11
227.72336687741389
 21
75.154965894116742
 31
0.0
  0
LINE
  5
B28
  8
0
 62
     0
 10
231.65984917307759
 20
32.824985651035291
 30
0.0
 11
231.65984917307759
 21
32.824985651035291
 31
0.0
  0
LINE
  5
B29
  8
0
 62
     0
 10
223.63915938904969
 20
31.769041808594299
 30
0.0
 11
223.63915938904969
 21
31.769041808594299
 31
0.0
  0
LINE
  5
B2A
  8
0
 62
     0
 10
218.8292637885807
 20
31.135807039657941
 30
0.0
 11
218.8292637885807
 21
31.135807039657941
 31
0.0
  0
LINE
  5
B2B
  8
0
 62
     0
 10
215.6499479793703
 20
30.71724217275629
 30
0.0
 11
215.6499479793703
 21
30.71724217275629
 31
0.0
  0
LINE
  5
B2C
  8
0
 62
     0
 10
226.9801425145649
 20
36.778070549500278
 30
0.0
 11
226.9801425145649
 21
36.778070549500278
 31
0.0
  0
LINE
  5
B2D
  8
0
 62
     0
 10
222.170246914096
 20
36.144835780563923
 30
0.0
 11
222.170246914096
 21
36.144835780563923
 31
0.0
  0
LINE
  5
B2E
  8
0
 62
     0
 10
218.9909311048855
 20
35.726270913662269
 30
0.0
 11
218.9909311048855
 21
35.726270913662269
 31
0.0
  0
LINE
  5
B2F
  8
0
 62
     0
 10
210.9702413208575
 20
34.67032707122128
 30
0.0
 11
210.9702413208575
 21
34.67032707122128
 31
0.0
  0
LINE
  5
B30
  8
0
 62
     0
 10
206.16034572038859
 20
34.037092302284911
 30
0.0
 11
206.16034572038859
 21
34.037092302284911
 31
0.0
  0
LINE
  5
B31
  8
0
 62
     0
 10
230.3211256400802
 20
41.787099290406267
 30
0.0
 11
230.3211256400802
 21
41.787099290406267
 31
0.0
  0
LINE
  5
B32
  8
0
 62
     0
 10
225.51123003961129
 20
41.153864521469899
 30
0.0
 11
225.51123003961129
 21
41.153864521469899
 31
0.0
  0
LINE
  5
B33
  8
0
 62
     0
 10
222.3319142304008
 20
40.735299654568273
 30
0.0
 11
222.3319142304008
 21
40.735299654568273
 31
0.0
  0
LINE
  5
B34
  8
0
 62
     0
 10
214.3112244463729
 20
39.679355812127277
 30
0.0
 11
214.3112244463729
 21
39.679355812127277
 31
0.0
  0
LINE
  5
B35
  8
0
 62
     0
 10
209.501328845904
 20
39.046121043190908
 30
0.0
 11
209.501328845904
 21
39.046121043190908
 31
0.0
  0
LINE
  5
B36
  8
0
 62
     0
 10
206.32201303669351
 20
38.627556176289268
 30
0.0
 11
206.32201303669351
 21
38.627556176289268
 31
0.0
  0
LINE
  5
B37
  8
0
 62
     0
 10
228.8522131651265
 20
46.16289326237586
 30
0.0
 11
228.8522131651265
 21
46.16289326237586
 31
0.0
  0
LINE
  5
B38
  8
0
 62
     0
 10
225.67289735591609
 20
45.744328395474213
 30
0.0
 11
225.67289735591609
 21
45.744328395474213
 31
0.0
  0
LINE
  5
B39
  8
0
 62
     0
 10
217.65220757188811
 20
44.688384553033217
 30
0.0
 11
217.65220757188811
 21
44.688384553033217
 31
0.0
  0
LINE
  5
B3A
  8
0
 62
     0
 10
212.84231197141921
 20
44.055149784096862
 30
0.0
 11
212.84231197141921
 21
44.055149784096862
 31
0.0
  0
LINE
  5
B3B
  8
0
 62
     0
 10
209.66299616220871
 20
43.636584917195222
 30
0.0
 11
209.66299616220871
 21
43.636584917195222
 31
0.0
  0
LINE
  5
B3C
  8
0
 62
     0
 10
232.19319629064171
 20
51.171922003281857
 30
0.0
 11
232.19319629064171
 21
51.171922003281857
 31
0.0
  0
LINE
  5
B3D
  8
0
 62
     0
 10
229.01388048143141
 20
50.753357136380217
 30
0.0
 11
229.01388048143141
 21
50.753357136380217
 31
0.0
  0
LINE
  5
B3E
  8
0
 62
     0
 10
220.99319069740341
 20
49.697413293939199
 30
0.0
 11
220.99319069740341
 21
49.697413293939199
 31
0.0
  0
LINE
  5
B3F
  8
0
 62
     0
 10
216.1832950969345
 20
49.064178525002852
 30
0.0
 11
216.1832950969345
 21
49.064178525002852
 31
0.0
  0
LINE
  5
B40
  8
0
 62
     0
 10
213.00397928772401
 20
48.645613658101198
 30
0.0
 11
213.00397928772401
 21
48.645613658101198
 31
0.0
  0
LINE
  5
B41
  8
0
 62
     0
 10
204.98328950369589
 20
47.589669815660208
 30
0.0
 11
204.98328950369589
 21
47.589669815660208
 31
0.0
  0
LINE
  5
B42
  8
0
 62
     0
 10
232.35486360694671
 20
55.762385877286157
 30
0.0
 11
232.35486360694671
 21
55.762385877286157
 31
0.0
  0
LINE
  5
B43
  8
0
 62
     0
 10
224.3341738229187
 20
54.706442034845182
 30
0.0
 11
224.3341738229187
 21
54.706442034845182
 31
0.0
  0
LINE
  5
B44
  8
0
 62
     0
 10
219.52427822244971
 20
54.07320726590882
 30
0.0
 11
219.52427822244971
 21
54.07320726590882
 31
0.0
  0
LINE
  5
B45
  8
0
 62
     0
 10
216.3449624132393
 20
53.654642399007173
 30
0.0
 11
216.3449624132393
 21
53.654642399007173
 31
0.0
  0
LINE
  5
B46
  8
0
 62
     0
 10
208.32427262921121
 20
52.59869855656617
 30
0.0
 11
208.32427262921121
 21
52.59869855656617
 31
0.0
  0
LINE
  5
B47
  8
0
 62
     0
 10
203.51437702874239
 20
51.965463787629808
 30
0.0
 11
203.51437702874239
 21
51.965463787629808
 31
0.0
  0
LINE
  5
B48
  8
0
 62
     0
 10
227.67515694843399
 20
59.715470775751172
 30
0.0
 11
227.67515694843399
 21
59.715470775751172
 31
0.0
  0
LINE
  5
B49
  8
0
 62
     0
 10
222.86526134796509
 20
59.08223600681481
 30
0.0
 11
222.86526134796509
 21
59.08223600681481
 31
0.0
  0
LINE
  5
B4A
  8
0
 62
     0
 10
219.68594553875459
 20
58.663671139913163
 30
0.0
 11
219.68594553875459
 21
58.663671139913163
 31
0.0
  0
LINE
  5
B4B
  8
0
 62
     0
 10
211.6652557547265
 20
57.607727297472152
 30
0.0
 11
211.6652557547265
 21
57.607727297472152
 31
0.0
  0
LINE
  5
B4C
  8
0
 62
     0
 10
206.8553601542578
 20
56.974492528535798
 30
0.0
 11
206.8553601542578
 21
56.974492528535798
 31
0.0
  0
LINE
  5
B4D
  8
0
 62
     0
 10
203.6760443450473
 20
56.555927661634151
 30
0.0
 11
203.6760443450473
 21
56.555927661634151
 31
0.0
  0
LINE
  5
B4E
  8
0
 62
     0
 10
231.01614007394929
 20
64.724499516657133
 30
0.0
 11
231.01614007394929
 21
64.724499516657133
 31
0.0
  0
LINE
  5
B4F
  8
0
 62
     0
 10
226.2062444734803
 20
64.091264747720771
 30
0.0
 11
226.2062444734803
 21
64.091264747720771
 31
0.0
  0
LINE
  5
B50
  8
0
 62
     0
 10
223.02692866426989
 20
63.67269988081911
 30
0.0
 11
223.02692866426989
 21
63.67269988081911
 31
0.0
  0
LINE
  5
B51
  8
0
 62
     0
 10
215.00623888024191
 20
62.616756038378121
 30
0.0
 11
215.00623888024191
 21
62.616756038378121
 31
0.0
  0
LINE
  5
B52
  8
0
 62
     0
 10
210.196343279773
 20
61.983521269441752
 30
0.0
 11
210.196343279773
 21
61.983521269441752
 31
0.0
  0
LINE
  5
B53
  8
0
 62
     0
 10
207.01702747056251
 20
61.564956402540112
 30
0.0
 11
207.01702747056251
 21
61.564956402540112
 31
0.0
  0
LINE
  5
B54
  8
0
 62
     0
 10
229.54722759899559
 20
69.100293488626733
 30
0.0
 11
229.54722759899559
 21
69.100293488626733
 31
0.0
  0
LINE
  5
B55
  8
0
 62
     0
 10
226.36791178978521
 20
68.6817286217251
 30
0.0
 11
226.36791178978521
 21
68.6817286217251
 31
0.0
  0
LINE
  5
B56
  8
0
 62
     0
 10
218.3472220057572
 20
67.625784779284103
 30
0.0
 11
218.3472220057572
 21
67.625784779284103
 31
0.0
  0
LINE
  5
B57
  8
0
 62
     0
 10
213.5373264052883
 20
66.992550010347742
 30
0.0
 11
213.5373264052883
 21
66.992550010347742
 31
0.0
  0
LINE
  5
B58
  8
0
 62
     0
 10
210.3580105960778
 20
66.573985143446109
 30
0.0
 11
210.3580105960778
 21
66.573985143446109
 31
0.0
  0
LINE
  5
B59
  8
0
 62
     0
 10
232.88821072451091
 20
74.109322229532694
 30
0.0
 11
232.88821072451091
 21
74.109322229532694
 31
0.0
  0
LINE
  5
B5A
  8
0
 62
     0
 10
229.7088949153005
 20
73.690757362631061
 30
0.0
 11
229.7088949153005
 21
73.690757362631061
 31
0.0
  0
LINE
  5
B5B
  8
0
 62
     0
 10
221.6882051312725
 20
72.634813520190065
 30
0.0
 11
221.6882051312725
 21
72.634813520190065
 31
0.0
  0
LINE
  5
B5C
  8
0
 62
     0
 10
216.87830953080359
 20
72.001578751253703
 30
0.0
 11
216.87830953080359
 21
72.001578751253703
 31
0.0
  0
LINE
  5
B5D
  8
0
 62
     0
 10
213.6989937215931
 20
71.58301388435207
 30
0.0
 11
213.6989937215931
 21
71.58301388435207
 31
0.0
  0
LINE
  5
B5E
  8
0
 62
     0
 10
205.67830393756509
 20
70.527070041911045
 30
0.0
 11
205.67830393756509
 21
70.527070041911045
 31
0.0
  0
LINE
  5
B5F
  8
0
 62
     0
 10
233.0498780408158
 20
78.699786103537065
 30
0.0
 11
233.0498780408158
 21
78.699786103537065
 31
0.0
  0
LINE
  5
B60
  8
0
 62
     0
 10
225.02918825678779
 20
77.643842261096083
 30
0.0
 11
225.02918825678779
 21
77.643842261096083
 31
0.0
  0
LINE
  5
B61
  8
0
 62
     0
 10
220.2192926563188
 20
77.010607492159707
 30
0.0
 11
220.2192926563188
 21
77.010607492159707
 31
0.0
  0
LINE
  5
B62
  8
0
 62
     0
 10
217.03997684710839
 20
76.59204262525806
 30
0.0
 11
217.03997684710839
 21
76.59204262525806
 31
0.0
  0
LINE
  5
B63
  8
0
 62
     0
 10
209.01928706308041
 20
75.536098782817064
 30
0.0
 11
209.01928706308041
 21
75.536098782817064
 31
0.0
  0
LINE
  5
B64
  8
0
 62
     0
 10
204.20939146261151
 20
74.902864013880702
 30
0.0
 11
204.20939146261151
 21
74.902864013880702
 31
0.0
  0
LINE
  5
B65
  8
0
 62
     0
 10
207.5503745881268
 20
79.911892754786649
 30
0.0
 11
207.5503745881268
 21
79.911892754786649
 31
0.0
  0
LINE
  5
B66
  8
0
 62
     0
 10
204.37105877891631
 20
79.493327887884988
 30
0.0
 11
204.37105877891631
 21
79.493327887884988
 31
0.0
  0
LINE
  5
B67
  8
0
 62
     0
 10
229.5493670000447
 20
30.684509621458378
 30
0.0
 11
229.5493670000447
 21
30.684509621458378
 31
0.0
  0
LINE
  5
B68
  8
0
 62
     0
 10
229.7037971625742
 20
34.912261565116033
 30
0.0
 11
229.7037971625742
 21
34.912261565116033
 31
0.0
  0
LINE
  5
B69
  8
0
 62
     0
 10
229.85822732510391
 20
39.14001350877367
 30
0.0
 11
229.85822732510391
 21
39.14001350877367
 31
0.0
  0
LINE
  5
B6A
  8
0
 62
     0
 10
223.28894432615641
 20
34.099225372009862
 30
0.0
 11
223.28894432615641
 21
34.099225372009862
 31
0.0
  0
LINE
  5
B6B
  8
0
 62
     0
 10
230.0126574876335
 20
43.367765452431307
 30
0.0
 11
230.0126574876335
 21
43.367765452431307
 31
0.0
  0
LINE
  5
B6C
  8
0
 62
     0
 10
223.44337448868581
 20
38.326977315667527
 30
0.0
 11
223.44337448868581
 21
38.326977315667527
 31
0.0
  0
LINE
  5
B6D
  8
0
 62
     0
 10
216.76829782181059
 20
33.205010842345402
 30
0.0
 11
216.76829782181059
 21
33.205010842345402
 31
0.0
  0
LINE
  5
B6E
  8
0
 62
     0
 10
230.1670876501631
 20
47.595517396089001
 30
0.0
 11
230.1670876501631
 21
47.595517396089001
 31
0.0
  0
LINE
  5
B6F
  8
0
 62
     0
 10
223.59780465121551
 20
42.554729259325192
 30
0.0
 11
223.59780465121551
 21
42.554729259325192
 31
0.0
  0
LINE
  5
B70
  8
0
 62
     0
 10
216.9227279843401
 20
37.43276278600306
 30
0.0
 11
216.9227279843401
 21
37.43276278600306
 31
0.0
  0
LINE
  5
B71
  8
0
 62
     0
 10
210.17208441180199
 20
32.252811786567861
 30
0.0
 11
210.17208441180199
 21
32.252811786567861
 31
0.0
  0
LINE
  5
B72
  8
0
 62
     0
 10
230.3215178126926
 20
51.823269339746638
 30
0.0
 11
230.3215178126926
 21
51.823269339746638
 31
0.0
  0
LINE
  5
B73
  8
0
 62
     0
 10
223.7522348137451
 20
46.782481202982837
 30
0.0
 11
223.7522348137451
 21
46.782481202982837
 31
0.0
  0
LINE
  5
B74
  8
0
 62
     0
 10
217.07715814686969
 20
41.660514729660711
 30
0.0
 11
217.07715814686969
 21
41.660514729660711
 31
0.0
  0
LINE
  5
B75
  8
0
 62
     0
 10
210.32651457433161
 20
36.480563730225512
 30
0.0
 11
210.32651457433161
 21
36.480563730225512
 31
0.0
  0
LINE
  5
B76
  8
0
 62
     0
 10
203.757231575384
 20
31.43977559346169
 30
0.0
 11
203.757231575384
 21
31.43977559346169
 31
0.0
  0
LINE
  5
B77
  8
0
 62
     0
 10
230.47594797522231
 20
56.051021283404303
 30
0.0
 11
230.47594797522231
 21
56.051021283404303
 31
0.0
  0
LINE
  5
B78
  8
0
 62
     0
 10
223.9066649762747
 20
51.010233146640502
 30
0.0
 11
223.9066649762747
 21
51.010233146640502
 31
0.0
  0
LINE
  5
B79
  8
0
 62
     0
 10
217.23158830939931
 20
45.888266673318363
 30
0.0
 11
217.23158830939931
 21
45.888266673318363
 31
0.0
  0
LINE
  5
B7A
  8
0
 62
     0
 10
210.4809447368612
 20
40.708315673883149
 30
0.0
 11
210.4809447368612
 21
40.708315673883149
 31
0.0
  0
LINE
  5
B7B
  8
0
 62
     0
 10
203.9116617379137
 20
35.667527537119348
 30
0.0
 11
203.9116617379137
 21
35.667527537119348
 31
0.0
  0
LINE
  5
B7C
  8
0
 62
     0
 10
230.63037813775179
 20
60.278773227061961
 30
0.0
 11
230.63037813775179
 21
60.278773227061961
 31
0.0
  0
LINE
  5
B7D
  8
0
 62
     0
 10
224.06109513880429
 20
55.237985090298139
 30
0.0
 11
224.06109513880429
 21
55.237985090298139
 31
0.0
  0
LINE
  5
B7E
  8
0
 62
     0
 10
217.38601847192891
 20
50.116018616976021
 30
0.0
 11
217.38601847192891
 21
50.116018616976021
 31
0.0
  0
LINE
  5
B7F
  8
0
 62
     0
 10
210.6353748993908
 20
44.936067617540807
 30
0.0
 11
210.6353748993908
 21
44.936067617540807
 31
0.0
  0
LINE
  5
B80
  8
0
 62
     0
 10
204.06609190044321
 20
39.895279480776999
 30
0.0
 11
204.06609190044321
 21
39.895279480776999
 31
0.0
  0
LINE
  5
B81
  8
0
 62
     0
 10
230.78480830028141
 20
64.506525170719598
 30
0.0
 11
230.78480830028141
 21
64.506525170719598
 31
0.0
  0
LINE
  5
B82
  8
0
 62
     0
 10
224.21552530133391
 20
59.46573703395579
 30
0.0
 11
224.21552530133391
 21
59.46573703395579
 31
0.0
  0
LINE
  5
B83
  8
0
 62
     0
 10
217.5404486344585
 20
54.343770560633651
 30
0.0
 11
217.5404486344585
 21
54.343770560633651
 31
0.0
  0
LINE
  5
B84
  8
0
 62
     0
 10
210.78980506192039
 20
49.163819561198451
 30
0.0
 11
210.78980506192039
 21
49.163819561198451
 31
0.0
  0
LINE
  5
B85
  8
0
 62
     0
 10
204.2205220629728
 20
44.12303142443465
 30
0.0
 11
204.2205220629728
 21
44.12303142443465
 31
0.0
  0
LINE
  5
B86
  8
0
 62
     0
 10
230.93923846281109
 20
68.734277114377292
 30
0.0
 11
230.93923846281109
 21
68.734277114377292
 31
0.0
  0
LINE
  5
B87
  8
0
 62
     0
 10
224.3699554638635
 20
63.693488977613477
 30
0.0
 11
224.3699554638635
 21
63.693488977613477
 31
0.0
  0
LINE
  5
B88
  8
0
 62
     0
 10
217.69487879698809
 20
58.571522504291352
 30
0.0
 11
217.69487879698809
 21
58.571522504291352
 31
0.0
  0
LINE
  5
B89
  8
0
 62
     0
 10
210.94423522445001
 20
53.391571504856152
 30
0.0
 11
210.94423522445001
 21
53.391571504856152
 31
0.0
  0
LINE
  5
B8A
  8
0
 62
     0
 10
204.37495222550251
 20
48.350783368092337
 30
0.0
 11
204.37495222550251
 21
48.350783368092337
 31
0.0
  0
LINE
  5
B8B
  8
0
 62
     0
 10
231.09366862534051
 20
72.962029058034901
 30
0.0
 11
231.09366862534051
 21
72.962029058034901
 31
0.0
  0
LINE
  5
B8C
  8
0
 62
     0
 10
224.52438562639301
 20
67.921240921271107
 30
0.0
 11
224.52438562639301
 21
67.921240921271107
 31
0.0
  0
LINE
  5
B8D
  8
0
 62
     0
 10
217.84930895951771
 20
62.799274447948982
 30
0.0
 11
217.84930895951771
 21
62.799274447948982
 31
0.0
  0
LINE
  5
B8E
  8
0
 62
     0
 10
211.0986653869796
 20
57.619323448513782
 30
0.0
 11
211.0986653869796
 21
57.619323448513782
 31
0.0
  0
LINE
  5
B8F
  8
0
 62
     0
 10
204.52938238803199
 20
52.578535311749981
 30
0.0
 11
204.52938238803199
 21
52.578535311749981
 31
0.0
  0
LINE
  5
B90
  8
0
 62
     0
 10
231.24809878787039
 20
77.189781001692594
 30
0.0
 11
231.24809878787039
 21
77.189781001692594
 31
0.0
  0
LINE
  5
B91
  8
0
 62
     0
 10
224.67881578892269
 20
72.148992864928786
 30
0.0
 11
224.67881578892269
 21
72.148992864928786
 31
0.0
  0
LINE
  5
B92
  8
0
 62
     0
 10
218.00373912204731
 20
67.027026391606654
 30
0.0
 11
218.00373912204731
 21
67.027026391606654
 31
0.0
  0
LINE
  5
B93
  8
0
 62
     0
 10
211.2530955495092
 20
61.847075392171462
 30
0.0
 11
211.2530955495092
 21
61.847075392171462
 31
0.0
  0
LINE
  5
B94
  8
0
 62
     0
 10
204.68381255056161
 20
56.806287255407632
 30
0.0
 11
204.68381255056161
 21
56.806287255407632
 31
0.0
  0
LINE
  5
B95
  8
0
 62
     0
 10
224.83324595145211
 20
76.376744808586423
 30
0.0
 11
224.83324595145211
 21
76.376744808586423
 31
0.0
  0
LINE
  5
B96
  8
0
 62
     0
 10
218.1581692845769
 20
71.254778335264305
 30
0.0
 11
218.1581692845769
 21
71.254778335264305
 31
0.0
  0
LINE
  5
B97
  8
0
 62
     0
 10
211.40752571203879
 20
66.074827335829099
 30
0.0
 11
211.40752571203879
 21
66.074827335829099
 31
0.0
  0
LINE
  5
B98
  8
0
 62
     0
 10
204.8382427130912
 20
61.034039199065283
 30
0.0
 11
204.8382427130912
 21
61.034039199065283
 31
0.0
  0
LINE
  5
B99
  8
0
 62
     0
 10
218.31259944710649
 20
75.482530278921956
 30
0.0
 11
218.31259944710649
 21
75.482530278921956
 31
0.0
  0
LINE
  5
B9A
  8
0
 62
     0
 10
211.56195587456841
 20
70.302579279486736
 30
0.0
 11
211.56195587456841
 21
70.302579279486736
 31
0.0
  0
LINE
  5
B9B
  8
0
 62
     0
 10
204.9926728756208
 20
65.261791142722942
 30
0.0
 11
204.9926728756208
 21
65.261791142722942
 31
0.0
  0
LINE
  5
B9C
  8
0
 62
     0
 10
218.467029609636
 20
79.710282222579622
 30
0.0
 11
218.467029609636
 21
79.710282222579622
 31
0.0
  0
LINE
  5
B9D
  8
0
 62
     0
 10
211.71638603709789
 20
74.530331223144429
 30
0.0
 11
211.71638603709789
 21
74.530331223144429
 31
0.0
  0
LINE
  5
B9E
  8
0
 62
     0
 10
205.14710303815039
 20
69.489543086380607
 30
0.0
 11
205.14710303815039
 21
69.489543086380607
 31
0.0
  0
LINE
  5
B9F
  8
0
 62
     0
 10
211.87081619962751
 20
78.758083166802066
 30
0.0
 11
211.87081619962751
 21
78.758083166802066
 31
0.0
  0
LINE
  5
BA0
  8
0
 62
     0
 10
205.30153320068001
 20
73.717295030038258
 30
0.0
 11
205.30153320068001
 21
73.717295030038258
 31
0.0
  0
LINE
  5
BA1
  8
0
 62
     0
 10
205.45596336320961
 20
77.945046973695923
 30
0.0
 11
205.45596336320961
 21
77.945046973695923
 31
0.0
  0
LINE
  5
BA2
  8
0
 62
     0
 10
231.15725777584109
 20
37.61455860175154
 30
0.0
 11
231.4147669617582
 21
38.382008449733959
 31
0.0
  0
LINE
  5
BA3
  8
0
 62
     0
 10
232.84687416136171
 20
70.356008419105081
 30
0.0
 11
233.104383347279
 21
71.1234582670875
 31
0.0
  0
LINE
  5
BA4
  8
0
 62
     0
 10
229.75676393035499
 20
61.146610243315969
 30
0.0
 11
230.01427311627219
 21
61.914060091298381
 31
0.0
  0
LINE
  5
BA5
  8
0
 62
     0
 10
226.6666536993483
 20
51.937212067526872
 30
0.0
 11
226.9241628852655
 21
52.704661915509298
 31
0.0
  0
LINE
  5
BA6
  8
0
 62
     0
 10
223.57654346834161
 20
42.727813891737753
 30
0.0
 11
223.83405265425881
 21
43.495263739720187
 31
0.0
  0
LINE
  5
BA7
  8
0
 62
     0
 10
220.48643323733489
 20
33.518415715948663
 30
0.0
 11
220.74394242325209
 21
34.28586556393109
 31
0.0
  0
LINE
  5
BA8
  8
0
 62
     0
 10
225.26615985386221
 20
75.469263709091337
 30
0.0
 11
225.52366903977941
 21
76.236713557073742
 31
0.0
  0
LINE
  5
BA9
  8
0
 62
     0
 10
222.1760496228554
 20
66.259865533302204
 30
0.0
 11
222.43355880877269
 21
67.027315381284637
 31
0.0
  0
LINE
  5
BAA
  8
0
 62
     0
 10
219.0859393918488
 20
57.050467357513106
 30
0.0
 11
219.343448577766
 21
57.81791720549554
 31
0.0
  0
LINE
  5
BAB
  8
0
 62
     0
 10
215.99582916084211
 20
47.841069181724002
 30
0.0
 11
216.25333834675931
 21
48.608519029706443
 31
0.0
  0
LINE
  5
BAC
  8
0
 62
     0
 10
212.9057189298353
 20
38.631671005934912
 30
0.0
 11
213.1632281157525
 21
39.399120853917317
 31
0.0
  0
LINE
  5
BAD
  8
0
 62
     0
 10
210.0094587947236
 20
30.000000673508339
 30
0.0
 11
210.07311788474581
 21
30.18972267812822
 31
0.0
  0
LINE
  5
BAE
  8
0
 62
     0
 10
214.59533531535601
 20
71.373120823288446
 30
0.0
 11
214.85284450127321
 21
72.140570671270879
 31
0.0
  0
LINE
  5
BAF
  8
0
 62
     0
 10
211.50522508434929
 20
62.163722647499348
 30
0.0
 11
211.76273427026649
 21
62.931172495481782
 31
0.0
  0
LINE
  5
BB0
  8
0
 62
     0
 10
208.41511485334249
 20
52.954324471710251
 30
0.0
 11
208.67262403925969
 21
53.721774319692678
 31
0.0
  0
LINE
  5
BB1
  8
0
 62
     0
 10
205.3250046223358
 20
43.74492629592114
 30
0.0
 11
205.582513808253
 21
44.512376143903573
 31
0.0
  0
LINE
  5
BB2
  8
0
 62
     0
 10
207.01462100785639
 20
76.486376113274702
 30
0.0
 11
207.27213019377371
 21
77.253825961257121
 31
0.0
  0
LINE
  5
BB3
  8
0
 62
     0
 10
203.92451077684959
 20
67.276977937485597
 30
0.0
 11
204.1820199627669
 21
68.044427785468031
 31
0.0
  0
LINE
  5
BB4
  8
0
 62
     0
 10
219.85455080689729
 20
33.944445836146038
 30
0.0
 11
220.48627743718421
 21
33.518340843701331
 31
0.0
  0
LINE
  5
BB5
  8
0
 62
     0
 10
212.273831243454
 20
39.057705745482551
 30
0.0
 11
212.90555787374089
 21
38.631600753037851
 31
0.0
  0
LINE
  5
BB6
  8
0
 62
     0
 10
204.6931116800107
 20
44.170965654819042
 30
0.0
 11
205.32483831029759
 21
43.744860662374322
 31
0.0
  0
LINE
  5
BB7
  8
0
 62
     0
 10
230.525371787723
 20
38.040584232925511
 30
0.0
 11
231.15709841800989
 21
37.614479240480797
 31
0.0
  0
LINE
  5
BB8
  8
0
 62
     0
 10
222.94465222427959
 20
43.153844142262002
 30
0.0
 11
223.5763788545666
 21
42.727739149817289
 31
0.0
  0
LINE
  5
BB9
  8
0
 62
     0
 10
215.3639326608363
 20
48.267104051598501
 30
0.0
 11
215.9956592911233
 21
47.840999059153823
 31
0.0
  0
LINE
  5
BBA
  8
0
 62
     0
 10
207.78321309739309
 20
53.380363960935021
 30
0.0
 11
208.41493972768001
 21
52.954258968490322
 31
0.0
  0
LINE
  5
BBB
  8
0
 62
     0
 10
226.03475364166201
 20
52.363242448377989
 30
0.0
 11
226.6664802719489
 21
51.937137455933282
 31
0.0
  0
LINE
  5
BBC
  8
0
 62
     0
 10
218.45403407821871
 20
57.476502357714473
 30
0.0
 11
219.0857607085056
 21
57.050397365269788
 31
0.0
  0
LINE
  5
BBD
  8
0
 62
     0
 10
210.87331451477539
 20
62.589762267051
 30
0.0
 11
211.50504114506231
 21
62.163657274606301
 31
0.0
  0
LINE
  5
BBE
  8
0
 62
     0
 10
203.34693845304821
 20
67.66636702164493
 30
0.0
 11
203.9243215816191
 21
67.2769171839428
 31
0.0
  0
LINE
  5
BBF
  8
0
 62
     0
 10
229.12485505904431
 20
61.572640754493932
 30
0.0
 11
229.75658168933131
 21
61.146535762049197
 31
0.0
  0
LINE
  5
BC0
  8
0
 62
     0
 10
221.5441354956011
 20
66.685900663830424
 30
0.0
 11
222.17586212588799
 21
66.259795671385703
 31
0.0
  0
LINE
  5
BC1
  8
0
 62
     0
 10
213.96341593215769
 20
71.79916057316693
 30
0.0
 11
214.59514256244469
 21
71.373055580722223
 31
0.0
  0
LINE
  5
BC2
  8
0
 62
     0
 10
206.38269636871439
 20
76.912420482503421
 30
0.0
 11
207.0144229990014
 21
76.486315490058743
 31
0.0
  0
LINE
  5
BC3
  8
0
 62
     0
 10
232.21495647642669
 20
70.782039060609904
 30
0.0
 11
232.8466831067137
 21
70.355934068165212
 31
0.0
  0
LINE
  5
BC4
  8
0
 62
     0
 10
224.6342369129834
 20
75.895298969946381
 30
0.0
 11
225.26596354327029
 21
75.469193977501703
 31
0.0
  0
LINE
  5
BC5
  8
0
 62
     0
 10
230.5251986032219
 20
38.04097114361975
 30
0.0
 11
231.4144339594605
 21
38.382316615561649
 31
0.0
  0
LINE
  5
BC6
  8
0
 62
     0
 10
219.85437432835889
 20
33.944825480316958
 30
0.0
 11
220.74360968459749
 21
34.286170952258871
 31
0.0
  0
LINE
  5
BC7
  8
0
 62
     0
 10
209.57775436200879
 20
30.00000067350831
 30
0.0
 11
210.07278540973439
 21
30.190025288956079
 31
0.0
  0
LINE
  5
BC8
  8
0
 62
     0
 10
222.94445461145281
 20
43.154247069457902
 30
0.0
 11
223.8336899676913
 21
43.49559254139978
 31
0.0
  0
LINE
  5
BC9
  8
0
 62
     0
 10
212.27363033658969
 20
39.058101406155117
 30
0.0
 11
213.16286569282829
 21
39.399446878097017
 31
0.0
  0
LINE
  5
BCA
  8
0
 62
     0
 10
226.0345348945466
 20
52.363668658598783
 30
0.0
 11
226.92377025078511
 21
52.705014130540647
 31
0.0
  0
LINE
  5
BCB
  8
0
 62
     0
 10
215.36371061968359
 20
48.267522995295998
 30
0.0
 11
216.2529459759221
 21
48.608868467237897
 31
0.0
  0
LINE
  5
BCC
  8
0
 62
     0
 10
204.69288634482061
 20
44.171377331993213
 30
0.0
 11
205.58212170105909
 21
44.512722803935091
 31
0.0
  0
LINE
  5
BCD
  8
0
 62
     0
 10
229.12461517764049
 20
61.573090247739707
 30
0.0
 11
230.01385053387901
 21
61.914435719681613
 31
0.0
  0
LINE
  5
BCE
  8
0
 62
     0
 10
218.45379090277751
 20
57.476944584436922
 30
0.0
 11
219.343026259016
 21
57.818290056378821
 31
0.0
  0
LINE
  5
BCF
  8
0
 62
     0
 10
207.7829666279145
 20
53.380798921134122
 30
0.0
 11
208.67220198415299
 21
53.722144393076043
 31
0.0
  0
LINE
  5
BD0
  8
0
 62
     0
 10
232.2146954607343
 20
70.782511836880602
 30
0.0
 11
233.10393081697291
 21
71.123857308822494
 31
0.0
  0
LINE
  5
BD1
  8
0
 62
     0
 10
221.5438711858713
 20
66.686366173577824
 30
0.0
 11
222.4331065421099
 21
67.027711645519716
 31
0.0
  0
LINE
  5
BD2
  8
0
 62
     0
 10
210.87304691100829
 20
62.590220510275032
 30
0.0
 11
211.76228226724689
 21
62.931565982216938
 31
0.0
  0
LINE
  5
BD3
  8
0
 62
     0
 10
224.63395146896511
 20
75.89578776271874
 30
0.0
 11
225.52318682520371
 21
76.237133234660632
 31
0.0
  0
LINE
  5
BD4
  8
0
 62
     0
 10
213.9631271941021
 20
71.799642099415934
 30
0.0
 11
214.8523625503407
 21
72.140987571357854
 31
0.0
  0
LINE
  5
BD5
  8
0
 62
     0
 10
203.34693845304821
 20
67.724469052577462
 30
0.0
 11
204.18153827547761
 21
68.044841908055076
 31
0.0
  0
LINE
  5
BD6
  8
0
 62
     0
 10
206.3823832023329
 20
76.912918025254044
 30
0.0
 11
207.2716185585715
 21
77.254263497195964
 31
0.0
  0
LINE
  5
BD7
  8
0
 62
     0
 10
210.03456455296771
 20
30.532877854942459
 30
0.0
 11
211.164060718011
 21
30.357699622412021
 31
0.0
  0
LINE
  5
BD8
  8
0
 62
     0
 10
221.9047948436644
 20
42.904133747972338
 30
0.0
 11
223.0342910087077
 21
42.728955515441903
 31
0.0
  0
LINE
  5
BD9
  8
0
 62
     0
 10
208.35084086314481
 20
45.006272538337527
 30
0.0
 11
209.4803370281881
 21
44.831094305807113
 31
0.0
  0
LINE
  5
BDA
  8
0
 62
     0
 10
220.22107115384151
 20
57.377528431367431
 30
0.0
 11
221.3505673188848
 21
57.202350198836967
 31
0.0
  0
LINE
  5
BDB
  8
0
 62
     0
 10
206.667117173322
 20
59.479667221732647
 30
0.0
 11
207.7966133383652
 21
59.304488989202213
 31
0.0
  0
LINE
  5
BDC
  8
0
 62
     0
 10
232.0913014445382
 20
69.74878432439732
 30
0.0
 11
233.2207976095815
 21
69.573606091866893
 31
0.0
  0
LINE
  5
BDD
  8
0
 62
     0
 10
218.53734746401861
 20
71.850923114762523
 30
0.0
 11
219.6668436290619
 21
71.675744882232095
 31
0.0
  0
LINE
  5
BDE
  8
0
 62
     0
 10
204.9833934834991
 20
73.953061905127711
 30
0.0
 11
206.11288964854239
 21
73.777883672597284
 31
0.0
  0
LINE
  5
BDF
  8
0
 62
     0
 10
233.2204810862213
 20
69.574032439932679
 30
0.0
 11
233.08016921948621
 21
70.780148372400731
 31
0.0
  0
LINE
  5
BE0
  8
0
 62
     0
 10
219.66652696208911
 20
71.676145835047095
 30
0.0
 11
219.5262150953541
 21
72.882261767515175
 31
0.0
  0
LINE
  5
BE1
  8
0
 62
     0
 10
221.3502693629095
 20
57.202754645430211
 30
0.0
 11
221.20995749617441
 21
58.408870577898277
 31
0.0
  0
LINE
  5
BE2
  8
0
 62
     0
 10
223.03401176372981
 20
42.729363455813321
 30
0.0
 11
222.89369989699489
 21
43.935479388281401
 31
0.0
  0
LINE
  5
BE3
  8
0
 62
     0
 10
206.11257283795689
 20
73.77825923016151
 30
0.0
 11
205.97226097122191
 21
74.984375162629618
 31
0.0
  0
LINE
  5
BE4
  8
0
 62
     0
 10
207.79631523877731
 20
59.304868040544648
 30
0.0
 11
207.65600337204219
 21
60.510983973012742
 31
0.0
  0
LINE
  5
BE5
  8
0
 62
     0
 10
209.48005763959759
 20
44.83147685092775
 30
0.0
 11
209.33974577286261
 21
46.037592783395851
 31
0.0
  0
LINE
  5
BE6
  8
0
 62
     0
 10
211.1638000404179
 20
30.358085661310898
 30
0.0
 11
211.02348817368289
 21
31.564201593778971
 31
0.0
  0
LINE
  5
BE7
  8
0
 62
     0
 10
221.9044352312176
 20
42.904955968320827
 30
0.0
 11
222.8936191231939
 21
43.935898154068653
 31
0.0
  0
LINE
  5
BE8
  8
0
 62
     0
 10
210.0342285275014
 20
30.533649739346821
 30
0.0
 11
211.02341241947769
 21
31.56459192509466
 31
0.0
  0
LINE
  5
BE9
  8
0
 62
     0
 10
232.09089659404339
 20
69.749684822905195
 30
0.0
 11
233.0800804860198
 21
70.780627008653056
 31
0.0
  0
LINE
  5
BEA
  8
0
 62
     0
 10
220.22068989032729
 20
57.378378593931203
 30
0.0
 11
221.20987378230359
 21
58.409320779679021
 31
0.0
  0
LINE
  5
BEB
  8
0
 62
     0
 10
208.35048318661109
 20
45.007072364957189
 30
0.0
 11
209.33966707858741
 21
46.038014550705
 31
0.0
  0
LINE
  5
BEC
  8
0
 62
     0
 10
218.5369445494369
 20
71.851801219541557
 30
0.0
 11
219.52612844141331
 21
72.882743405289389
 31
0.0
  0
LINE
  5
BED
  8
0
 62
     0
 10
206.6667378457208
 20
59.480494990567543
 30
0.0
 11
207.6559217376971
 21
60.511437176315361
 31
0.0
  0
LINE
  5
BEE
  8
0
 62
     0
 10
204.98299250483041
 20
73.953917616177904
 30
0.0
 11
205.97217639680679
 21
74.984859801925737
 31
0.0
  0
LINE
  5
BEF
  8
0
 62
     0
 10
233.17266521863709
 20
75.946087929895484
 30
0.0
 11
233.02582631566969
 21
76.742158646964839
 31
0.0
  0
LINE
  5
BF0
  8
0
 62
     0
 10
224.0634732997305
 20
76.743102143713287
 30
0.0
 11
223.91663439676319
 21
77.539172860782671
 31
0.0
  0
LINE
  5
BF1
  8
0
 62
     0
 10
225.82554013533911
 20
67.190253538880896
 30
0.0
 11
225.67870123237171
 21
67.986324255950265
 31
0.0
  0
LINE
  5
BF2
  8
0
 62
     0
 10
227.58760697094769
 20
57.63740493404849
 30
0.0
 11
227.4407680679804
 21
58.43347565111786
 31
0.0
  0
LINE
  5
BF3
  8
0
 62
     0
 10
229.3496738065563
 20
48.08455632921607
 30
0.0
 11
229.20283490358889
 21
48.880627046285447
 31
0.0
  0
LINE
  5
BF4
  8
0
 62
     0
 10
231.1117406421649
 20
38.531707724383679
 30
0.0
 11
230.9649017391975
 21
39.327778441453049
 31
0.0
  0
LINE
  5
BF5
  8
0
 62
     0
 10
214.954281380824
 20
77.54011635753109
 30
0.0
 11
214.8074424778566
 21
78.336187074600446
 31
0.0
  0
LINE
  5
BF6
  8
0
 62
     0
 10
216.71634821643261
 20
67.987267752698685
 30
0.0
 11
216.5695093134652
 21
68.783338469768069
 31
0.0
  0
LINE
  5
BF7
  8
0
 62
     0
 10
218.47841505204121
 20
58.434419147866279
 30
0.0
 11
218.33157614907381
 21
59.230489864935691
 31
0.0
  0
LINE
  5
BF8
  8
0
 62
     0
 10
220.24048188764971
 20
48.881570543033881
 30
0.0
 11
220.0936429846823
 21
49.677641260103258
 31
0.0
  0
LINE
  5
BF9
  8
0
 62
     0
 10
222.00254872325829
 20
39.328721938201497
 30
0.0
 11
221.85570982029091
 21
40.124792655270852
 31
0.0
  0
LINE
  5
BFA
  8
0
 62
     0
 10
223.7232742407586
 20
30.000000673508321
 30
0.0
 11
223.61777665589949
 21
30.57194405043845
 31
0.0
  0
LINE
  5
BFB
  8
0
 62
     0
 10
205.84508946191741
 20
78.337130571348936
 30
0.0
 11
205.69825055895009
 21
79.133201288418292
 31
0.0
  0
LINE
  5
BFC
  8
0
 62
     0
 10
207.60715629752599
 20
68.784281966516517
 30
0.0
 11
207.4603173945587
 21
69.580352683585886
 31
0.0
  0
LINE
  5
BFD
  8
0
 62
     0
 10
209.36922313313451
 20
59.231433361684111
 30
0.0
 11
209.22238423016719
 21
60.027504078753481
 31
0.0
  0
LINE
  5
BFE
  8
0
 62
     0
 10
211.1312899687432
 20
49.678584756851699
 30
0.0
 11
210.9844510657758
 21
50.474655473921061
 31
0.0
  0
LINE
  5
BFF
  8
0
 62
     0
 10
212.8933568043517
 20
40.125736152019293
 30
0.0
 11
212.74651790138441
 21
40.92180686908867
 31
0.0
  0
LINE
  5
C00
  8
0
 62
     0
 10
214.6554236399603
 20
30.572887547186909
 30
0.0
 11
214.50858473699299
 21
31.368958264256271
 31
0.0
  0
LINE
  5
C01
  8
0
 62
     0
 10
203.78416488544519
 20
40.922750365837111
 30
0.0
 11
203.63732598247771
 21
41.718821082906473
 31
0.0
  0
LINE
  5
C02
  8
0
 62
     0
 10
205.5462317210538
 20
31.369901761004709
 30
0.0
 11
205.3993928180864
 21
32.165972478074082
 31
0.0
  0
LINE
  5
C03
  8
0
 62
     0
 10
213.89516918846309
 20
30.64064759031584
 30
0.0
 11
214.65426954840899
 21
30.574234914342121
 31
0.0
  0
LINE
  5
C04
  8
0
 62
     0
 10
204.78596486911221
 20
31.437599702000409
 30
0.0
 11
205.54506522905811
 21
31.37118702602671
 31
0.0
  0
LINE
  5
C05
  8
0
 62
     0
 10
230.35143652838161
 20
38.599575511055662
 30
0.0
 11
231.11053688832749
 21
38.533162835081953
 31
0.0
  0
LINE
  5
C06
  8
0
 62
     0
 10
221.2422322090307
 20
39.396527622740251
 30
0.0
 11
222.00133256897661
 21
39.33011494676655
 31
0.0
  0
LINE
  5
C07
  8
0
 62
     0
 10
212.13302788967979
 20
40.193479734424841
 30
0.0
 11
212.8921282496257
 21
40.127067058451097
 31
0.0
  0
LINE
  5
C08
  8
0
 62
     0
 10
203.34693845304821
 20
40.962162956854961
 30
0.0
 11
203.78292393027479
 21
40.924019170135672
 31
0.0
  0
LINE
  5
C09
  8
0
 62
     0
 10
228.58929522959821
 20
48.152407655164673
 30
0.0
 11
229.3483955895442
 21
48.08599497919095
 31
0.0
  0
LINE
  5
C0A
  8
0
 62
     0
 10
219.4800909102473
 20
48.949359766849263
 30
0.0
 11
220.2391912701932
 21
48.88294709087554
 31
0.0
  0
LINE
  5
C0B
  8
0
 62
     0
 10
210.37088659089639
 20
49.746311878533831
 30
0.0
 11
211.12998695084229
 21
49.679899202560122
 31
0.0
  0
LINE
  5
C0C
  8
0
 62
     0
 10
226.82715393081489
 20
57.705239799273649
 30
0.0
 11
227.58625429076079
 21
57.63882712329994
 31
0.0
  0
LINE
  5
C0D
  8
0
 62
     0
 10
217.71794961146401
 20
58.502191910958253
 30
0.0
 11
218.47704997140991
 21
58.435779234984537
 31
0.0
  0
LINE
  5
C0E
  8
0
 62
     0
 10
208.6087452921131
 20
59.299144022642842
 30
0.0
 11
209.367845652059
 21
59.232731346669141
 31
0.0
  0
LINE
  5
C0F
  8
0
 62
     0
 10
225.0650126320316
 20
67.258071943382703
 30
0.0
 11
225.8241129919775
 21
67.191659267408994
 31
0.0
  0
LINE
  5
C10
  8
0
 62
     0
 10
215.95580831268069
 20
68.055024055067278
 30
0.0
 11
216.71490867262651
 21
67.98861137909357
 31
0.0
  0
LINE
  5
C11
  8
0
 62
     0
 10
206.84660399332969
 20
68.851976166751868
 30
0.0
 11
207.6057043532756
 21
68.785563490778145
 31
0.0
  0
LINE
  5
C12
  8
0
 62
     0
 10
232.4120756525991
 20
76.013951975807089
 30
0.0
 11
233.171176012545
 21
75.947539299833394
 31
0.0
  0
LINE
  5
C13
  8
0
 62
     0
 10
223.30287133324811
 20
76.810904087491679
 30
0.0
 11
224.0619716931941
 21
76.744491411517956
 31
0.0
  0
LINE
  5
C14
  8
0
 62
     0
 10
214.19366701389731
 20
77.607856199176254
 30
0.0
 11
214.95276737384319
 21
77.541443523202545
 31
0.0
  0
LINE
  5
C15
  8
0
 62
     0
 10
205.0844626945464
 20
78.404808310860815
 30
0.0
 11
205.84356305449231
 21
78.338395634887121
 31
0.0
  0
LINE
  5
C16
  8
0
 62
     0
 10
230.3516560931169
 20
38.599725189906728
 30
0.0
 11
230.96391129134329
 21
39.329382521977557
 31
0.0
  0
LINE
  5
C17
  8
0
 62
     0
 10
223.1356304231808
 20
30.000000673508339
 30
0.0
 11
223.61684891262621
 21
30.573494537127651
 31
0.0
  0
LINE
  5
C18
  8
0
 62
     0
 10
228.5894850220339
 20
48.152567451701827
 30
0.0
 11
229.20174022026029
 21
48.882224783772649
 31
0.0
  0
LINE
  5
C19
  8
0
 62
     0
 10
221.2424226433167
 20
39.396679466851907
 30
0.0
 11
221.85467784154321
 21
40.126336798922743
 31
0.0
  0
LINE
  5
C1A
  8
0
 62
     0
 10
213.89536026459959
 20
30.64079148200199
 30
0.0
 11
214.50761546282601
 21
31.370448814072809
 31
0.0
  0
LINE
  5
C1B
  8
0
 62
     0
 10
226.82731395095081
 20
57.705409713496891
 30
0.0
 11
227.4395691491772
 21
58.435067045567713
 31
0.0
  0
LINE
  5
C1C
  8
0
 62
     0
 10
219.48025157223361
 20
48.949521728646957
 30
0.0
 11
220.09250677046009
 21
49.679179060717793
 31
0.0
  0
LINE
  5
C1D
  8
0
 62
     0
 10
212.1331891935165
 20
40.193633743797029
 30
0.0
 11
212.74544439174301
 21
40.923291075867851
 31
0.0
  0
LINE
  5
C1E
  8
0
 62
     0
 10
204.78612681479939
 20
31.437745758947131
 30
0.0
 11
205.39838201302581
 21
32.167403091017931
 31
0.0
  0
LINE
  5
C1F
  8
0
 62
     0
 10
232.41220525858489
 20
76.01413996014189
 30
0.0
 11
233.02446045681131
 21
76.743797292212705
 31
0.0
  0
LINE
  5
C20
  8
0
 62
     0
 10
225.06514287986781
 20
67.258251975291955
 30
0.0
 11
225.6773980780942
 21
67.987909307362798
 31
0.0
  0
LINE
  5
C21
  8
0
 62
     0
 10
217.71808050115061
 20
58.502363990442049
 30
0.0
 11
218.330335699377
 21
59.232021322512871
 31
0.0
  0
LINE
  5
C22
  8
0
 62
     0
 10
210.3710181224335
 20
49.746476005592129
 30
0.0
 11
210.9832733206598
 21
50.476133337662958
 31
0.0
  0
LINE
  5
C23
  8
0
 62
     0
 10
203.34693845304821
 20
41.37550382493427
 30
0.0
 11
203.63621094194281
 21
41.720245352813038
 31
0.0
  0
LINE
  5
C24
  8
0
 62
     0
 10
223.30297180878469
 20
76.811094237087005
 30
0.0
 11
223.91522700701111
 21
77.540751569157877
 31
0.0
  0
LINE
  5
C25
  8
0
 62
     0
 10
215.95590943006761
 20
68.055206252237127
 30
0.0
 11
216.568164628294
 21
68.784863584307956
 31
0.0
  0
LINE
  5
C26
  8
0
 62
     0
 10
208.60884705135041
 20
59.299318267387193
 30
0.0
 11
209.22110224957689
 21
60.028975599458029
 31
0.0
  0
LINE
  5
C27
  8
0
 62
     0
 10
214.1937383589846
 20
77.608048514032262
 30
0.0
 11
214.805993557211
 21
78.337705846103063
 31
0.0
  0
LINE
  5
C28
  8
0
 62
     0
 10
206.84667598026741
 20
68.852160529182328
 30
0.0
 11
207.4589311784938
 21
69.581817861253157
 31
0.0
  0
LINE
  5
C29
  8
0
 62
     0
 10
205.08450490918429
 20
78.405002790977363
 30
0.0
 11
205.6967601074108
 21
79.134660123048192
 31
0.0
  0
ENDBLK
  5
C2B
  8
0
  0
BLOCK
  8
0
  2
*X8
 70
     1
 10
0.0
 20
0.0
 30
0.0
  3
*X8
  1

  0
LINE
  5
C2D
  8
0
 62
     0
 10
46.521878541655283
 20
79.033711723619547
 30
0.0
 11
46.521878541655283
 21
79.576282109243152
 31
0.0
  0
LINE
  5
C2E
  8
0
 62
     0
 10
46.521878541655283
 20
53.63371172361957
 30
0.0
 11
46.521878541655283
 21
73.953711723619534
 31
0.0
  0
LINE
  5
C2F
  8
0
 62
     0
 10
43.118278541655279
 20
80.049711723619581
 30
0.0
 11
43.118278541655279
 21
100.3697117236196
 31
0.0
  0
LINE
  5
C30
  8
0
 62
     0
 10
43.118278541655279
 20
68.196292188681994
 30
0.0
 11
43.118278541655279
 21
72.937711723619572
 31
0.0
  0
LINE
  5
C31
  8
0
 62
     0
 10
47.944278541655272
 20
52.011457694789037
 30
0.0
 11
47.944278541655272
 21
52.435273284619143
 31
0.0
  0
LINE
  5
C32
  8
0
 62
     0
 10
43.829478541655277
 20
91.733711723619692
 30
0.0
 11
43.829478541655277
 21
105.0000006735083
 31
0.0
  0
LINE
  5
C33
  8
0
 62
     0
 10
43.829478541655277
 20
54.625787776370032
 30
0.0
 11
43.829478541655277
 21
81.573711723619695
 31
0.0
  0
ENDBLK
  5
C35
  8
0
  0
BLOCK
  8
0
  2
*X9
 70
     1
 10
0.0
 20
0.0
 30
0.0
  3
*X9
  1

  0
LINE
  5
C37
  8
0
 62
     0
 10
43.118278541655279
 20
105.4497117236196
 30
0.0
 11
43.118278541655279
 21
112.7243904546302
 31
0.0
  0
LINE
  5
C38
  8
0
 62
     0
 10
41.187878541655273
 20
105.0305184506723
 30
0.0
 11
41.187878541655273
 21
112.6232224775022
 31
0.0
  0
LINE
  5
C39
  8
0
 62
     0
 10
43.829478541655277
 20
105.0000006735083
 30
0.0
 11
43.829478541655277
 21
112.76166286725631
 31
0.0
  0
ENDBLK
  5
C3B
  8
0
  0
BLOCK
  8
0
  2
*X10
 70
     1
 10
0.0
 20
0.0
 30
0.0
  3
*X10
  1

  0
LINE
  5
C3D
  8
0
 62
     0
 10
230.18245254261299
 20
22.000000673508371
 30
0.0
 11
233.34693845304821
 21
25.164486583943589
 31
0.0
  0
LINE
  5
C3E
  8
0
 62
     0
 10
229.36903526171989
 20
26.000000673508339
 30
0.0
 11
233.3469384530483
 21
29.97790386483674
 31
0.0
  0
LINE
  5
C3F
  8
0
 62
     0
 10
225.36903526171989
 20
22.000000673508332
 30
0.0
 11
229.3690352617198
 21
26.000000673508289
 31
0.0
  0
LINE
  5
C40
  8
0
 62
     0
 10
224.31839325310759
 20
25.762775945789169
 30
0.0
 11
224.55561798082681
 21
26.00000067350831
 31
0.0
  0
LINE
  5
C41
  8
0
 62
     0
 10
224.55561798082681
 20
26.000000673508371
 30
0.0
 11
228.55561798082681
 21
30.000000673508321
 31
0.0
  0
LINE
  5
C42
  8
0
 62
     0
 10
220.55561798082681
 20
22.000000673508371
 30
0.0
 11
223.58416318076729
 21
25.028545873448891
 31
0.0
  0
LINE
  5
C43
  8
0
 62
     0
 10
220.47575564704439
 20
26.733555620619011
 30
0.0
 11
223.7422006999337
 21
30.000000673508321
 31
0.0
  0
LINE
  5
C44
  8
0
 62
     0
 10
215.7422006999337
 20
22.000000673508399
 30
0.0
 11
216.8836531986168
 21
23.141453172191412
 31
0.0
  0
LINE
  5
C45
  8
0
 62
     0
 10
218.7874674962834
 20
29.858684750751131
 30
0.0
 11
218.9287834190408
 21
30.000000673508431
 31
0.0
  0
LINE
  5
C46
  8
0
 62
     0
 10
213.34693845304821
 20
24.41815570751584
 30
0.0
 11
213.7585240684848
 21
24.829741322952401
 31
0.0
  0
LINE
  5
C47
  8
0
 62
     0
 10
210.11536613814761
 20
26.000000673508339
 30
0.0
 11
214.11536613814761
 21
30.000000673508289
 31
0.0
  0
LINE
  5
C48
  8
0
 62
     0
 10
205.3019488572545
 20
26.00000067350831
 30
0.0
 11
209.3019488572545
 21
30.000000673508339
 31
0.0
  0
LINE
  5
C49
  8
0
 62
     0
 10
200.48853157636151
 20
26.000000673508339
 30
0.0
 11
204.48853157636151
 21
30.000000673508371
 31
0.0
  0
LINE
  5
C4A
  8
0
 62
     0
 10
198.38432558921431
 20
28.709211967254301
 30
0.0
 11
199.6751142954684
 21
30.000000673508332
 31
0.0
  0
LINE
  5
C4B
  8
0
 62
     0
 10
190.8616970145753
 20
26.000000673508339
 30
0.0
 11
191.66709401065461
 21
26.80539766958772
 31
0.0
  0
LINE
  5
C4C
  8
0
 62
     0
 10
186.04827973368211
 20
26.000000673508339
 30
0.0
 11
190.04827973368211
 21
30.000000673508289
 31
0.0
  0
LINE
  5
C4D
  8
0
 62
     0
 10
181.234862452789
 20
26.00000067350831
 30
0.0
 11
185.2348624527892
 21
30.000000673508339
 31
0.0
  0
LINE
  5
C4E
  8
0
 62
     0
 10
176.4214451718961
 20
26.000000673508339
 30
0.0
 11
180.4214451718961
 21
30.000000673508289
 31
0.0
  0
LINE
  5
C4F
  8
0
 62
     0
 10
172.4214451718961
 20
22.000000673508332
 30
0.0
 11
173.34693845304821
 21
22.925493954660428
 31
0.0
  0
LINE
  5
C50
  8
0
 62
     0
 10
171.6080278910031
 20
26.000000673508339
 30
0.0
 11
172.70079308295661
 21
27.092765865461921
 31
0.0
  0
LINE
  5
C51
  8
0
 62
     0
 10
167.6080278910031
 20
22.000000673508332
 30
0.0
 11
171.6080278910031
 21
26.000000673508332
 31
0.0
  0
LINE
  5
C52
  8
0
 62
     0
 10
166.79461061011
 20
26.000000673508339
 30
0.0
 11
169.5756639528245
 21
28.78105401622291
 31
0.0
  0
LINE
  5
C53
  8
0
 62
     0
 10
162.79461061011
 20
22.000000673508332
 30
0.0
 11
166.79461061011
 21
26.00000067350836
 31
0.0
  0
LINE
  5
C54
  8
0
 62
     0
 10
161.98119332921689
 20
26.000000673508339
 30
0.0
 11
162.4805309784245
 21
26.49933832271596
 31
0.0
  0
LINE
  5
C55
  8
0
 62
     0
 10
162.84760080384041
 20
26.866408148131999
 30
0.0
 11
165.98119332921689
 21
30.00000067350836
 31
0.0
  0
LINE
  5
C56
  8
0
 62
     0
 10
157.98119332921689
 20
22.000000673508332
 30
0.0
 11
161.98119332921689
 21
26.000000673508332
 31
0.0
  0
LINE
  5
C57
  8
0
 62
     0
 10
157.16777604832379
 20
26.000000673508339
 30
0.0
 11
161.1677760483239
 21
30.000000673508371
 31
0.0
  0
LINE
  5
C58
  8
0
 62
     0
 10
155.42278030601949
 20
24.255004931204059
 30
0.0
 11
157.16777604832379
 21
26.00000067350836
 31
0.0
  0
LINE
  5
C59
  8
0
 62
     0
 10
153.34693845304821
 20
26.992580359125771
 30
0.0
 11
156.3543587674308
 21
30.000000673508339
 31
0.0
  0
LINE
  5
C5A
  8
0
 62
     0
 10
231.3806126328393
 20
26.000000673508339
 30
0.0
 11
233.3469384530483
 21
27.966326493717311
 31
0.0
  0
LINE
  5
C5B
  8
0
 62
     0
 10
227.3806126328393
 20
22.000000673508332
 30
0.0
 11
231.3806126328393
 21
26.00000067350831
 31
0.0
  0
LINE
  5
C5C
  8
0
 62
     0
 10
221.8256201200218
 20
26.000000673508371
 30
0.0
 11
225.82562012002171
 21
30.000000673508321
 31
0.0
  0
LINE
  5
C5D
  8
0
 62
     0
 10
217.82562012002171
 20
22.000000673508332
 30
0.0
 11
221.8256201200218
 21
26.000000673508389
 31
0.0
  0
LINE
  5
C5E
  8
0
 62
     0
 10
212.2706276072042
 20
26.000000673508339
 30
0.0
 11
216.2706276072042
 21
30.000000673508332
 31
0.0
  0
LINE
  5
C5F
  8
0
 62
     0
 10
202.71563509438661
 20
26.000000673508339
 30
0.0
 11
206.71563509438661
 21
30.00000067350831
 31
0.0
  0
LINE
  5
C60
  8
0
 62
     0
 10
193.16064258156899
 20
26.000000673508339
 30
0.0
 11
197.16064258156899
 21
30.000000673508332
 31
0.0
  0
LINE
  5
C61
  8
0
 62
     0
 10
183.6056500687514
 20
26.000000673508289
 30
0.0
 11
187.6056500687514
 21
30.000000673508321
 31
0.0
  0
LINE
  5
C62
  8
0
 62
     0
 10
174.05065755593381
 20
26.00000067350831
 30
0.0
 11
178.05065755593381
 21
30.000000673508339
 31
0.0
  0
LINE
  5
C63
  8
0
 62
     0
 10
171.33579415255409
 20
23.285137270128612
 30
0.0
 11
173.34693845304821
 21
25.296281570622739
 31
0.0
  0
LINE
  5
C64
  8
0
 62
     0
 10
170.05065755593381
 20
22.00000067350831
 30
0.0
 11
170.150400344573
 21
22.09974346214748
 31
0.0
  0
LINE
  5
C65
  8
0
 62
     0
 10
164.3337418107794
 20
25.838077441171521
 30
0.0
 11
164.49566504311619
 21
26.000000673508321
 31
0.0
  0
LINE
  5
C66
  8
0
 62
     0
 10
164.49566504311619
 20
26.000000673508339
 30
0.0
 11
168.49566504311619
 21
30.000000673508332
 31
0.0
  0
LINE
  5
C67
  8
0
 62
     0
 10
162.9661954477175
 20
24.470531078109751
 30
0.0
 11
163.508861685385
 21
25.01319731577712
 31
0.0
  0
LINE
  5
C68
  8
0
 62
     0
 10
160.49566504311619
 20
22.000000673508332
 30
0.0
 11
161.7808016397365
 21
23.285137270128612
 31
0.0
  0
LINE
  5
C69
  8
0
 62
     0
 10
154.94067253029871
 20
26.000000673508339
 30
0.0
 11
158.94067253029871
 21
30.000000673508371
 31
0.0
  0
LINE
  5
C6A
  8
0
 62
     0
 10
154.59659674288119
 20
25.65592488609089
 30
0.0
 11
154.94067253029871
 21
26.000000673508339
 31
0.0
  0
LINE
  5
C6B
  8
0
 62
     0
 10
153.34693845304821
 20
24.40626659625789
 30
0.0
 11
153.4112029349001
 21
24.470531078109762
 31
0.0
  0
LINE
  5
C6C
  8
0
 62
     0
 10
232.74561156324179
 20
26.00000067350831
 30
0.0
 11
233.3469384530483
 21
26.601327563314761
 31
0.0
  0
LINE
  5
C6D
  8
0
 62
     0
 10
228.74561156324191
 20
22.000000673508371
 30
0.0
 11
232.74561156324179
 21
26.000000673508321
 31
0.0
  0
LINE
  5
C6E
  8
0
 62
     0
 10
225.56140666638649
 20
26.00000067350831
 30
0.0
 11
229.5614066663866
 21
30.000000673508339
 31
0.0
  0
LINE
  5
C6F
  8
0
 62
     0
 10
221.56140666638649
 20
22.00000067350831
 30
0.0
 11
225.56140666638649
 21
26.0000006735083
 31
0.0
  0
LINE
  5
C70
  8
0
 62
     0
 10
220.8708869163716
 20
28.493685820348709
 30
0.0
 11
222.37720176953121
 21
30.000000673508339
 31
0.0
  0
LINE
  5
C71
  8
0
 62
     0
 10
214.3772017695313
 20
22.000000673508371
 30
0.0
 11
217.27878446794389
 21
24.901583371921049
 31
0.0
  0
LINE
  5
C72
  8
0
 62
     0
 10
211.19299687267571
 20
26.00000067350831
 30
0.0
 11
215.19299687267591
 21
30.000000673508339
 31
0.0
  0
LINE
  5
C73
  8
0
 62
     0
 10
207.93931810203199
 20
29.930526799719772
 30
0.0
 11
208.0087919758206
 21
30.000000673508339
 31
0.0
  0
LINE
  5
C74
  8
0
 62
     0
 10
196.8245870789651
 20
26.000000673508339
 30
0.0
 11
200.82458707896521
 21
30.000000673508371
 31
0.0
  0
LINE
  5
C75
  8
0
 62
     0
 10
189.6403821821099
 20
26.00000067350831
 30
0.0
 11
193.6403821821099
 21
30.000000673508339
 31
0.0
  0
LINE
  5
C76
  8
0
 62
     0
 10
182.45617728525451
 20
26.00000067350831
 30
0.0
 11
186.4561772852546
 21
30.000000673508339
 31
0.0
  0
LINE
  5
C77
  8
0
 62
     0
 10
175.27197238839921
 20
26.000000673508339
 30
0.0
 11
179.27197238839921
 21
30.000000673508371
 31
0.0
  0
LINE
  5
C78
  8
0
 62
     0
 10
171.27197238839909
 20
22.000000673508332
 30
0.0
 11
173.34693845304821
 21
24.07496673815734
 31
0.0
  0
LINE
  5
C79
  8
0
 62
     0
 10
168.42619116932761
 20
26.338424351292119
 30
0.0
 11
172.0877674915439
 21
30.000000673508332
 31
0.0
  0
LINE
  5
C7A
  8
0
 62
     0
 10
164.0877674915439
 20
22.000000673508332
 30
0.0
 11
164.83408872090001
 21
22.746321902864441
 31
0.0
  0
LINE
  5
C7B
  8
0
 62
     0
 10
160.90356259468859
 20
26.00000067350831
 30
0.0
 11
164.90356259468859
 21
30.000000673508339
 31
0.0
  0
LINE
  5
C7C
  8
0
 62
     0
 10
156.90356259468859
 20
22.000000673508332
 30
0.0
 11
160.90356259468859
 21
26.00000067350831
 31
0.0
  0
LINE
  5
C7D
  8
0
 62
     0
 10
155.49462235498811
 20
27.775265330663181
 30
0.0
 11
157.71935769783329
 21
30.00000067350836
 31
0.0
  0
ENDBLK
  5
C7F
  8
0
  0
BLOCK
  8
0
  2
*X11
 70
     1
 10
0.0
 20
0.0
 30
0.0
  3
*X11
  1

  0
LINE
  5
C81
  8
0
 62
     0
 10
326.48450690882282
 20
62.000000673508417
 30
0.0
 11
335.1894779105852
 21
63.534921927403929
 31
0.0
  0
LINE
  5
C82
  8
0
 62
     0
 10
326.23323766728032
 20
63.683748134909493
 30
0.0
 11
333.69807675946203
 21
65.000000673508424
 31
0.0
  0
LINE
  5
C83
  8
0
 62
     0
 10
323.1894779105852
 20
64.875104175116675
 30
0.0
 11
323.89780115124807
 21
65.00000067350841
 31
0.0
  0
LINE
  5
C84
  8
0
 62
     0
 10
297.08368008418142
 20
62.000000673508431
 30
0.0
 11
300.18947791058531
 21
62.54763662692914
 31
0.0
  0
LINE
  5
C85
  8
0
 62
     0
 10
292.32805991802638
 20
62.889509536321221
 30
0.0
 11
300.18947791058531
 21
64.275689635036329
 31
0.0
  0
LINE
  5
C86
  8
0
 62
     0
 10
288.1894779105852
 20
62.159765866534713
 30
0.0
 11
288.82608354831501
 21
62.272016616537613
 31
0.0
  0
LINE
  5
C87
  8
0
 62
     0
 10
288.1894779105852
 20
63.887818874641873
 30
0.0
 11
294.49697432660668
 21
65.00000067350841
 31
0.0
  0
LINE
  5
C88
  8
0
 62
     0
 10
330.45470183113508
 20
64.170187805671944
 30
0.0
 11
335.16080446218092
 21
65.000000673508424
 31
0.0
  0
LINE
  5
C89
  8
0
 62
     0
 10
323.1894779105852
 20
62.889132807590471
 30
0.0
 11
328.5786430616468
 21
63.839388027216437
 31
0.0
  0
LINE
  5
C8A
  8
0
 62
     0
 10
298.69268055717203
 20
62.000000673508488
 30
0.0
 11
300.18947791058508
 21
62.263926431568208
 31
0.0
  0
LINE
  5
C8B
  8
0
 62
     0
 10
288.1894779105852
 20
63.578316843339053
 30
0.0
 11
296.25224756986933
 21
65.000000673508453
 31
0.0
  0
LINE
  5
C8C
  8
0
 62
     0
 10
329.18768105998248
 20
63.018271764691463
 30
0.0
 11
335.18947791058508
 21
64.076550482183777
 31
0.0
  0
LINE
  5
C8D
  8
0
 62
     0
 10
323.41277873311401
 20
62.000000673508431
 30
0.0
 11
324.18485767468047
 21
62.136139022143439
 31
0.0
  0
LINE
  5
C8E
  8
0
 62
     0
 10
323.1894779105852
 20
64.539810307871988
 30
0.0
 11
325.79934716478238
 21
65.000000673508438
 31
0.0
  0
LINE
  5
C8F
  8
0
 62
     0
 10
296.78776099003181
 20
62.463658871941028
 30
0.0
 11
300.18947791058508
 21
63.0634733457671
 31
0.0
  0
LINE
  5
C90
  8
0
 62
     0
 10
294.15822467874449
 20
62.000000673508453
 30
0.0
 11
294.28634929738081
 21
62.022592500667031
 31
0.0
  0
LINE
  5
C91
  8
0
 62
     0
 10
288.1894779105852
 20
63.526733171455298
 30
0.0
 11
296.54479311041268
 21
65.000000673508424
 31
0.0
  0
ENDBLK
  5
C93
  8
0
  0
BLOCK
  8
0
  2
*X12
 70
     1
 10
0.0
 20
0.0
 30
0.0
  3
*X12
  1

  0
LINE
  5
C95
  8
0
 62
     0
 10
288.20134784206431
 20
23.25654476514902
 30
0.0
 11
288.20134784206431
 21
23.25654476514902
 31
0.0
  0
LINE
  5
C96
  8
0
 62
     0
 10
281.31923254161012
 20
29.562841558137411
 30
0.0
 11
281.31923254161012
 21
29.562841558137411
 31
0.0
  0
LINE
  5
C97
  8
0
 62
     0
 10
295.60780691136517
 20
24.527869316815721
 30
0.0
 11
295.60780691136517
 21
24.527869316815721
 31
0.0
  0
LINE
  5
C98
  8
0
 62
     0
 10
288.7256916109111
 20
30.834166109804109
 30
0.0
 11
288.7256916109111
 21
30.834166109804109
 31
0.0
  0
LINE
  5
C99
  8
0
 62
     0
 10
283.87543892297202
 20
35.278603849624488
 30
0.0
 11
283.87543892297202
 21
35.278603849624488
 31
0.0
  0
LINE
  5
C9A
  8
0
 62
     0
 10
280.83232671528822
 20
38.067102431558119
 30
0.0
 11
280.83232671528822
 21
38.067102431558119
 31
0.0
  0
LINE
  5
C9B
  8
0
 62
     0
 10
296.13215068021202
 20
32.105490661470711
 30
0.0
 11
296.13215068021202
 21
32.105490661470711
 31
0.0
  0
LINE
  5
C9C
  8
0
 62
     0
 10
291.28189799227289
 20
36.549928401291091
 30
0.0
 11
291.28189799227289
 21
36.549928401291091
 31
0.0
  0
LINE
  5
C9D
  8
0
 62
     0
 10
288.23878578458908
 20
39.338426983224743
 30
0.0
 11
288.23878578458908
 21
39.338426983224743
 31
0.0
  0
LINE
  5
C9E
  8
0
 62
     0
 10
281.35667048413512
 20
45.644723776213119
 30
0.0
 11
281.35667048413512
 21
45.644723776213119
 31
0.0
  0
LINE
  5
C9F
  8
0
 62
     0
 10
298.68835706157392
 20
37.821252952957742
 30
0.0
 11
298.68835706157392
 21
37.821252952957742
 31
0.0
  0
LINE
  5
CA0
  8
0
 62
     0
 10
295.64524485389012
 20
40.609751534891359
 30
0.0
 11
295.64524485389012
 21
40.609751534891359
 31
0.0
  0
LINE
  5
CA1
  8
0
 62
     0
 10
288.76312955343599
 20
46.91604832787975
 30
0.0
 11
288.76312955343599
 21
46.91604832787975
 31
0.0
  0
LINE
  5
CA2
  8
0
 62
     0
 10
283.91287686549691
 20
51.360486067700151
 30
0.0
 11
283.91287686549691
 21
51.360486067700151
 31
0.0
  0
LINE
  5
CA3
  8
0
 62
     0
 10
280.86976465781311
 20
54.148984649633782
 30
0.0
 11
280.86976465781311
 21
54.148984649633782
 31
0.0
  0
LINE
  5
CA4
  8
0
 62
     0
 10
296.1695886227368
 20
48.18737287954643
 30
0.0
 11
296.1695886227368
 21
48.18737287954643
 31
0.0
  0
LINE
  5
CA5
  8
0
 62
     0
 10
291.31933593479772
 20
52.63181061936681
 30
0.0
 11
291.31933593479772
 21
52.63181061936681
 31
0.0
  0
LINE
  5
CA6
  8
0
 62
     0
 10
288.27622372711397
 20
55.420309201300462
 30
0.0
 11
288.27622372711397
 21
55.420309201300462
 31
0.0
  0
LINE
  5
CA7
  8
0
 62
     0
 10
281.39410842665973
 20
61.726605994288839
 30
0.0
 11
281.39410842665973
 21
61.726605994288839
 31
0.0
  0
LINE
  5
CA8
  8
0
 62
     0
 10
333.1270080841918
 20
22.38023120172825
 30
0.0
 11
333.1270080841918
 21
22.38023120172825
 31
0.0
  0
LINE
  5
CA9
  8
0
 62
     0
 10
328.27675539625272
 20
26.824668941548641
 30
0.0
 11
328.27675539625272
 21
26.824668941548641
 31
0.0
  0
LINE
  5
CAA
  8
0
 62
     0
 10
325.23364318856892
 20
29.613167523482272
 30
0.0
 11
325.23364318856892
 21
29.613167523482272
 31
0.0
  0
LINE
  5
CAB
  8
0
 62
     0
 10
298.72579500409881
 20
53.903135171033441
 30
0.0
 11
298.72579500409881
 21
53.903135171033441
 31
0.0
  0
LINE
  5
CAC
  8
0
 62
     0
 10
295.68268279641501
 20
56.691633752967071
 30
0.0
 11
295.68268279641501
 21
56.691633752967071
 31
0.0
  0
LINE
  5
CAD
  8
0
 62
     0
 10
340.53346715349261
 20
23.651555753394881
 30
0.0
 11
340.53346715349261
 21
23.651555753394881
 31
0.0
  0
LINE
  5
CAE
  8
0
 62
     0
 10
335.68321446555348
 20
28.095993493215261
 30
0.0
 11
335.68321446555348
 21
28.095993493215261
 31
0.0
  0
LINE
  5
CAF
  8
0
 62
     0
 10
332.64010225786978
 20
30.884492075148891
 30
0.0
 11
332.64010225786978
 21
30.884492075148891
 31
0.0
  0
LINE
  5
CB0
  8
0
 62
     0
 10
325.7579869574156
 20
37.190788868137282
 30
0.0
 11
325.7579869574156
 21
37.190788868137282
 31
0.0
  0
LINE
  5
CB1
  8
0
 62
     0
 10
343.0896735348544
 20
29.367318044881959
 30
0.0
 11
343.0896735348544
 21
29.367318044881959
 31
0.0
  0
LINE
  5
CB2
  8
0
 62
     0
 10
340.04656132717048
 20
32.1558166268156
 30
0.0
 11
340.04656132717048
 21
32.1558166268156
 31
0.0
  0
LINE
  5
CB3
  8
0
 62
     0
 10
333.16444602671658
 20
38.462113419803977
 30
0.0
 11
333.16444602671658
 21
38.462113419803977
 31
0.0
  0
LINE
  5
CB4
  8
0
 62
     0
 10
328.3141933387775
 20
42.906551159624357
 30
0.0
 11
328.3141933387775
 21
42.906551159624357
 31
0.0
  0
LINE
  5
CB5
  8
0
 62
     0
 10
325.27108113109369
 20
45.695049741558002
 30
0.0
 11
325.27108113109369
 21
45.695049741558002
 31
0.0
  0
LINE
  5
CB6
  8
0
 62
     0
 10
340.57090509601738
 20
39.73343797147065
 30
0.0
 11
340.57090509601738
 21
39.73343797147065
 31
0.0
  0
LINE
  5
CB7
  8
0
 62
     0
 10
335.72065240807831
 20
44.177875711291023
 30
0.0
 11
335.72065240807831
 21
44.177875711291023
 31
0.0
  0
LINE
  5
CB8
  8
0
 62
     0
 10
332.6775402003945
 20
46.966374293224661
 30
0.0
 11
332.6775402003945
 21
46.966374293224661
 31
0.0
  0
LINE
  5
CB9
  8
0
 62
     0
 10
325.79542489994037
 20
53.272671086213059
 30
0.0
 11
325.79542489994037
 21
53.272671086213059
 31
0.0
  0
LINE
  5
CBA
  8
0
 62
     0
 10
343.12711147737929
 20
45.449200262957639
 30
0.0
 11
343.12711147737929
 21
45.449200262957639
 31
0.0
  0
LINE
  5
CBB
  8
0
 62
     0
 10
340.08399926969548
 20
48.237698844891291
 30
0.0
 11
340.08399926969548
 21
48.237698844891291
 31
0.0
  0
LINE
  5
CBC
  8
0
 62
     0
 10
333.20188396924129
 20
54.543995637879661
 30
0.0
 11
333.20188396924129
 21
54.543995637879661
 31
0.0
  0
LINE
  5
CBD
  8
0
 62
     0
 10
328.35163128130239
 20
58.988433377700062
 30
0.0
 11
328.35163128130239
 21
58.988433377700062
 31
0.0
  0
LINE
  5
CBE
  8
0
 62
     0
 10
325.30851907361853
 20
61.7769319596337
 30
0.0
 11
325.30851907361853
 21
61.7769319596337
 31
0.0
  0
LINE
  5
CBF
  8
0
 62
     0
 10
340.60834303854227
 20
55.81532018954632
 30
0.0
 11
340.60834303854227
 21
55.81532018954632
 31
0.0
  0
LINE
  5
CC0
  8
0
 62
     0
 10
335.7580903506032
 20
60.259757929366707
 30
0.0
 11
335.7580903506032
 21
60.259757929366707
 31
0.0
  0
LINE
  5
CC1
  8
0
 62
     0
 10
343.16454941990412
 20
61.531082481033401
 30
0.0
 11
343.16454941990412
 21
61.531082481033401
 31
0.0
  0
LINE
  5
CC2
  8
0
 62
     0
 10
284.77226819155908
 20
26.71300868013401
 30
0.0
 11
284.77226819155908
 21
26.71300868013401
 31
0.0
  0
LINE
  5
CC3
  8
0
 62
     0
 10
291.55179794990278
 20
26.426571480500321
 30
0.0
 11
291.55179794990278
 21
26.426571480500321
 31
0.0
  0
LINE
  5
CC4
  8
0
 62
     0
 10
283.19716228768021
 20
31.749061400783969
 30
0.0
 11
283.19716228768021
 21
31.749061400783969
 31
0.0
  0
LINE
  5
CC5
  8
0
 62
     0
 10
280.51939444722427
 20
33.454987657285137
 30
0.0
 11
280.51939444722427
 21
33.454987657285137
 31
0.0
  0
LINE
  5
CC6
  8
0
 62
     0
 10
298.33132770824608
 20
26.140134280866739
 30
0.0
 11
298.33132770824608
 21
26.140134280866739
 31
0.0
  0
LINE
  5
CC7
  8
0
 62
     0
 10
289.97669204602369
 20
31.462624201150369
 30
0.0
 11
289.97669204602369
 21
31.462624201150369
 31
0.0
  0
LINE
  5
CC8
  8
0
 62
     0
 10
287.2989242055678
 20
33.168550457651541
 30
0.0
 11
287.2989242055678
 21
33.168550457651541
 31
0.0
  0
LINE
  5
CC9
  8
0
 62
     0
 10
296.75622180436733
 20
31.176187001516642
 30
0.0
 11
296.75622180436733
 21
31.176187001516642
 31
0.0
  0
LINE
  5
CCA
  8
0
 62
     0
 10
294.07845396391139
 20
32.88211325801781
 30
0.0
 11
294.07845396391139
 21
32.88211325801781
 31
0.0
  0
LINE
  5
CCB
  8
0
 62
     0
 10
282.99249510442388
 20
39.944647959932652
 30
0.0
 11
282.99249510442388
 21
39.944647959932652
 31
0.0
  0
LINE
  5
CCC
  8
0
 62
     0
 10
289.77202486276741
 20
39.65821076029895
 30
0.0
 11
289.77202486276741
 21
39.65821076029895
 31
0.0
  0
LINE
  5
CCD
  8
0
 62
     0
 10
281.41738920054507
 20
44.980700680582594
 30
0.0
 11
281.41738920054507
 21
44.980700680582594
 31
0.0
  0
LINE
  5
CCE
  8
0
 62
     0
 10
296.55155462111099
 20
39.371773560665332
 30
0.0
 11
296.55155462111099
 21
39.371773560665332
 31
0.0
  0
LINE
  5
CCF
  8
0
 62
     0
 10
288.1969189588886
 20
44.694263480948983
 30
0.0
 11
288.1969189588886
 21
44.694263480948983
 31
0.0
  0
LINE
  5
CD0
  8
0
 62
     0
 10
285.51915111843272
 20
46.400189737450127
 30
0.0
 11
285.51915111843272
 21
46.400189737450127
 31
0.0
  0
LINE
  5
CD1
  8
0
 62
     0
 10
325.44944674162048
 20
24.994385482331971
 30
0.0
 11
325.44944674162048
 21
24.994385482331971
 31
0.0
  0
LINE
  5
CD2
  8
0
 62
     0
 10
294.97644871723219
 20
44.407826281315202
 30
0.0
 11
294.97644871723219
 21
44.407826281315202
 31
0.0
  0
LINE
  5
CD3
  8
0
 62
     0
 10
292.29868087677642
 20
46.113752537816367
 30
0.0
 11
292.29868087677642
 21
46.113752537816367
 31
0.0
  0
LINE
  5
CD4
  8
0
 62
     0
 10
281.21272201728891
 20
53.176287239731209
 30
0.0
 11
281.21272201728891
 21
53.176287239731209
 31
0.0
  0
LINE
  5
CD5
  8
0
 62
     0
 10
332.22897649996412
 20
24.707948282698311
 30
0.0
 11
332.22897649996412
 21
24.707948282698311
 31
0.0
  0
LINE
  5
CD6
  8
0
 62
     0
 10
323.87434083774161
 20
30.030438202981951
 30
0.0
 11
323.87434083774161
 21
30.030438202981951
 31
0.0
  0
LINE
  5
CD7
  8
0
 62
     0
 10
299.07821063511972
 20
45.82731533818275
 30
0.0
 11
299.07821063511972
 21
45.82731533818275
 31
0.0
  0
LINE
  5
CD8
  8
0
 62
     0
 10
287.99225177563238
 20
52.889850040097592
 30
0.0
 11
287.99225177563238
 21
52.889850040097592
 31
0.0
  0
LINE
  5
CD9
  8
0
 62
     0
 10
339.00850625830759
 20
24.421511083064608
 30
0.0
 11
339.00850625830759
 21
24.421511083064608
 31
0.0
  0
LINE
  5
CDA
  8
0
 62
     0
 10
330.6538705960852
 20
29.744001003348249
 30
0.0
 11
330.6538705960852
 21
29.744001003348249
 31
0.0
  0
LINE
  5
CDB
  8
0
 62
     0
 10
327.9761027556292
 20
31.449927259849421
 30
0.0
 11
327.9761027556292
 21
31.449927259849421
 31
0.0
  0
LINE
  5
CDC
  8
0
 62
     0
 10
294.77178153397608
 20
52.603412840463903
 30
0.0
 11
294.77178153397608
 21
52.603412840463903
 31
0.0
  0
LINE
  5
CDD
  8
0
 62
     0
 10
286.41714587175358
 20
57.92590276074754
 30
0.0
 11
286.41714587175358
 21
57.92590276074754
 31
0.0
  0
LINE
  5
CDE
  8
0
 62
     0
 10
283.73937803129769
 20
59.63182901724872
 30
0.0
 11
283.73937803129769
 21
59.63182901724872
 31
0.0
  0
LINE
  5
CDF
  8
0
 62
     0
 10
337.4334003544289
 20
29.45756380371456
 30
0.0
 11
337.4334003544289
 21
29.45756380371456
 31
0.0
  0
LINE
  5
CE0
  8
0
 62
     0
 10
334.7556325139729
 20
31.163490060215729
 30
0.0
 11
334.7556325139729
 21
31.163490060215729
 31
0.0
  0
LINE
  5
CE1
  8
0
 62
     0
 10
323.66967365448551
 20
38.226024762130557
 30
0.0
 11
323.66967365448551
 21
38.226024762130557
 31
0.0
  0
LINE
  5
CE2
  8
0
 62
     0
 10
293.19667563009722
 20
57.639465561113852
 30
0.0
 11
293.19667563009722
 21
57.639465561113852
 31
0.0
  0
LINE
  5
CE3
  8
0
 62
     0
 10
290.51890778964128
 20
59.345391817615003
 30
0.0
 11
290.51890778964128
 21
59.345391817615003
 31
0.0
  0
LINE
  5
CE4
  8
0
 62
     0
 10
341.53516227231643
 20
30.877052860582118
 30
0.0
 11
341.53516227231643
 21
30.877052860582118
 31
0.0
  0
LINE
  5
CE5
  8
0
 62
     0
 10
330.44920341282892
 20
37.939587562496961
 30
0.0
 11
330.44920341282892
 21
37.939587562496961
 31
0.0
  0
LINE
  5
CE6
  8
0
 62
     0
 10
299.97620538844058
 20
57.353028361480249
 30
0.0
 11
299.97620538844058
 21
57.353028361480249
 31
0.0
  0
LINE
  5
CE7
  8
0
 62
     0
 10
297.2984375479848
 20
59.058954617981421
 30
0.0
 11
297.2984375479848
 21
59.058954617981421
 31
0.0
  0
LINE
  5
CE8
  8
0
 62
     0
 10
337.22873317117262
 20
37.653150362863222
 30
0.0
 11
337.22873317117262
 21
37.653150362863222
 31
0.0
  0
LINE
  5
CE9
  8
0
 62
     0
 10
328.87409750895017
 20
42.975640283146852
 30
0.0
 11
328.87409750895017
 21
42.975640283146852
 31
0.0
  0
LINE
  5
CEA
  8
0
 62
     0
 10
326.19632966849429
 20
44.681566539648003
 30
0.0
 11
326.19632966849429
 21
44.681566539648003
 31
0.0
  0
LINE
  5
CEB
  8
0
 62
     0
 10
335.65362726729359
 20
42.689203083513277
 30
0.0
 11
335.65362726729359
 21
42.689203083513277
 31
0.0
  0
LINE
  5
CEC
  8
0
 62
     0
 10
332.9758594268377
 20
44.395129340014407
 30
0.0
 11
332.9758594268377
 21
44.395129340014407
 31
0.0
  0
LINE
  5
CED
  8
0
 62
     0
 10
342.43315702563717
 20
42.402765883879589
 30
0.0
 11
342.43315702563717
 21
42.402765883879589
 31
0.0
  0
LINE
  5
CEE
  8
0
 62
     0
 10
339.75538918518117
 20
44.108692140380747
 30
0.0
 11
339.75538918518117
 21
44.108692140380747
 31
0.0
  0
LINE
  5
CEF
  8
0
 62
     0
 10
328.66943032569372
 20
51.171226842295582
 30
0.0
 11
328.66943032569372
 21
51.171226842295582
 31
0.0
  0
LINE
  5
CF0
  8
0
 62
     0
 10
335.44896008403742
 20
50.884789642661943
 30
0.0
 11
335.44896008403742
 21
50.884789642661943
 31
0.0
  0
LINE
  5
CF1
  8
0
 62
     0
 10
327.09432442181492
 20
56.207279562945558
 30
0.0
 11
327.09432442181492
 21
56.207279562945558
 31
0.0
  0
LINE
  5
CF2
  8
0
 62
     0
 10
324.41655658135898
 20
57.913205819446752
 30
0.0
 11
324.41655658135898
 21
57.913205819446752
 31
0.0
  0
LINE
  5
CF3
  8
0
 62
     0
 10
342.22848984238101
 20
50.598352443028183
 30
0.0
 11
342.22848984238101
 21
50.598352443028183
 31
0.0
  0
LINE
  5
CF4
  8
0
 62
     0
 10
333.87385418015862
 20
55.92084236331182
 30
0.0
 11
333.87385418015862
 21
55.92084236331182
 31
0.0
  0
LINE
  5
CF5
  8
0
 62
     0
 10
331.19608633970267
 20
57.626768619813006
 30
0.0
 11
331.19608633970267
 21
57.626768619813006
 31
0.0
  0
LINE
  5
CF6
  8
0
 62
     0
 10
340.65338393850197
 20
55.63440516367821
 30
0.0
 11
340.65338393850197
 21
55.63440516367821
 31
0.0
  0
LINE
  5
CF7
  8
0
 62
     0
 10
337.97561609804609
 20
57.340331420179382
 30
0.0
 11
337.97561609804609
 21
57.340331420179382
 31
0.0
  0
LINE
  5
CF8
  8
0
 62
     0
 10
343.03414309516
 20
24.641789772737472
 30
0.0
 11
343.03414309516
 21
24.641789772737472
 31
0.0
  0
LINE
  5
CF9
  8
0
 62
     0
 10
335.01345331113203
 20
23.585845930296468
 30
0.0
 11
335.01345331113203
 21
23.585845930296468
 31
0.0
  0
LINE
  5
CFA
  8
0
 62
     0
 10
330.20355771066318
 20
22.95261116136011
 30
0.0
 11
330.20355771066318
 21
22.95261116136011
 31
0.0
  0
LINE
  5
CFB
  8
0
 62
     0
 10
327.02424190145268
 20
22.534046294458449
 30
0.0
 11
327.02424190145268
 21
22.534046294458449
 31
0.0
  0
LINE
  5
CFC
  8
0
 62
     0
 10
338.3544364366474
 20
28.594874671202451
 30
0.0
 11
338.3544364366474
 21
28.594874671202451
 31
0.0
  0
LINE
  5
CFD
  8
0
 62
     0
 10
333.5445408361785
 20
27.961639902266089
 30
0.0
 11
333.5445408361785
 21
27.961639902266089
 31
0.0
  0
LINE
  5
CFE
  8
0
 62
     0
 10
330.36522502696801
 20
27.543075035364438
 30
0.0
 11
330.36522502696801
 21
27.543075035364438
 31
0.0
  0
LINE
  5
CFF
  8
0
 62
     0
 10
298.34542263955331
 20
23.327588078806439
 30
0.0
 11
298.34542263955331
 21
23.327588078806439
 31
0.0
  0
LINE
  5
D00
  8
0
 62
     0
 10
290.32473285552533
 20
22.271644236365439
 30
0.0
 11
290.32473285552533
 21
22.271644236365439
 31
0.0
  0
LINE
  5
D01
  8
0
 62
     0
 10
341.69541956216273
 20
33.603903412108423
 30
0.0
 11
341.69541956216273
 21
33.603903412108423
 31
0.0
  0
LINE
  5
D02
  8
0
 62
     0
 10
336.88552396169382
 20
32.970668643172047
 30
0.0
 11
336.88552396169382
 21
32.970668643172047
 31
0.0
  0
LINE
  5
D03
  8
0
 62
     0
 10
333.70620815248333
 20
32.552103776270407
 30
0.0
 11
333.70620815248333
 21
32.552103776270407
 31
0.0
  0
LINE
  5
D04
  8
0
 62
     0
 10
325.68551836845518
 20
31.496159933829411
 30
0.0
 11
325.68551836845518
 21
31.496159933829411
 31
0.0
  0
LINE
  5
D05
  8
0
 62
     0
 10
293.66571598104059
 20
27.280672977271411
 30
0.0
 11
293.66571598104059
 21
27.280672977271411
 31
0.0
  0
LINE
  5
D06
  8
0
 62
     0
 10
288.85582038057169
 20
26.64743820833506
 30
0.0
 11
288.85582038057169
 21
26.64743820833506
 31
0.0
  0
LINE
  5
D07
  8
0
 62
     0
 10
285.67650457136119
 20
26.228873341433399
 30
0.0
 11
285.67650457136119
 21
26.228873341433399
 31
0.0
  0
LINE
  5
D08
  8
0
 62
     0
 10
340.2265070872088
 20
37.97969738407803
 30
0.0
 11
340.2265070872088
 21
37.97969738407803
 31
0.0
  0
LINE
  5
D09
  8
0
 62
     0
 10
337.04719127799859
 20
37.561132517176382
 30
0.0
 11
337.04719127799859
 21
37.561132517176382
 31
0.0
  0
LINE
  5
D0A
  8
0
 62
     0
 10
329.02650149397078
 20
36.505188674735358
 30
0.0
 11
329.02650149397078
 21
36.505188674735358
 31
0.0
  0
LINE
  5
D0B
  8
0
 62
     0
 10
324.21660589350171
 20
35.871953905799018
 30
0.0
 11
324.21660589350171
 21
35.871953905799018
 31
0.0
  0
LINE
  5
D0C
  8
0
 62
     0
 10
297.00669910655591
 20
32.28970171817739
 30
0.0
 11
297.00669910655591
 21
32.28970171817739
 31
0.0
  0
LINE
  5
D0D
  8
0
 62
     0
 10
292.19680350608701
 20
31.656466949241018
 30
0.0
 11
292.19680350608701
 21
31.656466949241018
 31
0.0
  0
LINE
  5
D0E
  8
0
 62
     0
 10
289.01748769687651
 20
31.23790208233936
 30
0.0
 11
289.01748769687651
 21
31.23790208233936
 31
0.0
  0
LINE
  5
D0F
  8
0
 62
     0
 10
280.99679791284848
 20
30.181958239898371
 30
0.0
 11
280.99679791284848
 21
30.181958239898371
 31
0.0
  0
LINE
  5
D10
  8
0
 62
     0
 10
340.3881744035138
 20
42.570161258082351
 30
0.0
 11
340.3881744035138
 21
42.570161258082351
 31
0.0
  0
LINE
  5
D11
  8
0
 62
     0
 10
332.36748461948588
 20
41.514217415641362
 30
0.0
 11
332.36748461948588
 21
41.514217415641362
 31
0.0
  0
LINE
  5
D12
  8
0
 62
     0
 10
327.55758901901697
 20
40.880982646705
 30
0.0
 11
327.55758901901697
 21
40.880982646705
 31
0.0
  0
LINE
  5
D13
  8
0
 62
     0
 10
324.37827320980648
 20
40.462417779803353
 30
0.0
 11
324.37827320980648
 21
40.462417779803353
 31
0.0
  0
LINE
  5
D14
  8
0
 62
     0
 10
295.53778663160227
 20
36.66549569014699
 30
0.0
 11
295.53778663160227
 21
36.66549569014699
 31
0.0
  0
LINE
  5
D15
  8
0
 62
     0
 10
292.35847082239172
 20
36.246930823245343
 30
0.0
 11
292.35847082239172
 21
36.246930823245343
 31
0.0
  0
LINE
  5
D16
  8
0
 62
     0
 10
284.33778103836369
 20
35.190986980804361
 30
0.0
 11
284.33778103836369
 21
35.190986980804361
 31
0.0
  0
LINE
  5
D17
  8
0
 62
     0
 10
335.7084677450012
 20
46.523246156547287
 30
0.0
 11
335.7084677450012
 21
46.523246156547287
 31
0.0
  0
LINE
  5
D18
  8
0
 62
     0
 10
330.89857214453218
 20
45.890011387610961
 30
0.0
 11
330.89857214453218
 21
45.890011387610961
 31
0.0
  0
LINE
  5
D19
  8
0
 62
     0
 10
327.7192563353218
 20
45.471446520709293
 30
0.0
 11
327.7192563353218
 21
45.471446520709293
 31
0.0
  0
LINE
  5
D1A
  8
0
 62
     0
 10
298.87876975711748
 20
41.674524431052959
 30
0.0
 11
298.87876975711748
 21
41.674524431052959
 31
0.0
  0
LINE
  5
D1B
  8
0
 62
     0
 10
295.69945394790687
 20
41.255959564151311
 30
0.0
 11
295.69945394790687
 21
41.255959564151311
 31
0.0
  0
LINE
  5
D1C
  8
0
 62
     0
 10
287.67876416387901
 20
40.200015721710322
 30
0.0
 11
287.67876416387901
 21
40.200015721710322
 31
0.0
  0
LINE
  5
D1D
  8
0
 62
     0
 10
282.8688685634101
 20
39.566780952773946
 30
0.0
 11
282.8688685634101
 21
39.566780952773946
 31
0.0
  0
LINE
  5
D1E
  8
0
 62
     0
 10
339.04945087051641
 20
51.532274897453291
 30
0.0
 11
339.04945087051641
 21
51.532274897453291
 31
0.0
  0
LINE
  5
D1F
  8
0
 62
     0
 10
334.23955527004762
 20
50.899040128516951
 30
0.0
 11
334.23955527004762
 21
50.899040128516951
 31
0.0
  0
LINE
  5
D20
  8
0
 62
     0
 10
331.06023946083712
 20
50.480475261615283
 30
0.0
 11
331.06023946083712
 21
50.480475261615283
 31
0.0
  0
LINE
  5
D21
  8
0
 62
     0
 10
299.04043707342231
 20
46.264988305057273
 30
0.0
 11
299.04043707342231
 21
46.264988305057273
 31
0.0
  0
LINE
  5
D22
  8
0
 62
     0
 10
291.01974728939439
 20
45.209044462616312
 30
0.0
 11
291.01974728939439
 21
45.209044462616312
 31
0.0
  0
LINE
  5
D23
  8
0
 62
     0
 10
286.20985168892548
 20
44.575809693679929
 30
0.0
 11
286.20985168892548
 21
44.575809693679929
 31
0.0
  0
LINE
  5
D24
  8
0
 62
     0
 10
283.03053587971488
 20
44.15724482677831
 30
0.0
 11
283.03053587971488
 21
44.15724482677831
 31
0.0
  0
LINE
  5
D25
  8
0
 62
     0
 10
342.39043399603167
 20
56.541303638359281
 30
0.0
 11
342.39043399603167
 21
56.541303638359281
 31
0.0
  0
LINE
  5
D26
  8
0
 62
     0
 10
337.58053839556283
 20
55.908068869422927
 30
0.0
 11
337.58053839556283
 21
55.908068869422927
 31
0.0
  0
LINE
  5
D27
  8
0
 62
     0
 10
334.40122258635222
 20
55.489504002521279
 30
0.0
 11
334.40122258635222
 21
55.489504002521279
 31
0.0
  0
LINE
  5
D28
  8
0
 62
     0
 10
326.38053280232441
 20
54.43356016008029
 30
0.0
 11
326.38053280232441
 21
54.43356016008029
 31
0.0
  0
LINE
  5
D29
  8
0
 62
     0
 10
294.36073041490971
 20
50.21807320352228
 30
0.0
 11
294.36073041490971
 21
50.21807320352228
 31
0.0
  0
LINE
  5
D2A
  8
0
 62
     0
 10
289.55083481444069
 20
49.584838434585919
 30
0.0
 11
289.55083481444069
 21
49.584838434585919
 31
0.0
  0
LINE
  5
D2B
  8
0
 62
     0
 10
286.37151900523031
 20
49.166273567684271
 30
0.0
 11
286.37151900523031
 21
49.166273567684271
 31
0.0
  0
LINE
  5
D2C
  8
0
 62
     0
 10
340.9215215210782
 20
60.917097610328902
 30
0.0
 11
340.9215215210782
 21
60.917097610328902
 31
0.0
  0
LINE
  5
D2D
  8
0
 62
     0
 10
337.74220571186771
 20
60.498532743427262
 30
0.0
 11
337.74220571186771
 21
60.498532743427262
 31
0.0
  0
LINE
  5
D2E
  8
0
 62
     0
 10
329.72151592783968
 20
59.442588900986259
 30
0.0
 11
329.72151592783968
 21
59.442588900986259
 31
0.0
  0
LINE
  5
D2F
  8
0
 62
     0
 10
324.91162032737083
 20
58.809354132049897
 30
0.0
 11
324.91162032737083
 21
58.809354132049897
 31
0.0
  0
LINE
  5
D30
  8
0
 62
     0
 10
297.70171354042492
 20
55.227101944428263
 30
0.0
 11
297.70171354042492
 21
55.227101944428263
 31
0.0
  0
LINE
  5
D31
  8
0
 62
     0
 10
292.89181793995613
 20
54.593867175491887
 30
0.0
 11
292.89181793995613
 21
54.593867175491887
 31
0.0
  0
LINE
  5
D32
  8
0
 62
     0
 10
289.71250213074558
 20
54.17530230859024
 30
0.0
 11
289.71250213074558
 21
54.17530230859024
 31
0.0
  0
LINE
  5
D33
  8
0
 62
     0
 10
281.69181234671771
 20
53.119358466149237
 30
0.0
 11
281.69181234671771
 21
53.119358466149237
 31
0.0
  0
LINE
  5
D34
  8
0
 62
     0
 10
296.23280106547128
 20
59.602895916397891
 30
0.0
 11
296.23280106547128
 21
59.602895916397891
 31
0.0
  0
LINE
  5
D35
  8
0
 62
     0
 10
293.05348525626079
 20
59.18433104949623
 30
0.0
 11
293.05348525626079
 21
59.18433104949623
 31
0.0
  0
LINE
  5
D36
  8
0
 62
     0
 10
285.03279547223292
 20
58.128387207055219
 30
0.0
 11
285.03279547223292
 21
58.128387207055219
 31
0.0
  0
LINE
  5
D37
  8
0
 62
     0
 10
280.2228998717639
 20
57.495152438118851
 30
0.0
 11
280.2228998717639
 21
57.495152438118851
 31
0.0
  0
LINE
  5
D38
  8
0
 62
     0
 10
339.55263985561243
 20
24.689412381352991
 30
0.0
 11
339.55263985561243
 21
24.689412381352991
 31
0.0
  0
LINE
  5
D39
  8
0
 62
     0
 10
339.70707001814202
 20
28.917164325010638
 30
0.0
 11
339.70707001814202
 21
28.917164325010638
 31
0.0
  0
LINE
  5
D3A
  8
0
 62
     0
 10
333.03199335126658
 20
23.795197851688521
 30
0.0
 11
333.03199335126658
 21
23.795197851688521
 31
0.0
  0
LINE
  5
D3B
  8
0
 62
     0
 10
339.86150018067161
 20
33.144916268668311
 30
0.0
 11
339.86150018067161
 21
33.144916268668311
 31
0.0
  0
LINE
  5
D3C
  8
0
 62
     0
 10
333.18642351379623
 20
28.022949795346179
 30
0.0
 11
333.18642351379623
 21
28.022949795346179
 31
0.0
  0
LINE
  5
D3D
  8
0
 62
     0
 10
326.43577994125798
 20
22.842998795910979
 30
0.0
 11
326.43577994125798
 21
22.842998795910979
 31
0.0
  0
LINE
  5
D3E
  8
0
 62
     0
 10
340.01593034320121
 20
37.372668212325969
 30
0.0
 11
340.01593034320121
 21
37.372668212325969
 31
0.0
  0
LINE
  5
D3F
  8
0
 62
     0
 10
333.34085367632582
 20
32.250701739003837
 30
0.0
 11
333.34085367632582
 21
32.250701739003837
 31
0.0
  0
LINE
  5
D40
  8
0
 62
     0
 10
326.59021010378768
 20
27.070750739568631
 30
0.0
 11
326.59021010378768
 21
27.070750739568631
 31
0.0
  0
LINE
  5
D41
  8
0
 62
     0
 10
340.1703605057308
 20
41.600420155983556
 30
0.0
 11
340.1703605057308
 21
41.600420155983556
 31
0.0
  0
LINE
  5
D42
  8
0
 62
     0
 10
333.49528383885541
 20
36.478453682661439
 30
0.0
 11
333.49528383885541
 21
36.478453682661439
 31
0.0
  0
LINE
  5
D43
  8
0
 62
     0
 10
326.74464026631728
 20
31.298502683226229
 30
0.0
 11
326.74464026631728
 21
31.298502683226229
 31
0.0
  0
LINE
  5
D44
  8
0
 62
     0
 10
340.32479066826039
 20
45.82817209964125
 30
0.0
 11
340.32479066826039
 21
45.82817209964125
 31
0.0
  0
LINE
  5
D45
  8
0
 62
     0
 10
333.64971400138489
 20
40.706205626319132
 30
0.0
 11
333.64971400138489
 21
40.706205626319132
 31
0.0
  0
LINE
  5
D46
  8
0
 62
     0
 10
326.89907042884681
 20
35.526254626883933
 30
0.0
 11
326.89907042884681
 21
35.526254626883933
 31
0.0
  0
LINE
  5
D47
  8
0
 62
     0
 10
340.47922083078998
 20
50.055924043298923
 30
0.0
 11
340.47922083078998
 21
50.055924043298923
 31
0.0
  0
LINE
  5
D48
  8
0
 62
     0
 10
333.80414416391483
 20
44.933957569976791
 30
0.0
 11
333.80414416391483
 21
44.933957569976791
 31
0.0
  0
LINE
  5
D49
  8
0
 62
     0
 10
327.05350059137652
 20
39.754006570541591
 30
0.0
 11
327.05350059137652
 21
39.754006570541591
 31
0.0
  0
LINE
  5
D4A
  8
0
 62
     0
 10
340.63365099331969
 20
54.283675986956609
 30
0.0
 11
340.63365099331969
 21
54.283675986956609
 31
0.0
  0
LINE
  5
D4B
  8
0
 62
     0
 10
333.95857432644419
 20
49.16170951363447
 30
0.0
 11
333.95857432644419
 21
49.16170951363447
 31
0.0
  0
LINE
  5
D4C
  8
0
 62
     0
 10
327.20793075390611
 20
43.981758514199271
 30
0.0
 11
327.20793075390611
 21
43.981758514199271
 31
0.0
  0
LINE
  5
D4D
  8
0
 62
     0
 10
340.78808115584928
 20
58.511427930614197
 30
0.0
 11
340.78808115584928
 21
58.511427930614197
 31
0.0
  0
LINE
  5
D4E
  8
0
 62
     0
 10
334.11300448897367
 20
53.389461457292079
 30
0.0
 11
334.11300448897367
 21
53.389461457292079
 31
0.0
  0
LINE
  5
D4F
  8
0
 62
     0
 10
327.36236091643559
 20
48.209510457856872
 30
0.0
 11
327.36236091643559
 21
48.209510457856872
 31
0.0
  0
LINE
  5
D50
  8
0
 62
     0
 10
294.12299801225168
 20
22.704050238249842
 30
0.0
 11
294.12299801225168
 21
22.704050238249842
 31
0.0
  0
LINE
  5
D51
  8
0
 62
     0
 10
334.26743465150338
 20
57.617213400949723
 30
0.0
 11
334.26743465150338
 21
57.617213400949723
 31
0.0
  0
LINE
  5
D52
  8
0
 62
     0
 10
327.51679107896518
 20
52.437262401514502
 30
0.0
 11
327.51679107896518
 21
52.437262401514502
 31
0.0
  0
LINE
  5
D53
  8
0
 62
     0
 10
294.27742817478122
 20
26.931802181907479
 30
0.0
 11
294.27742817478122
 21
26.931802181907479
 31
0.0
  0
LINE
  5
D54
  8
0
 62
     0
 10
334.42186481403292
 20
61.844965344607409
 30
0.0
 11
334.42186481403292
 21
61.844965344607409
 31
0.0
  0
LINE
  5
D55
  8
0
 62
     0
 10
327.67122124149489
 20
56.665014345172217
 30
0.0
 11
327.67122124149489
 21
56.665014345172217
 31
0.0
  0
LINE
  5
D56
  8
0
 62
     0
 10
294.43185833731093
 20
31.159554125565151
 30
0.0
 11
294.43185833731093
 21
31.159554125565151
 31
0.0
  0
LINE
  5
D57
  8
0
 62
     0
 10
287.68121476477268
 20
25.979603126129941
 30
0.0
 11
287.68121476477268
 21
25.979603126129941
 31
0.0
  0
LINE
  5
D58
  8
0
 62
     0
 10
327.82565140402443
 20
60.892766288829861
 30
0.0
 11
327.82565140402443
 21
60.892766288829861
 31
0.0
  0
LINE
  5
D59
  8
0
 62
     0
 10
294.58628849984052
 20
35.387306069222781
 30
0.0
 11
294.58628849984052
 21
35.387306069222781
 31
0.0
  0
LINE
  5
D5A
  8
0
 62
     0
 10
287.83564492730238
 20
30.207355069787589
 30
0.0
 11
287.83564492730238
 21
30.207355069787589
 31
0.0
  0
LINE
  5
D5B
  8
0
 62
     0
 10
281.2663619283548
 20
25.16656693302377
 30
0.0
 11
281.2663619283548
 21
25.16656693302377
 31
0.0
  0
LINE
  5
D5C
  8
0
 62
     0
 10
294.74071866237011
 20
39.615058012880468
 30
0.0
 11
294.74071866237011
 21
39.615058012880468
 31
0.0
  0
LINE
  5
D5D
  8
0
 62
     0
 10
287.99007508983192
 20
34.435107013445247
 30
0.0
 11
287.99007508983192
 21
34.435107013445247
 31
0.0
  0
LINE
  5
D5E
  8
0
 62
     0
 10
281.42079209088439
 20
29.394318876681439
 30
0.0
 11
281.42079209088439
 21
29.394318876681439
 31
0.0
  0
LINE
  5
D5F
  8
0
 62
     0
 10
294.89514882489959
 20
43.84280995653809
 30
0.0
 11
294.89514882489959
 21
43.84280995653809
 31
0.0
  0
LINE
  5
D60
  8
0
 62
     0
 10
288.14450525236151
 20
38.662858957102912
 30
0.0
 11
288.14450525236151
 21
38.662858957102912
 31
0.0
  0
LINE
  5
D61
  8
0
 62
     0
 10
281.57522225341398
 20
33.62207082033909
 30
0.0
 11
281.57522225341398
 21
33.62207082033909
 31
0.0
  0
LINE
  5
D62
  8
0
 62
     0
 10
295.04957898742919
 20
48.070561900195763
 30
0.0
 11
295.04957898742919
 21
48.070561900195763
 31
0.0
  0
LINE
  5
D63
  8
0
 62
     0
 10
288.2989354148911
 20
42.890610900760542
 30
0.0
 11
288.2989354148911
 21
42.890610900760542
 31
0.0
  0
LINE
  5
D64
  8
0
 62
     0
 10
281.72965241594358
 20
37.849822763996741
 30
0.0
 11
281.72965241594358
 21
37.849822763996741
 31
0.0
  0
LINE
  5
D65
  8
0
 62
     0
 10
295.20400914995878
 20
52.298313843853428
 30
0.0
 11
295.20400914995878
 21
52.298313843853428
 31
0.0
  0
LINE
  5
D66
  8
0
 62
     0
 10
288.4533655774207
 20
47.118362844418222
 30
0.0
 11
288.4533655774207
 21
47.118362844418222
 31
0.0
  0
LINE
  5
D67
  8
0
 62
     0
 10
281.88408257847323
 20
42.077574707654414
 30
0.0
 11
281.88408257847323
 21
42.077574707654414
 31
0.0
  0
LINE
  5
D68
  8
0
 62
     0
 10
295.35843931248837
 20
56.526065787511087
 30
0.0
 11
295.35843931248837
 21
56.526065787511087
 31
0.0
  0
LINE
  5
D69
  8
0
 62
     0
 10
288.60779573995029
 20
51.34611478807588
 30
0.0
 11
288.60779573995029
 21
51.34611478807588
 31
0.0
  0
LINE
  5
D6A
  8
0
 62
     0
 10
282.03851274100271
 20
46.305326651312072
 30
0.0
 11
282.03851274100271
 21
46.305326651312072
 31
0.0
  0
LINE
  5
D6B
  8
0
 62
     0
 10
295.51286947501802
 20
60.753817731168702
 30
0.0
 11
295.51286947501802
 21
60.753817731168702
 31
0.0
  0
LINE
  5
D6C
  8
0
 62
     0
 10
288.76222590247988
 20
55.573866731733503
 30
0.0
 11
288.76222590247988
 21
55.573866731733503
 31
0.0
  0
LINE
  5
D6D
  8
0
 62
     0
 10
282.1929429035323
 20
50.53307859496968
 30
0.0
 11
282.1929429035323
 21
50.53307859496968
 31
0.0
  0
LINE
  5
D6E
  8
0
 62
     0
 10
288.91665606500948
 20
59.801618675391197
 30
0.0
 11
288.91665606500948
 21
59.801618675391197
 31
0.0
  0
LINE
  5
D6F
  8
0
 62
     0
 10
282.34737306606189
 20
54.760830538627388
 30
0.0
 11
282.34737306606189
 21
54.760830538627388
 31
0.0
  0
LINE
  5
D70
  8
0
 62
     0
 10
282.5018032285916
 20
58.988582482285032
 30
0.0
 11
282.5018032285916
 21
58.988582482285032
 31
0.0
  0
LINE
  5
D71
  8
0
 62
     0
 10
340.66649085187549
 20
31.51188417665141
 30
0.0
 11
340.92400003779272
 21
32.27933402463384
 31
0.0
  0
LINE
  5
D72
  8
0
 62
     0
 10
337.57638062086869
 20
22.302486000862299
 30
0.0
 11
337.83388980678598
 21
23.069935848844729
 31
0.0
  0
LINE
  5
D73
  8
0
 62
     0
 10
339.26599700638923
 20
55.04393581821585
 30
0.0
 11
339.52350619230663
 21
55.811385666198248
 31
0.0
  0
LINE
  5
D74
  8
0
 62
     0
 10
336.17588677538282
 20
45.834537642426739
 30
0.0
 11
336.43339596129988
 21
46.601987490409172
 31
0.0
  0
LINE
  5
D75
  8
0
 62
     0
 10
333.08577654437602
 20
36.625139466637641
 30
0.0
 11
333.34328573029319
 21
37.392589314620068
 31
0.0
  0
LINE
  5
D76
  8
0
 62
     0
 10
329.99566631336933
 20
27.415741290848541
 30
0.0
 11
330.2531754992865
 21
28.183191138830971
 31
0.0
  0
LINE
  5
D77
  8
0
 62
     0
 10
331.68528269888981
 20
60.15719110820207
 30
0.0
 11
331.94279188480709
 21
60.924640956184497
 31
0.0
  0
LINE
  5
D78
  8
0
 62
     0
 10
328.59517246788312
 20
50.947792932412959
 30
0.0
 11
328.85268165380029
 21
51.7152427803954
 31
0.0
  0
LINE
  5
D79
  8
0
 62
     0
 10
325.50506223687643
 20
41.738394756623848
 30
0.0
 11
325.76257142279371
 21
42.505844604606281
 31
0.0
  0
LINE
  5
D7A
  8
0
 62
     0
 10
299.67280908337119
 20
47.868762450793419
 30
0.0
 11
299.93031826928842
 21
48.636212298775867
 31
0.0
  0
LINE
  5
D7B
  8
0
 62
     0
 10
296.5826988523645
 20
38.65936427500435
 30
0.0
 11
296.84020803828167
 21
39.426814122986777
 31
0.0
  0
LINE
  5
D7C
  8
0
 62
     0
 10
293.49258862135781
 20
29.449966099215239
 30
0.0
 11
293.75009780727493
 21
30.217415947197669
 31
0.0
  0
LINE
  5
D7D
  8
0
 62
     0
 10
292.0920947758716
 20
52.982017740779689
 30
0.0
 11
292.34960396178889
 21
53.749467588762123
 31
0.0
  0
LINE
  5
D7E
  8
0
 62
     0
 10
289.00198454486508
 20
43.77261956499057
 30
0.0
 11
289.2594937307822
 21
44.540069412972997
 31
0.0
  0
LINE
  5
D7F
  8
0
 62
     0
 10
285.91187431385828
 20
34.56322138920148
 30
0.0
 11
286.16938349977551
 21
35.330671237183907
 31
0.0
  0
LINE
  5
D80
  8
0
 62
     0
 10
282.82176408285159
 20
25.353823213412369
 30
0.0
 11
283.07927326876882
 21
26.121273061394799
 31
0.0
  0
LINE
  5
D81
  8
0
 62
     0
 10
284.51138046837201
 20
58.095273030765917
 30
0.0
 11
284.7688896542893
 21
58.86272287874835
 31
0.0
  0
LINE
  5
D82
  8
0
 62
     0
 10
281.42127023736538
 20
48.885874854976819
 30
0.0
 11
281.67877942328272
 21
49.653324702959239
 31
0.0
  0
LINE
  5
D83
  8
0
 62
     0
 10
282.18989200314752
 20
25.779821389138348
 30
0.0
 11
282.82161863343453
 21
25.353716396693638
 31
0.0
  0
LINE
  5
D84
  8
0
 62
     0
 10
292.8607129839732
 20
29.875959785917829
 30
0.0
 11
293.49243961426009
 21
29.449854793473119
 31
0.0
  0
LINE
  5
D85
  8
0
 62
     0
 10
285.27999342052988
 20
34.989219695254327
 30
0.0
 11
285.91172005081683
 21
34.563114702809628
 31
0.0
  0
LINE
  5
D86
  8
0
 62
     0
 10
295.9508144013555
 20
39.085358092033808
 30
0.0
 11
296.58254103164239
 21
38.659253099589101
 31
0.0
  0
LINE
  5
D87
  8
0
 62
     0
 10
288.37009483791218
 20
44.198618001370313
 30
0.0
 11
289.00182146819918
 21
43.772513008925593
 31
0.0
  0
LINE
  5
D88
  8
0
 62
     0
 10
280.78937527446891
 20
49.311877910706819
 30
0.0
 11
281.4211019047558
 21
48.885772918262113
 31
0.0
  0
LINE
  5
D89
  8
0
 62
     0
 10
336.94451363595442
 20
22.728456851467211
 30
0.0
 11
337.57624026624143
 21
22.302351859022501
 31
0.0
  0
LINE
  5
D8A
  8
0
 62
     0
 10
329.3637940725111
 20
27.841716760803731
 30
0.0
 11
329.9955207027981
 21
27.41561176835901
 31
0.0
  0
LINE
  5
D8B
  8
0
 62
     0
 10
299.04091581873797
 20
48.294756398149758
 30
0.0
 11
299.67264244902481
 21
47.868651405705059
 31
0.0
  0
LINE
  5
D8C
  8
0
 62
     0
 10
291.46019625529459
 20
53.408016307486278
 30
0.0
 11
292.09192288558148
 21
52.981911315041557
 31
0.0
  0
LINE
  5
D8D
  8
0
 62
     0
 10
283.87947669185121
 20
58.521276216822777
 30
0.0
 11
284.5112033221381
 21
58.09517122437807
 31
0.0
  0
LINE
  5
D8E
  8
0
 62
     0
 10
340.03461505333678
 20
31.937855157583201
 30
0.0
 11
340.66634168362373
 21
31.511750165138491
 31
0.0
  0
LINE
  5
D8F
  8
0
 62
     0
 10
332.45389548989351
 20
37.051115066919706
 30
0.0
 11
333.08562212018018
 21
36.625010074475
 31
0.0
  0
LINE
  5
D90
  8
0
 62
     0
 10
324.87317592645007
 20
42.164374976256212
 30
0.0
 11
325.50490255673708
 21
41.738269983811513
 31
0.0
  0
LINE
  5
D91
  8
0
 62
     0
 10
343.12471647071908
 20
41.147253463699109
 30
0.0
 11
343.1894779105852
 21
41.103571320946493
 31
0.0
  0
LINE
  5
D92
  8
0
 62
     0
 10
335.54399690727581
 20
46.260513373035621
 30
0.0
 11
336.17572353756282
 21
45.834408380590887
 31
0.0
  0
LINE
  5
D93
  8
0
 62
     0
 10
327.96327734383249
 20
51.373773282372142
 30
0.0
 11
328.59500397411938
 21
50.947668289927421
 31
0.0
  0
LINE
  5
D94
  8
0
 62
     0
 10
338.63409832465823
 20
55.469911679151622
 30
0.0
 11
339.26582495494512
 21
55.04380668670688
 31
0.0
  0
LINE
  5
D95
  8
0
 62
     0
 10
331.05337876121479
 20
60.583171588488121
 30
0.0
 11
331.68510539150168
 21
60.157066596043421
 31
0.0
  0
LINE
  5
D96
  8
0
 62
     0
 10
336.9445279199212
 20
22.72876797926682
 30
0.0
 11
337.8337632761598
 21
23.070113451208719
 31
0.0
  0
LINE
  5
D97
  8
0
 62
     0
 10
340.03460820301501
 20
31.938189568407761
 30
0.0
 11
340.92384355925378
 21
32.279535040349657
 31
0.0
  0
LINE
  5
D98
  8
0
 62
     0
 10
329.36378392815197
 20
27.84204390510498
 30
0.0
 11
330.25301928439069
 21
28.183389377046868
 31
0.0
  0
LINE
  5
D99
  8
0
 62
     0
 10
343.12468848610888
 20
41.147611157548617
 30
0.0
 11
343.1894779105852
 21
41.172481487455663
 31
0.0
  0
LINE
  5
D9A
  8
0
 62
     0
 10
332.4538642112459
 20
37.051465494245853
 30
0.0
 11
333.3430995674845
 21
37.392810966187731
 31
0.0
  0
LINE
  5
D9B
  8
0
 62
     0
 10
335.54394449433983
 20
46.260887083386748
 30
0.0
 11
336.43317985057843
 21
46.602232555328648
 31
0.0
  0
LINE
  5
D9C
  8
0
 62
     0
 10
324.87312021947679
 20
42.164741420083963
 30
0.0
 11
325.76235557571539
 21
42.506086892025877
 31
0.0
  0
LINE
  5
D9D
  8
0
 62
     0
 10
292.86064739488768
 20
29.876304430175612
 30
0.0
 11
293.74988275112628
 21
30.217649902117522
 31
0.0
  0
LINE
  5
D9E
  8
0
 62
     0
 10
282.1898231200247
 20
25.780158766872841
 30
0.0
 11
283.0790584762633
 21
26.12150423881474
 31
0.0
  0
LINE
  5
D9F
  8
0
 62
     0
 10
338.63402477743358
 20
55.470308672527679
 30
0.0
 11
339.5232601336723
 21
55.811654144469578
 31
0.0
  0
LINE
  5
DA0
  8
0
 62
     0
 10
327.9632005025706
 20
51.374163009224887
 30
0.0
 11
328.8524358588092
 21
51.715508481166793
 31
0.0
  0
LINE
  5
DA1
  8
0
 62
     0
 10
295.95072767798149
 20
39.085726019316517
 30
0.0
 11
296.83996303421998
 21
39.427071491258417
 31
0.0
  0
LINE
  5
DA2
  8
0
 62
     0
 10
285.27990340311851
 20
34.989580356013732
 30
0.0
 11
286.16913875935711
 21
35.330925827955632
 31
0.0
  0
LINE
  5
DA3
  8
0
 62
     0
 10
331.05328078566453
 20
60.583584598365782
 30
0.0
 11
331.94251614190318
 21
60.924930070307681
 31
0.0
  0
LINE
  5
DA4
  8
0
 62
     0
 10
299.04080796107542
 20
48.295147608457462
 30
0.0
 11
299.93004331731402
 21
48.63649308039939
 31
0.0
  0
LINE
  5
DA5
  8
0
 62
     0
 10
288.36998368621238
 20
44.19900194515467
 30
0.0
 11
289.25921904245092
 21
44.540347417096591
 31
0.0
  0
LINE
  5
DA6
  8
0
 62
     0
 10
291.46006396930619
 20
53.40842353429553
 30
0.0
 11
292.34929932554479
 21
53.749769006237422
 31
0.0
  0
LINE
  5
DA7
  8
0
 62
     0
 10
280.7892396944431
 20
49.312277870992737
 30
0.0
 11
281.67847505068181
 21
49.65362334293463
 31
0.0
  0
LINE
  5
DA8
  8
0
 62
     0
 10
283.87931997753708
 20
58.521699460133682
 30
0.0
 11
284.76855533377568
 21
58.863044932075603
 31
0.0
  0
LINE
  5
DA9
  8
0
 62
     0
 10
330.3364266878209
 20
26.087023425050671
 30
0.0
 11
331.4659228528642
 21
25.911845192520239
 31
0.0
  0
LINE
  5
DAA
  8
0
 62
     0
 10
289.67456474626209
 20
32.393439796146311
 30
0.0
 11
290.80406091130538
 21
32.21826156361589
 31
0.0
  0
LINE
  5
DAB
  8
0
 62
     0
 10
342.20665697851757
 20
38.458279318080557
 30
0.0
 11
343.18947791058508
 21
38.305849554171687
 31
0.0
  0
LINE
  5
DAC
  8
0
 62
     0
 10
328.65270299799801
 20
40.560418108445752
 30
0.0
 11
329.7821991630413
 21
40.385239875915317
 31
0.0
  0
LINE
  5
DAD
  8
0
 62
     0
 10
287.99084105643931
 20
46.866834479541389
 30
0.0
 11
289.1203372214826
 21
46.691656247010961
 31
0.0
  0
LINE
  5
DAE
  8
0
 62
     0
 10
340.52293328869467
 20
52.931674001475663
 30
0.0
 11
341.65242945373802
 21
52.756495768945207
 31
0.0
  0
LINE
  5
DAF
  8
0
 62
     0
 10
326.96897930817511
 20
55.033812791840859
 30
0.0
 11
328.0984754732184
 21
54.858634559310417
 31
0.0
  0
LINE
  5
DB0
  8
0
 62
     0
 10
299.86107134713598
 20
59.238090372571278
 30
0.0
 11
300.18947791058508
 21
59.187156440153537
 31
0.0
  0
LINE
  5
DB1
  8
0
 62
     0
 10
286.30711736661652
 20
61.340229162936481
 30
0.0
 11
287.43661353165982
 21
61.165050930406039
 31
0.0
  0
LINE
  5
DB2
  8
0
 62
     0
 10
341.65211407927887
 20
52.757125279017238
 30
0.0
 11
341.51180221254401
 21
53.963241211485311
 31
0.0
  0
LINE
  5
DB3
  8
0
 62
     0
 10
328.09815995514668
 20
54.859238674131682
 30
0.0
 11
327.95784808841159
 21
56.065354606599747
 31
0.0
  0
LINE
  5
DB4
  8
0
 62
     0
 10
329.78190235596708
 20
40.385847484514791
 30
0.0
 11
329.64159048923221
 21
41.59196341698285
 31
0.0
  0
LINE
  5
DB5
  8
0
 62
     0
 10
331.46564475678741
 20
25.912456294897911
 30
0.0
 11
331.32533289005238
 21
27.118572227365991
 31
0.0
  0
LINE
  5
DB6
  8
0
 62
     0
 10
287.43629758275011
 20
61.165578859474962
 30
0.0
 11
287.339226248876
 21
62.000000673508382
 31
0.0
  0
LINE
  5
DB7
  8
0
 62
     0
 10
289.12003998357051
 20
46.692187669858058
 30
0.0
 11
288.97972811683547
 21
47.898303602326131
 31
0.0
  0
LINE
  5
DB8
  8
0
 62
     0
 10
290.80378238439079
 20
32.218796480241181
 30
0.0
 11
290.66347051765581
 21
33.424912412709261
 31
0.0
  0
LINE
  5
DB9
  8
0
 62
     0
 10
342.20625829178567
 20
38.459331024203991
 30
0.0
 11
343.1894779105852
 21
39.484057155611211
 31
0.0
  0
LINE
  5
DBA
  8
0
 62
     0
 10
330.33605158806961
 20
26.08802479522997
 30
0.0
 11
331.32523548004588
 21
27.11896698097781
 31
0.0
  0
LINE
  5
DBB
  8
0
 62
     0
 10
340.52251295089542
 20
52.932753649814352
 30
0.0
 11
341.51169684287169
 21
53.963695835562177
 31
0.0
  0
LINE
  5
DBC
  8
0
 62
     0
 10
328.65230624717918
 20
40.561447420840331
 30
0.0
 11
329.64149013915562
 21
41.592389606588142
 31
0.0
  0
LINE
  5
DBD
  8
0
 62
     0
 10
326.96856090628887
 20
55.03487004645072
 30
0.0
 11
327.9577447982652
 21
56.065812232198553
 31
0.0
  0
LINE
  5
DBE
  8
0
 62
     0
 10
289.67419545425008
 20
32.394373985139048
 30
0.0
 11
290.66337934622641
 21
33.42531617088688
 31
0.0
  0
LINE
  5
DBF
  8
0
 62
     0
 10
299.86065681707589
 20
59.239102839723429
 30
0.0
 11
300.18947791058508
 21
59.581805081047882
 31
0.0
  0
LINE
  5
DC0
  8
0
 62
     0
 10
287.99045011335983
 20
46.867796610749423
 30
0.0
 11
288.9796340053361
 21
47.898738796497263
 31
0.0
  0
LINE
  5
DC1
  8
0
 62
     0
 10
286.3067047724694
 20
61.341219236359798
 30
0.0
 11
286.93880227994282
 21
62.00000067350836
 31
0.0
  0
LINE
  5
DC2
  8
0
 62
     0
 10
335.13584316221772
 20
57.626082973067248
 30
0.0
 11
334.98900425925041
 21
58.422153690136611
 31
0.0
  0
LINE
  5
DC3
  8
0
 62
     0
 10
336.89790999782622
 20
48.073234368234843
 30
0.0
 11
336.75107109485901
 21
48.869305085304212
 31
0.0
  0
LINE
  5
DC4
  8
0
 62
     0
 10
338.65997683343488
 20
38.520385763402437
 30
0.0
 11
338.51313793046751
 21
39.316456480471828
 31
0.0
  0
LINE
  5
DC5
  8
0
 62
     0
 10
340.42204366904338
 20
28.967537158570039
 30
0.0
 11
340.27520476607611
 21
29.763607875639401
 31
0.0
  0
LINE
  5
DC6
  8
0
 62
     0
 10
326.02665124331122
 20
58.42309718688503
 30
0.0
 11
325.8798123403439
 21
59.2191679039544
 31
0.0
  0
LINE
  5
DC7
  8
0
 62
     0
 10
327.78871807891983
 20
48.870248582052618
 30
0.0
 11
327.64187917595251
 21
49.666319299122001
 31
0.0
  0
LINE
  5
DC8
  8
0
 62
     0
 10
329.55078491452838
 20
39.317399977220219
 30
0.0
 11
329.403946011561
 21
40.113470694289603
 31
0.0
  0
LINE
  5
DC9
  8
0
 62
     0
 10
331.31285175013687
 20
29.764551372387821
 30
0.0
 11
331.16601284716961
 21
30.560622089457201
 31
0.0
  0
LINE
  5
DCA
  8
0
 62
     0
 10
298.69907548659148
 20
60.814139828338391
 30
0.0
 11
298.55223658362399
 21
61.610210545407782
 31
0.0
  0
LINE
  5
DCB
  8
0
 62
     0
 10
289.58988356768492
 20
61.611154042156251
 30
0.0
 11
289.51815901916689
 21
62.000000673508367
 31
0.0
  0
LINE
  5
DCC
  8
0
 62
     0
 10
291.3519504032937
 20
52.058305437323853
 30
0.0
 11
291.20511150032632
 21
52.854376154393201
 31
0.0
  0
LINE
  5
DCD
  8
0
 62
     0
 10
293.11401723890219
 20
42.505456832491433
 30
0.0
 11
292.96717833593482
 21
43.301527549560781
 31
0.0
  0
LINE
  5
DCE
  8
0
 62
     0
 10
294.87608407451069
 20
32.952608227659027
 30
0.0
 11
294.72924517154331
 21
33.748678944728397
 31
0.0
  0
LINE
  5
DCF
  8
0
 62
     0
 10
296.63815091011929
 20
23.399759622826629
 30
0.0
 11
296.49131200715192
 21
24.195830339895991
 31
0.0
  0
LINE
  5
DD0
  8
0
 62
     0
 10
282.24275848438708
 20
52.85531965114167
 30
0.0
 11
282.09591958141971
 21
53.651390368211032
 31
0.0
  0
LINE
  5
DD1
  8
0
 62
     0
 10
284.00482531999558
 20
43.302471046309257
 30
0.0
 11
283.85798641702831
 21
44.098541763378613
 31
0.0
  0
LINE
  5
DD2
  8
0
 62
     0
 10
285.76689215560418
 20
33.749622441476852
 30
0.0
 11
285.62005325263681
 21
34.545693158546221
 31
0.0
  0
LINE
  5
DD3
  8
0
 62
     0
 10
287.52895899121279
 20
24.196773836644461
 30
0.0
 11
287.38212008824541
 21
24.99284455371383
 31
0.0
  0
LINE
  5
DD4
  8
0
 62
     0
 10
295.87800806262152
 20
23.468078585154551
 30
0.0
 11
296.63710842256739
 21
23.401665909180839
 31
0.0
  0
LINE
  5
DD5
  8
0
 62
     0
 10
286.7688037432705
 20
24.26503069683914
 30
0.0
 11
287.52790410321637
 21
24.198618020865421
 31
0.0
  0
LINE
  5
DD6
  8
0
 62
     0
 10
339.66188836059268
 20
29.036150170840621
 30
0.0
 11
340.42098872053862
 21
28.969737494866902
 31
0.0
  0
LINE
  5
DD7
  8
0
 62
     0
 10
330.5526840412416
 20
29.8331022825252
 30
0.0
 11
331.31178440118759
 21
29.766689606551491
 31
0.0
  0
LINE
  5
DD8
  8
0
 62
     0
 10
294.11586676383808
 20
33.020910729263548
 30
0.0
 11
294.87496712378407
 21
32.954498053289839
 31
0.0
  0
LINE
  5
DD9
  8
0
 62
     0
 10
285.00666244448718
 20
33.817862840948152
 30
0.0
 11
285.76576280443311
 21
33.751450164974429
 31
0.0
  0
LINE
  5
DDA
  8
0
 62
     0
 10
337.89974706180942
 20
38.588982314949618
 30
0.0
 11
338.6588474217553
 21
38.522569638975909
 31
0.0
  0
LINE
  5
DDB
  8
0
 62
     0
 10
328.7905427424584
 20
39.385934426634208
 30
0.0
 11
329.54964310240427
 21
39.319521750660492
 31
0.0
  0
LINE
  5
DDC
  8
0
 62
     0
 10
292.35372546505482
 20
42.573742873372531
 30
0.0
 11
293.1128258250007
 21
42.507330197398808
 31
0.0
  0
LINE
  5
DDD
  8
0
 62
     0
 10
283.2445211457038
 20
43.370694985057128
 30
0.0
 11
284.00362150564979
 21
43.304282309083391
 31
0.0
  0
LINE
  5
DDE
  8
0
 62
     0
 10
336.13760576302599
 20
48.141814459058622
 30
0.0
 11
336.89670612297198
 21
48.075401783084899
 31
0.0
  0
LINE
  5
DDF
  8
0
 62
     0
 10
327.02840144367508
 20
48.938766570743191
 30
0.0
 11
327.78750180362101
 21
48.872353894769489
 31
0.0
  0
LINE
  5
DE0
  8
0
 62
     0
 10
299.70078848562241
 20
51.329622905796981
 30
0.0
 11
300.1894779105852
 21
51.286868121127711
 31
0.0
  0
LINE
  5
DE1
  8
0
 62
     0
 10
290.59158416627139
 20
52.126575017481557
 30
0.0
 11
291.35068452621738
 21
52.060162341507841
 31
0.0
  0
LINE
  5
DE2
  8
0
 62
     0
 10
281.48237984692048
 20
52.923527129166139
 30
0.0
 11
282.24148020686641
 21
52.85711445319243
 31
0.0
  0
LINE
  5
DE3
  8
0
 62
     0
 10
334.37546446424273
 20
57.69464660316762
 30
0.0
 11
335.1345648241886
 21
57.628233927193911
 31
0.0
  0
LINE
  5
DE4
  8
0
 62
     0
 10
325.2662601448917
 20
58.491598714852209
 30
0.0
 11
326.02536050483758
 21
58.4251860388785
 31
0.0
  0
LINE
  5
DE5
  8
0
 62
     0
 10
297.93864718683898
 20
60.882455049905971
 30
0.0
 11
298.69774754678491
 21
60.816042373932248
 31
0.0
  0
LINE
  5
DE6
  8
0
 62
     0
 10
288.82944286748801
 20
61.679407161590568
 30
0.0
 11
289.588543227434
 21
61.612994485616852
 31
0.0
  0
LINE
  5
DE7
  8
0
 62
     0
 10
339.66245749071931
 20
29.036273866564901
 30
0.0
 11
340.27471268894573
 21
29.76593119863572
 31
0.0
  0
LINE
  5
DE8
  8
0
 62
     0
 10
337.9002864196363
 20
38.589116128359983
 30
0.0
 11
338.51254161786272
 21
39.318773460430798
 31
0.0
  0
LINE
  5
DE9
  8
0
 62
     0
 10
330.55322404091919
 20
29.833228143510048
 30
0.0
 11
331.16547923914561
 21
30.562885475580892
 31
0.0
  0
LINE
  5
DEA
  8
0
 62
     0
 10
336.13811534855319
 20
48.141958390155033
 30
0.0
 11
336.75037054677972
 21
48.87161572222584
 31
0.0
  0
LINE
  5
DEB
  8
0
 62
     0
 10
328.79105296983602
 20
39.386070405305119
 30
0.0
 11
329.40330816806261
 21
40.115727737375948
 31
0.0
  0
LINE
  5
DEC
  8
0
 62
     0
 10
334.37594427747018
 20
57.694800651950153
 30
0.0
 11
334.9881994756966
 21
58.424457984020961
 31
0.0
  0
LINE
  5
DED
  8
0
 62
     0
 10
327.02888189875318
 20
48.938912667100219
 30
0.0
 11
327.64113709697949
 21
49.668569999171069
 31
0.0
  0
LINE
  5
DEE
  8
0
 62
     0
 10
325.26671082767001
 20
58.491754928895311
 30
0.0
 11
325.87896602589637
 21
59.22141226096614
 31
0.0
  0
LINE
  5
DEF
  8
0
 62
     0
 10
295.87846131280111
 20
23.468202989495591
 30
0.0
 11
296.49071651102781
 21
24.19786032156642
 31
0.0
  0
LINE
  5
DF0
  8
0
 62
     0
 10
294.11629024171827
 20
33.021045251290673
 30
0.0
 11
294.7285454399447
 21
33.750702583361502
 31
0.0
  0
LINE
  5
DF1
  8
0
 62
     0
 10
286.76922786300122
 20
24.265157266440749
 30
0.0
 11
287.38148306122758
 21
24.994814598511571
 31
0.0
  0
LINE
  5
DF2
  8
0
 62
     0
 10
299.70118154935238
 20
51.329775497935678
 30
0.0
 11
300.18947791058508
 21
51.911704440685348
 31
0.0
  0
LINE
  5
DF3
  8
0
 62
     0
 10
292.35411917063527
 20
42.573887513085751
 30
0.0
 11
292.96637436886169
 21
43.303544845156573
 31
0.0
  0
LINE
  5
DF4
  8
0
 62
     0
 10
285.00705679191827
 20
33.817999528235838
 30
0.0
 11
285.61931199014458
 21
34.547656860306667
 31
0.0
  0
LINE
  5
DF5
  8
0
 62
     0
 10
297.93901047826921
 20
60.882617759730742
 30
0.0
 11
298.55126567649569
 21
61.612275091801557
 31
0.0
  0
LINE
  5
DF6
  8
0
 62
     0
 10
290.59194809955221
 20
52.126729774880822
 30
0.0
 11
291.20420329777858
 21
52.85638710695163
 31
0.0
  0
LINE
  5
DF7
  8
0
 62
     0
 10
283.2448857208351
 20
43.370841790030902
 30
0.0
 11
283.85714091906152
 21
44.100499122101724
 31
0.0
  0
LINE
  5
DF8
  8
0
 62
     0
 10
288.82977702846921
 20
61.679572036675921
 30
0.0
 11
289.09864857945388
 21
62.00000067350836
 31
0.0
  0
LINE
  5
DF9
  8
0
 62
     0
 10
281.48271464975198
 20
52.923684051826001
 30
0.0
 11
282.09496984797852
 21
53.65334138389683
 31
0.0
  0
ENDBLK
  5
DFB
  8
0
  0
ENDSEC
  0
SECTION
  2
ENTITIES
  0
POLYLINE
  5
F93
  8
0
 66
     1
 10
0.0
 20
0.0
 30
0.0
 70
     1
  0
VERTEX
  5
10D5
  8
0
 10
47.052569279250768
 20
-13.594144349043541
 30
0.0
  0
VERTEX
  5
10D6
  8
0
 10
271.05256927925058
 20
-13.594144349043599
 30
0.0
  0
VERTEX
  5
10D7
  8
0
 10
622.05256927925052
 20
16.405855650956401
 30
0.0
  0
VERTEX
  5
10D8
  8
0
 10
622.05256927925052
 20
53.405855650956397
 30
0.0
  0
VERTEX
  5
10D9
  8
0
 10
522.05256927925052
 20
53.405855650956397
 30
0.0
  0
VERTEX
  5
10DA
  8
0
 10
522.05256927925052
 20
56.405855650956411
 30
0.0
  0
VERTEX
  5
10DB
  8
0
 10
256.05256927925069
 20
101.4058556509564
 30
0.0
  0
VERTEX
  5
10DC
  8
0
 10
256.05256927925069
 20
104.4058556509564
 30
0.0
  0
VERTEX
  5
10DD
  8
0
 10
97.050213836589521
 20
104.4118026511095
 30
0.0
  0
VERTEX
  5
10DE
  8
0
 10
96.289990738140659
 20
104.4405597445601
 30
0.0
  0
VERTEX
  5
10DF
  8
0
 10
76.143243714419057
 20
104.9767072856137
 30
0.0
  0
VERTEX
  5
10E0
  8
0
 10
73.915521440487552
 20
105.1042858927145
 30
0.0
  0
VERTEX
  5
10E1
  8
0
 10
66.649236289871965
 20
105.68292356913059
 30
0.0
  0
VERTEX
  5
10E2
  8
0
 10
66.649236289871965
 20
105.68292356913059
 30
0.0
  0
VERTEX
  5
10E3
  8
0
 10
66.649236289871965
 20
105.68292356913059
 30
0.0
  0
VERTEX
  5
10E4
  8
0
 10
62.98952514008171
 20
106.072710053281
 30
0.0
  0
VERTEX
  5
10E5
  8
0
 10
60.221087616962691
 20
106.5169515064473
 30
0.0
  0
VERTEX
  5
10E6
  8
0
 10
58.795818221568851
 20
106.80827526308011
 30
0.0
  0
VERTEX
  5
10E7
  8
0
 10
57.577346526245186
 20
107.0889280604918
 30
0.0
  0
VERTEX
  5
10E8
  8
0
 10
55.972524725065647
 20
107.49043999628461
 30
0.0
  0
VERTEX
  5
10E9
  8
0
 10
55.042523469583841
 20
107.77793651983259
 30
0.0
  0
VERTEX
  5
10EA
  8
0
 10
54.193378865736932
 20
108.1445191476367
 30
0.0
  0
VERTEX
  5
10EB
  8
0
 10
53.460244546397831
 20
108.51402155941111
 30
0.0
  0
VERTEX
  5
10EC
  8
0
 10
52.634994236142518
 20
109.14025223310369
 30
0.0
  0
VERTEX
  5
10ED
  8
0
 10
52.319147532568131
 20
109.4493008910303
 30
0.0
  0
VERTEX
  5
10EE
  8
0
 10
52.109704766732278
 20
109.6542357691264
 30
0.0
  0
VERTEX
  5
10EF
  8
0
 10
51.935285329140761
 20
109.8613648719906
 30
0.0
  0
VERTEX
  5
10F0
  8
0
 10
51.83812906064702
 20
109.98083564558139
 30
0.0
  0
VERTEX
  5
10F1
  8
0
 10
51.704456323560237
 20
110.16729156693999
 30
0.0
  0
VERTEX
  5
10F2
  8
0
 10
51.623040839400041
 20
110.2964412264981
 30
0.0
  0
VERTEX
  5
10F3
  8
0
 10
51.400906713009853
 20
110.6994892647551
 30
0.0
  0
VERTEX
  5
10F4
  8
0
 10
51.332535224457729
 20
110.8486737484597
 30
0.0
  0
VERTEX
  5
10F5
  8
0
 10
51.312792581109029
 20
110.89760619458291
 30
0.0
  0
VERTEX
  5
10F6
  8
0
 10
51.281464157314851
 20
110.9941458651208
 30
0.0
  0
VERTEX
  5
10F7
  8
0
 10
51.250804062098197
 20
111.11702189832261
 30
0.0
  0
VERTEX
  5
10F8
  8
0
 10
51.224648901673319
 20
111.4300994268409
 30
0.0
  0
VERTEX
  5
10F9
  8
0
 10
51.212158861997132
 20
111.5796053250797
 30
0.0
  0
VERTEX
  5
10FA
  8
0
 10
51.194939904391461
 20
112.045579200457
 30
0.0
  0
VERTEX
  5
10FB
  8
0
 10
51.210101704780932
 20
112.2070815934235
 30
0.0
  0
VERTEX
  5
10FC
  8
0
 10
51.26853907576043
 20
112.4018683387965
 30
0.0
  0
VERTEX
  5
10FD
  8
0
 10
51.31497422333932
 20
112.5211946988112
 30
0.0
  0
VERTEX
  5
10FE
  8
0
 10
51.21002982171396
 20
112.55304702760679
 30
0.0
  0
VERTEX
  5
10FF
  8
0
 10
5.05256927925066
 20
69.405855650956283
 30
0.0
  0
VERTEX
  5
1100
  8
0
 10
-56.947430720749253
 20
69.405855650956397
 30
0.0
  0
VERTEX
  5
1101
  8
0
 10
-60.947430720749253
 20
69.405855650956397
 30
0.0
  0
VERTEX
  5
1102
  8
0
 10
-75.967977204023683
 20
69.405855650956397
 30
0.0
  0
VERTEX
  5
1103
  8
0
 10
-75.181847773173558
 20
54.426736283878633
 30
0.0
  0
VERTEX
  5
1104
  8
0
 10
-74.127989871062269
 20
53.426736283878633
 30
0.0
  0
VERTEX
  5
1105
  8
0
 10
-75.076884402285685
 20
52.426736283878611
 30
0.0
  0
VERTEX
  5
1106
  8
0
 10
-73.77730346114771
 20
27.664175208620438
 30
0.0
 42
0.1263514007439109
  0
SEQEND
  5
1107
  8
0
  0
ENDSEC
  0
EOF
