  0
SECTION
  2
HEADER
  9
$LIMMIN
 10
0.000000
 20
0.000000
  9
$LIMMAX
 10
221.500000
 20
195.005000
  9
$EXTMIN
 10
0.000000
 20
0.000000
  9
$EXTMAX
 10
221.500000
 20
195.005000
  9
$ANGBASE
 50
0.000000
  9
$ANGDIR
 70
0
  9
$INSUNITS
 70
0
  9
$DIMALT
 70
0
  9
$DIMLUNIT
 70
2
  9
$DIMASZ
 40
0.180000
  9
$DIMTXT
 40
0.180000
  9
$DIMRND
 40
0.010000
  9
$DIMEXE
 40
0.180000
  9
$DIMEXO
 40
0.062500
  9
$DIMAUNIT
 70
0
  9
$DIMADEC
 70
2
  9
$GRIDUNIT
 10
0.062500
 20
0.062500
  9
$PLIMMIN
 10
0.000000
 20
0.000000
  9
$PLIMMAX
 10
297.000000
 20
210.000000
  9
$PSVPSCALE
 40
1.000000
  0
ENDSEC
  0
SECTION
  2
TABLES
  0
TABLE
  2
LTYPE
 70
     1
  0
LTYPE
  2
CONTINUOUS
 70
    64
  3
Ausgez
 72
    65
 73
  0
 40
0.000000
  0
ENDTAB
  0
TABLE
  2
LAYER
 70
     1
  0
LAYER
  2
default
 70
    64
 62
0
  6
CONTINUOUS
  0
LAYER
  2
0
 70
    64
 62
7
  6
CONTINUOUS
  0
LAYER
  2
LAYER01
 70
    64
 62
7
  6
CONTINUOUS
  0
LAYER
  2
LAYER02
 70
    64
 62
7
  6
CONTINUOUS
  0
LAYER
  2
LAYER03
 70
    64
 62
7
  6
CONTINUOUS
  0
LAYER
  2
LAYER04
 70
    64
 62
7
  6
CONTINUOUS
  0
LAYER
  2
LAYER05
 70
    64
 62
7
  6
CONTINUOUS
  0
LAYER
  2
LAYER06
 70
    64
 62
7
  6
CONTINUOUS
  0
LAYER
  2
LAYER07
 70
    64
 62
7
  6
CONTINUOUS
  0
LAYER
  2
LAYER08
 70
    64
 62
7
  6
CONTINUOUS
  0
LAYER
  2
LAYER09
 70
    64
 62
7
  6
CONTINUOUS
  0
LAYER
  2
LAYER10
 70
    64
 62
7
  6
CONTINUOUS
  0
LAYER
  2
7
 70
    64
 62
0
  6
CONTINUOUS
  0
ENDTAB
  0
ENDSEC
  0
SECTION
  2
BLOCKS
  0
ENDSEC
  0
SECTION
  2
ENTITIES
  0
LINE
  8
7
  6
CONTINUOUS
 10
61.500000
 20
183.000000
 11
221.500000
 21
183.000000
 39
0
 62
0
  0
LINE
  8
7
  6
CONTINUOUS
 10
221.500000
 20
183.192000
 11
220.357000
 21
183.377000
 39
0
 62
0
  0
LINE
  8
7
  6
CONTINUOUS
 10
220.357000
 20
183.377000
 11
219.214000
 21
183.561000
 39
0
 62
0
  0
LINE
  8
7
  6
CONTINUOUS
 10
219.214000
 20
183.561000
 11
218.071000
 21
183.746000
 39
0
 62
0
  0
LINE
  8
7
  6
CONTINUOUS
 10
218.071000
 20
183.746000
 11
216.928000
 21
183.931000
 39
0
 62
0
  0
LINE
  8
7
  6
CONTINUOUS
 10
216.928000
 20
183.931000
 11
215.786000
 21
184.117000
 39
0
 62
0
  0
LINE
  8
7
  6
CONTINUOUS
 10
215.786000
 20
184.117000
 11
214.643000
 21
184.303000
 39
0
 62
0
  0
LINE
  8
7
  6
CONTINUOUS
 10
214.643000
 20
184.303000
 11
213.500000
 21
184.490000
 39
0
 62
0
  0
LINE
  8
7
  6
CONTINUOUS
 10
213.500000
 20
184.490000
 11
212.357000
 21
184.677000
 39
0
 62
0
  0
LINE
  8
7
  6
CONTINUOUS
 10
212.357000
 20
184.677000
 11
211.214000
 21
184.865000
 39
0
 62
0
  0
LINE
  8
7
  6
CONTINUOUS
 10
211.214000
 20
184.865000
 11
210.072000
 21
185.052000
 39
0
 62
0
  0
LINE
  8
7
  6
CONTINUOUS
 10
210.072000
 20
185.052000
 11
208.929000
 21
185.239000
 39
0
 62
0
  0
LINE
  8
7
  6
CONTINUOUS
 10
208.929000
 20
185.239000
 11
207.787000
 21
185.426000
 39
0
 62
0
  0
LINE
  8
7
  6
CONTINUOUS
 10
207.787000
 20
185.426000
 11
206.644000
 21
185.611000
 39
0
 62
0
  0
LINE
  8
7
  6
CONTINUOUS
 10
206.644000
 20
185.611000
 11
205.500000
 21
185.794000
 39
0
 62
0
  0
LINE
  8
7
  6
CONTINUOUS
 10
205.500000
 20
185.794000
 11
203.217000
 21
186.154000
 39
0
 62
0
  0
LINE
  8
7
  6
CONTINUOUS
 10
203.217000
 20
186.154000
 11
200.933000
 21
186.507000
 39
0
 62
0
  0
LINE
  8
7
  6
CONTINUOUS
 10
200.933000
 20
186.507000
 11
198.648000
 21
186.852000
 39
0
 62
0
  0
LINE
  8
7
  6
CONTINUOUS
 10
198.648000
 20
186.852000
 11
196.363000
 21
187.192000
 39
0
 62
0
  0
LINE
  8
7
  6
CONTINUOUS
 10
196.363000
 20
187.192000
 11
194.076000
 21
187.526000
 39
0
 62
0
  0
LINE
  8
7
  6
CONTINUOUS
 10
194.076000
 20
187.526000
 11
191.789000
 21
187.854000
 39
0
 62
0
  0
LINE
  8
7
  6
CONTINUOUS
 10
191.789000
 20
187.854000
 11
189.500000
 21
188.179000
 39
0
 62
0
  0
LINE
  8
7
  6
CONTINUOUS
 10
189.500000
 20
188.179000
 11
187.216000
 21
188.499000
 39
0
 62
0
  0
LINE
  8
7
  6
CONTINUOUS
 10
187.216000
 20
188.499000
 11
184.932000
 21
188.815000
 39
0
 62
0
  0
LINE
  8
7
  6
CONTINUOUS
 10
184.932000
 20
188.815000
 11
182.647000
 21
189.125000
 39
0
 62
0
  0
LINE
  8
7
  6
CONTINUOUS
 10
182.647000
 20
189.125000
 11
180.362000
 21
189.429000
 39
0
 62
0
  0
LINE
  8
7
  6
CONTINUOUS
 10
180.362000
 20
189.429000
 11
178.076000
 21
189.727000
 39
0
 62
0
  0
LINE
  8
7
  6
CONTINUOUS
 10
178.076000
 20
189.727000
 11
175.789000
 21
190.017000
 39
0
 62
0
  0
LINE
  8
7
  6
CONTINUOUS
 10
175.789000
 20
190.017000
 11
173.500000
 21
190.299000
 39
0
 62
0
  0
LINE
  8
7
  6
CONTINUOUS
 10
173.500000
 20
190.299000
 11
171.216000
 21
190.571000
 39
0
 62
0
  0
LINE
  8
7
  6
CONTINUOUS
 10
171.216000
 20
190.571000
 11
168.933000
 21
190.834000
 39
0
 62
0
  0
LINE
  8
7
  6
CONTINUOUS
 10
168.933000
 20
190.834000
 11
166.648000
 21
191.089000
 39
0
 62
0
  0
LINE
  8
7
  6
CONTINUOUS
 10
166.648000
 20
191.089000
 11
164.363000
 21
191.335000
 39
0
 62
0
  0
LINE
  8
7
  6
CONTINUOUS
 10
164.363000
 20
191.335000
 11
162.076000
 21
191.573000
 39
0
 62
0
  0
LINE
  8
7
  6
CONTINUOUS
 10
162.076000
 20
191.573000
 11
159.789000
 21
191.803000
 39
0
 62
0
  0
LINE
  8
7
  6
CONTINUOUS
 10
159.789000
 20
191.803000
 11
157.500000
 21
192.025000
 39
0
 62
0
  0
LINE
  8
7
  6
CONTINUOUS
 10
157.500000
 20
192.025000
 11
155.215000
 21
192.240000
 39
0
 62
0
  0
LINE
  8
7
  6
CONTINUOUS
 10
155.215000
 20
192.240000
 11
152.930000
 21
192.447000
 39
0
 62
0
  0
LINE
  8
7
  6
CONTINUOUS
 10
152.930000
 20
192.447000
 11
150.645000
 21
192.650000
 39
0
 62
0
  0
LINE
  8
7
  6
CONTINUOUS
 10
150.645000
 20
192.650000
 11
148.360000
 21
192.847000
 39
0
 62
0
  0
LINE
  8
7
  6
CONTINUOUS
 10
148.360000
 20
192.847000
 11
146.074000
 21
193.042000
 39
0
 62
0
  0
LINE
  8
7
  6
CONTINUOUS
 10
146.074000
 20
193.042000
 11
143.787000
 21
193.234000
 39
0
 62
0
  0
LINE
  8
7
  6
CONTINUOUS
 10
143.787000
 20
193.234000
 11
141.500000
 21
193.425000
 39
0
 62
0
  0
LINE
  8
7
  6
CONTINUOUS
 10
141.500000
 20
193.425000
 11
139.215000
 21
193.615000
 39
0
 62
0
  0
LINE
  8
7
  6
CONTINUOUS
 10
139.215000
 20
193.615000
 11
136.931000
 21
193.802000
 39
0
 62
0
  0
LINE
  8
7
  6
CONTINUOUS
 10
136.931000
 20
193.802000
 11
134.646000
 21
193.984000
 39
0
 62
0
  0
LINE
  8
7
  6
CONTINUOUS
 10
134.646000
 20
193.984000
 11
132.361000
 21
194.157000
 39
0
 62
0
  0
LINE
  8
7
  6
CONTINUOUS
 10
132.361000
 20
194.157000
 11
130.075000
 21
194.320000
 39
0
 62
0
  0
LINE
  8
7
  6
CONTINUOUS
 10
130.075000
 20
194.320000
 11
127.789000
 21
194.470000
 39
0
 62
0
  0
LINE
  8
7
  6
CONTINUOUS
 10
127.789000
 20
194.470000
 11
125.500000
 21
194.604000
 39
0
 62
0
  0
LINE
  8
7
  6
CONTINUOUS
 10
125.500000
 20
194.604000
 11
123.216000
 21
194.719000
 39
0
 62
0
  0
LINE
  8
7
  6
CONTINUOUS
 10
123.216000
 20
194.719000
 11
120.932000
 21
194.816000
 39
0
 62
0
  0
LINE
  8
7
  6
CONTINUOUS
 10
120.932000
 20
194.816000
 11
118.647000
 21
194.893000
 39
0
 62
0
  0
LINE
  8
7
  6
CONTINUOUS
 10
118.647000
 20
194.893000
 11
116.361000
 21
194.951000
 39
0
 62
0
  0
LINE
  8
7
  6
CONTINUOUS
 10
116.361000
 20
194.951000
 11
114.075000
 21
194.988000
 39
0
 62
0
  0
LINE
  8
7
  6
CONTINUOUS
 10
114.075000
 20
194.988000
 11
111.788000
 21
195.005000
 39
0
 62
0
  0
LINE
  8
7
  6
CONTINUOUS
 10
111.788000
 20
195.005000
 11
109.500000
 21
195.000000
 39
0
 62
0
  0
LINE
  8
7
  6
CONTINUOUS
 10
109.500000
 20
195.000000
 11
107.210000
 21
194.973000
 39
0
 62
0
  0
LINE
  8
7
  6
CONTINUOUS
 10
107.210000
 20
194.973000
 11
104.921000
 21
194.923000
 39
0
 62
0
  0
LINE
  8
7
  6
CONTINUOUS
 10
104.921000
 20
194.923000
 11
102.633000
 21
194.847000
 39
0
 62
0
  0
LINE
  8
7
  6
CONTINUOUS
 10
102.633000
 20
194.847000
 11
100.347000
 21
194.743000
 39
0
 62
0
  0
LINE
  8
7
  6
CONTINUOUS
 10
100.347000
 20
194.743000
 11
98.062000
 21
194.610000
 39
0
 62
0
  0
LINE
  8
7
  6
CONTINUOUS
 10
98.062000
 20
194.610000
 11
95.780000
 21
194.444000
 39
0
 62
0
  0
LINE
  8
7
  6
CONTINUOUS
 10
95.780000
 20
194.444000
 11
93.500000
 21
194.245000
 39
0
 62
0
  0
LINE
  8
7
  6
CONTINUOUS
 10
93.500000
 20
194.245000
 11
92.354000
 21
194.131000
 39
0
 62
0
  0
LINE
  8
7
  6
CONTINUOUS
 10
92.354000
 20
194.131000
 11
91.210000
 21
194.009000
 39
0
 62
0
  0
LINE
  8
7
  6
CONTINUOUS
 10
91.210000
 20
194.009000
 11
90.066000
 21
193.878000
 39
0
 62
0
  0
LINE
  8
7
  6
CONTINUOUS
 10
90.066000
 20
193.878000
 11
88.924000
 21
193.738000
 39
0
 62
0
  0
LINE
  8
7
  6
CONTINUOUS
 10
88.924000
 20
193.738000
 11
87.782000
 21
193.590000
 39
0
 62
0
  0
LINE
  8
7
  6
CONTINUOUS
 10
87.782000
 20
193.590000
 11
86.641000
 21
193.434000
 39
0
 62
0
  0
LINE
  8
7
  6
CONTINUOUS
 10
86.641000
 20
193.434000
 11
85.500000
 21
193.270000
 39
0
 62
0
  0
LINE
  8
7
  6
CONTINUOUS
 10
85.500000
 20
193.270000
 11
84.347000
 21
193.095000
 39
0
 62
0
  0
LINE
  8
7
  6
CONTINUOUS
 10
84.347000
 20
193.095000
 11
83.197000
 21
192.910000
 39
0
 62
0
  0
LINE
  8
7
  6
CONTINUOUS
 10
83.197000
 20
192.910000
 11
82.049000
 21
192.711000
 39
0
 62
0
  0
LINE
  8
7
  6
CONTINUOUS
 10
82.049000
 20
192.711000
 11
80.905000
 21
192.496000
 39
0
 62
0
  0
LINE
  8
7
  6
CONTINUOUS
 10
80.905000
 20
192.496000
 11
79.764000
 21
192.261000
 39
0
 62
0
  0
LINE
  8
7
  6
CONTINUOUS
 10
79.764000
 20
192.261000
 11
78.629000
 21
192.003000
 39
0
 62
0
  0
LINE
  8
7
  6
CONTINUOUS
 10
78.629000
 20
192.003000
 11
77.500000
 21
191.720000
 39
0
 62
0
  0
LINE
  8
7
  6
CONTINUOUS
 10
77.500000
 20
191.720000
 11
76.925000
 21
191.564000
 39
0
 62
0
  0
LINE
  8
7
  6
CONTINUOUS
 10
76.925000
 20
191.564000
 11
76.351000
 21
191.403000
 39
0
 62
0
  0
LINE
  8
7
  6
CONTINUOUS
 10
76.351000
 20
191.403000
 11
75.779000
 21
191.236000
 39
0
 62
0
  0
LINE
  8
7
  6
CONTINUOUS
 10
75.779000
 20
191.236000
 11
75.208000
 21
191.065000
 39
0
 62
0
  0
LINE
  8
7
  6
CONTINUOUS
 10
75.208000
 20
191.065000
 11
74.638000
 21
190.891000
 39
0
 62
0
  0
LINE
  8
7
  6
CONTINUOUS
 10
74.638000
 20
190.891000
 11
74.069000
 21
190.715000
 39
0
 62
0
  0
LINE
  8
7
  6
CONTINUOUS
 10
74.069000
 20
190.715000
 11
73.500000
 21
190.538000
 39
0
 62
0
  0
LINE
  8
7
  6
CONTINUOUS
 10
73.500000
 20
190.538000
 11
72.926000
 21
190.360000
 39
0
 62
0
  0
LINE
  8
7
  6
CONTINUOUS
 10
72.926000
 20
190.360000
 11
72.353000
 21
190.180000
 39
0
 62
0
  0
LINE
  8
7
  6
CONTINUOUS
 10
72.353000
 20
190.180000
 11
71.781000
 21
189.998000
 39
0
 62
0
  0
LINE
  8
7
  6
CONTINUOUS
 10
71.781000
 20
189.998000
 11
71.209000
 21
189.812000
 39
0
 62
0
  0
LINE
  8
7
  6
CONTINUOUS
 10
71.209000
 20
189.812000
 11
70.638000
 21
189.621000
 39
0
 62
0
  0
LINE
  8
7
  6
CONTINUOUS
 10
70.638000
 20
189.621000
 11
70.069000
 21
189.423000
 39
0
 62
0
  0
LINE
  8
7
  6
CONTINUOUS
 10
70.069000
 20
189.423000
 11
69.500000
 21
189.217000
 39
0
 62
0
  0
LINE
  8
7
  6
CONTINUOUS
 10
69.500000
 20
189.217000
 11
68.911000
 21
188.993000
 39
0
 62
0
  0
LINE
  8
7
  6
CONTINUOUS
 10
68.911000
 20
188.993000
 11
68.325000
 21
188.758000
 39
0
 62
0
  0
LINE
  8
7
  6
CONTINUOUS
 10
68.325000
 20
188.758000
 11
67.744000
 21
188.514000
 39
0
 62
0
  0
LINE
  8
7
  6
CONTINUOUS
 10
67.744000
 20
188.514000
 11
67.169000
 21
188.260000
 39
0
 62
0
  0
LINE
  8
7
  6
CONTINUOUS
 10
67.169000
 20
188.260000
 11
66.602000
 21
187.996000
 39
0
 62
0
  0
LINE
  8
7
  6
CONTINUOUS
 10
66.602000
 20
187.996000
 11
66.045000
 21
187.723000
 39
0
 62
0
  0
LINE
  8
7
  6
CONTINUOUS
 10
66.045000
 20
187.723000
 11
65.500000
 21
187.440000
 39
0
 62
0
  0
LINE
  8
7
  6
CONTINUOUS
 10
65.500000
 20
187.440000
 11
65.209000
 21
187.283000
 39
0
 62
0
  0
LINE
  8
7
  6
CONTINUOUS
 10
65.209000
 20
187.283000
 11
64.921000
 21
187.120000
 39
0
 62
0
  0
LINE
  8
7
  6
CONTINUOUS
 10
64.921000
 20
187.120000
 11
64.636000
 21
186.950000
 39
0
 62
0
  0
LINE
  8
7
  6
CONTINUOUS
 10
64.636000
 20
186.950000
 11
64.352000
 21
186.771000
 39
0
 62
0
  0
LINE
  8
7
  6
CONTINUOUS
 10
64.352000
 20
186.771000
 11
64.068000
 21
186.581000
 39
0
 62
0
  0
LINE
  8
7
  6
CONTINUOUS
 10
64.068000
 20
186.581000
 11
63.785000
 21
186.377000
 39
0
 62
0
  0
LINE
  8
7
  6
CONTINUOUS
 10
63.785000
 20
186.377000
 11
63.500000
 21
186.156000
 39
0
 62
0
  0
LINE
  8
7
  6
CONTINUOUS
 10
63.500000
 20
186.156000
 11
63.053000
 21
185.775000
 39
0
 62
0
  0
LINE
  8
7
  6
CONTINUOUS
 10
63.053000
 20
185.775000
 11
62.623000
 21
185.357000
 39
0
 62
0
  0
LINE
  8
7
  6
CONTINUOUS
 10
62.623000
 20
185.357000
 11
62.232000
 21
184.911000
 39
0
 62
0
  0
LINE
  8
7
  6
CONTINUOUS
 10
62.232000
 20
184.911000
 11
61.903000
 21
184.444000
 39
0
 62
0
  0
LINE
  8
7
  6
CONTINUOUS
 10
61.903000
 20
184.444000
 11
61.656000
 21
183.964000
 39
0
 62
0
  0
LINE
  8
7
  6
CONTINUOUS
 10
61.656000
 20
183.964000
 11
61.515000
 21
183.480000
 39
0
 62
0
  0
LINE
  8
7
  6
CONTINUOUS
 10
61.515000
 20
183.480000
 11
61.500000
 21
183.000000
 39
0
 62
0
  0
LINE
  8
7
  6
CONTINUOUS
 10
61.500000
 20
183.000000
 11
61.596000
 21
182.606000
 39
0
 62
0
  0
LINE
  8
7
  6
CONTINUOUS
 10
61.596000
 20
182.606000
 11
61.782000
 21
182.223000
 39
0
 62
0
  0
LINE
  8
7
  6
CONTINUOUS
 10
61.782000
 20
182.223000
 11
62.040000
 21
181.855000
 39
0
 62
0
  0
LINE
  8
7
  6
CONTINUOUS
 10
62.040000
 20
181.855000
 11
62.357000
 21
181.505000
 39
0
 62
0
  0
LINE
  8
7
  6
CONTINUOUS
 10
62.357000
 20
181.505000
 11
62.716000
 21
181.175000
 39
0
 62
0
  0
LINE
  8
7
  6
CONTINUOUS
 10
62.716000
 20
181.175000
 11
63.102000
 21
180.868000
 39
0
 62
0
  0
LINE
  8
7
  6
CONTINUOUS
 10
63.102000
 20
180.868000
 11
63.500000
 21
180.588000
 39
0
 62
0
  0
LINE
  8
7
  6
CONTINUOUS
 10
63.500000
 20
180.588000
 11
63.784000
 21
180.405000
 39
0
 62
0
  0
LINE
  8
7
  6
CONTINUOUS
 10
63.784000
 20
180.405000
 11
64.068000
 21
180.237000
 39
0
 62
0
  0
LINE
  8
7
  6
CONTINUOUS
 10
64.068000
 20
180.237000
 11
64.351000
 21
180.081000
 39
0
 62
0
  0
LINE
  8
7
  6
CONTINUOUS
 10
64.351000
 20
180.081000
 11
64.635000
 21
179.937000
 39
0
 62
0
  0
LINE
  8
7
  6
CONTINUOUS
 10
64.635000
 20
179.937000
 11
64.920000
 21
179.805000
 39
0
 62
0
  0
LINE
  8
7
  6
CONTINUOUS
 10
64.920000
 20
179.805000
 11
65.208000
 21
179.682000
 39
0
 62
0
  0
LINE
  8
7
  6
CONTINUOUS
 10
65.208000
 20
179.682000
 11
65.500000
 21
179.568000
 39
0
 62
0
  0
LINE
  8
7
  6
CONTINUOUS
 10
65.500000
 20
179.568000
 11
66.047000
 21
179.379000
 39
0
 62
0
  0
LINE
  8
7
  6
CONTINUOUS
 10
66.047000
 20
179.379000
 11
66.607000
 21
179.213000
 39
0
 62
0
  0
LINE
  8
7
  6
CONTINUOUS
 10
66.607000
 20
179.213000
 11
67.177000
 21
179.063000
 39
0
 62
0
  0
LINE
  8
7
  6
CONTINUOUS
 10
67.177000
 20
179.063000
 11
67.754000
 21
178.926000
 39
0
 62
0
  0
LINE
  8
7
  6
CONTINUOUS
 10
67.754000
 20
178.926000
 11
68.335000
 21
178.796000
 39
0
 62
0
  0
LINE
  8
7
  6
CONTINUOUS
 10
68.335000
 20
178.796000
 11
68.918000
 21
178.670000
 39
0
 62
0
  0
LINE
  8
7
  6
CONTINUOUS
 10
68.918000
 20
178.670000
 11
69.500000
 21
178.541000
 39
0
 62
0
  0
LINE
  8
7
  6
CONTINUOUS
 10
69.500000
 20
178.541000
 11
70.074000
 21
178.409000
 39
0
 62
0
  0
LINE
  8
7
  6
CONTINUOUS
 10
70.074000
 20
178.409000
 11
70.646000
 21
178.274000
 39
0
 62
0
  0
LINE
  8
7
  6
CONTINUOUS
 10
70.646000
 20
178.274000
 11
71.216000
 21
178.139000
 39
0
 62
0
  0
LINE
  8
7
  6
CONTINUOUS
 10
71.216000
 20
178.139000
 11
71.785000
 21
178.008000
 39
0
 62
0
  0
LINE
  8
7
  6
CONTINUOUS
 10
71.785000
 20
178.008000
 11
72.355000
 21
177.885000
 39
0
 62
0
  0
LINE
  8
7
  6
CONTINUOUS
 10
72.355000
 20
177.885000
 11
72.926000
 21
177.772000
 39
0
 62
0
  0
LINE
  8
7
  6
CONTINUOUS
 10
72.926000
 20
177.772000
 11
73.500000
 21
177.674000
 39
0
 62
0
  0
LINE
  8
7
  6
CONTINUOUS
 10
73.500000
 20
177.674000
 11
74.066000
 21
177.594000
 39
0
 62
0
  0
LINE
  8
7
  6
CONTINUOUS
 10
74.066000
 20
177.594000
 11
74.635000
 21
177.529000
 39
0
 62
0
  0
LINE
  8
7
  6
CONTINUOUS
 10
74.635000
 20
177.529000
 11
75.206000
 21
177.476000
 39
0
 62
0
  0
LINE
  8
7
  6
CONTINUOUS
 10
75.206000
 20
177.476000
 11
75.778000
 21
177.431000
 39
0
 62
0
  0
LINE
  8
7
  6
CONTINUOUS
 10
75.778000
 20
177.431000
 11
76.352000
 21
177.392000
 39
0
 62
0
  0
LINE
  8
7
  6
CONTINUOUS
 10
76.352000
 20
177.392000
 11
76.926000
 21
177.356000
 39
0
 62
0
  0
LINE
  8
7
  6
CONTINUOUS
 10
76.926000
 20
177.356000
 11
77.500000
 21
177.320000
 39
0
 62
0
  0
LINE
  8
7
  6
CONTINUOUS
 10
77.500000
 20
177.320000
 11
78.646000
 21
177.241000
 39
0
 62
0
  0
LINE
  8
7
  6
CONTINUOUS
 10
78.646000
 20
177.241000
 11
79.791000
 21
177.154000
 39
0
 62
0
  0
LINE
  8
7
  6
CONTINUOUS
 10
79.791000
 20
177.154000
 11
80.934000
 21
177.061000
 39
0
 62
0
  0
LINE
  8
7
  6
CONTINUOUS
 10
80.934000
 20
177.061000
 11
82.075000
 21
176.962000
 39
0
 62
0
  0
LINE
  8
7
  6
CONTINUOUS
 10
82.075000
 20
176.962000
 11
83.217000
 21
176.862000
 39
0
 62
0
  0
LINE
  8
7
  6
CONTINUOUS
 10
83.217000
 20
176.862000
 11
84.358000
 21
176.761000
 39
0
 62
0
  0
LINE
  8
7
  6
CONTINUOUS
 10
84.358000
 20
176.761000
 11
85.500000
 21
176.662000
 39
0
 62
0
  0
LINE
  8
7
  6
CONTINUOUS
 10
85.500000
 20
176.662000
 11
86.642000
 21
176.566000
 39
0
 62
0
  0
LINE
  8
7
  6
CONTINUOUS
 10
86.642000
 20
176.566000
 11
87.783000
 21
176.475000
 39
0
 62
0
  0
LINE
  8
7
  6
CONTINUOUS
 10
87.783000
 20
176.475000
 11
88.926000
 21
176.389000
 39
0
 62
0
  0
LINE
  8
7
  6
CONTINUOUS
 10
88.926000
 20
176.389000
 11
90.068000
 21
176.308000
 39
0
 62
0
  0
LINE
  8
7
  6
CONTINUOUS
 10
90.068000
 20
176.308000
 11
91.212000
 21
176.232000
 39
0
 62
0
  0
LINE
  8
7
  6
CONTINUOUS
 10
91.212000
 20
176.232000
 11
92.356000
 21
176.163000
 39
0
 62
0
  0
LINE
  8
7
  6
CONTINUOUS
 10
92.356000
 20
176.163000
 11
93.500000
 21
176.101000
 39
0
 62
0
  0
LINE
  8
7
  6
CONTINUOUS
 10
93.500000
 20
176.101000
 11
95.785000
 21
175.997000
 39
0
 62
0
  0
LINE
  8
7
  6
CONTINUOUS
 10
95.785000
 20
175.997000
 11
98.069000
 21
175.918000
 39
0
 62
0
  0
LINE
  8
7
  6
CONTINUOUS
 10
98.069000
 20
175.918000
 11
100.354000
 21
175.862000
 39
0
 62
0
  0
LINE
  8
7
  6
CONTINUOUS
 10
100.354000
 20
175.862000
 11
102.640000
 21
175.825000
 39
0
 62
0
  0
LINE
  8
7
  6
CONTINUOUS
 10
102.640000
 20
175.825000
 11
104.926000
 21
175.804000
 39
0
 62
0
  0
LINE
  8
7
  6
CONTINUOUS
 10
104.926000
 20
175.804000
 11
107.213000
 21
175.797000
 39
0
 62
0
  0
LINE
  8
7
  6
CONTINUOUS
 10
107.213000
 20
175.797000
 11
109.500000
 21
175.800000
 39
0
 62
0
  0
LINE
  8
7
  6
CONTINUOUS
 10
109.500000
 20
175.800000
 11
111.787000
 21
175.811000
 39
0
 62
0
  0
LINE
  8
7
  6
CONTINUOUS
 10
111.787000
 20
175.811000
 11
114.073000
 21
175.830000
 39
0
 62
0
  0
LINE
  8
7
  6
CONTINUOUS
 10
114.073000
 20
175.830000
 11
116.359000
 21
175.857000
 39
0
 62
0
  0
LINE
  8
7
  6
CONTINUOUS
 10
116.359000
 20
175.857000
 11
118.644000
 21
175.895000
 39
0
 62
0
  0
LINE
  8
7
  6
CONTINUOUS
 10
118.644000
 20
175.895000
 11
120.929000
 21
175.944000
 39
0
 62
0
  0
LINE
  8
7
  6
CONTINUOUS
 10
120.929000
 20
175.944000
 11
123.215000
 21
176.004000
 39
0
 62
0
  0
LINE
  8
7
  6
CONTINUOUS
 10
123.215000
 20
176.004000
 11
125.500000
 21
176.076000
 39
0
 62
0
  0
LINE
  8
7
  6
CONTINUOUS
 10
125.500000
 20
176.076000
 11
127.787000
 21
176.161000
 39
0
 62
0
  0
LINE
  8
7
  6
CONTINUOUS
 10
127.787000
 20
176.161000
 11
130.073000
 21
176.257000
 39
0
 62
0
  0
LINE
  8
7
  6
CONTINUOUS
 10
130.073000
 20
176.257000
 11
132.358000
 21
176.362000
 39
0
 62
0
  0
LINE
  8
7
  6
CONTINUOUS
 10
132.358000
 20
176.362000
 11
134.643000
 21
176.473000
 39
0
 62
0
  0
LINE
  8
7
  6
CONTINUOUS
 10
134.643000
 20
176.473000
 11
136.928000
 21
176.587000
 39
0
 62
0
  0
LINE
  8
7
  6
CONTINUOUS
 10
136.928000
 20
176.587000
 11
139.214000
 21
176.703000
 39
0
 62
0
  0
LINE
  8
7
  6
CONTINUOUS
 10
139.214000
 20
176.703000
 11
141.500000
 21
176.817000
 39
0
 62
0
  0
LINE
  8
7
  6
CONTINUOUS
 10
141.500000
 20
176.817000
 11
143.787000
 21
176.928000
 39
0
 62
0
  0
LINE
  8
7
  6
CONTINUOUS
 10
143.787000
 20
176.928000
 11
146.073000
 21
177.037000
 39
0
 62
0
  0
LINE
  8
7
  6
CONTINUOUS
 10
146.073000
 20
177.037000
 11
148.358000
 21
177.147000
 39
0
 62
0
  0
LINE
  8
7
  6
CONTINUOUS
 10
148.358000
 20
177.147000
 11
150.644000
 21
177.259000
 39
0
 62
0
  0
LINE
  8
7
  6
CONTINUOUS
 10
150.644000
 20
177.259000
 11
152.929000
 21
177.374000
 39
0
 62
0
  0
LINE
  8
7
  6
CONTINUOUS
 10
152.929000
 20
177.374000
 11
155.214000
 21
177.496000
 39
0
 62
0
  0
LINE
  8
7
  6
CONTINUOUS
 10
155.214000
 20
177.496000
 11
157.500000
 21
177.625000
 39
0
 62
0
  0
LINE
  8
7
  6
CONTINUOUS
 10
157.500000
 20
177.625000
 11
159.788000
 21
177.765000
 39
0
 62
0
  0
LINE
  8
7
  6
CONTINUOUS
 10
159.788000
 20
177.765000
 11
162.075000
 21
177.913000
 39
0
 62
0
  0
LINE
  8
7
  6
CONTINUOUS
 10
162.075000
 20
177.913000
 11
164.361000
 21
178.071000
 39
0
 62
0
  0
LINE
  8
7
  6
CONTINUOUS
 10
164.361000
 20
178.071000
 11
166.646000
 21
178.236000
 39
0
 62
0
  0
LINE
  8
7
  6
CONTINUOUS
 10
166.646000
 20
178.236000
 11
168.931000
 21
178.410000
 39
0
 62
0
  0
LINE
  8
7
  6
CONTINUOUS
 10
168.931000
 20
178.410000
 11
171.215000
 21
178.591000
 39
0
 62
0
  0
LINE
  8
7
  6
CONTINUOUS
 10
171.215000
 20
178.591000
 11
173.500000
 21
178.779000
 39
0
 62
0
  0
LINE
  8
7
  6
CONTINUOUS
 10
173.500000
 20
178.779000
 11
175.786000
 21
178.973000
 39
0
 62
0
  0
LINE
  8
7
  6
CONTINUOUS
 10
175.786000
 20
178.973000
 11
178.071000
 21
179.170000
 39
0
 62
0
  0
LINE
  8
7
  6
CONTINUOUS
 10
178.071000
 20
179.170000
 11
180.356000
 21
179.369000
 39
0
 62
0
  0
LINE
  8
7
  6
CONTINUOUS
 10
180.356000
 20
179.369000
 11
182.641000
 21
179.565000
 39
0
 62
0
  0
LINE
  8
7
  6
CONTINUOUS
 10
182.641000
 20
179.565000
 11
184.926000
 21
179.757000
 39
0
 62
0
  0
LINE
  8
7
  6
CONTINUOUS
 10
184.926000
 20
179.757000
 11
187.212000
 21
179.941000
 39
0
 62
0
  0
LINE
  8
7
  6
CONTINUOUS
 10
187.212000
 20
179.941000
 11
189.500000
 21
180.115000
 39
0
 62
0
  0
LINE
  8
7
  6
CONTINUOUS
 10
189.500000
 20
180.115000
 11
191.787000
 21
180.277000
 39
0
 62
0
  0
LINE
  8
7
  6
CONTINUOUS
 10
191.787000
 20
180.277000
 11
194.074000
 21
180.432000
 39
0
 62
0
  0
LINE
  8
7
  6
CONTINUOUS
 10
194.074000
 20
180.432000
 11
196.360000
 21
180.584000
 39
0
 62
0
  0
LINE
  8
7
  6
CONTINUOUS
 10
196.360000
 20
180.584000
 11
198.646000
 21
180.740000
 39
0
 62
0
  0
LINE
  8
7
  6
CONTINUOUS
 10
198.646000
 20
180.740000
 11
200.932000
 21
180.904000
 39
0
 62
0
  0
LINE
  8
7
  6
CONTINUOUS
 10
200.932000
 20
180.904000
 11
203.216000
 21
181.083000
 39
0
 62
0
  0
LINE
  8
7
  6
CONTINUOUS
 10
203.216000
 20
181.083000
 11
205.500000
 21
181.282000
 39
0
 62
0
  0
LINE
  8
7
  6
CONTINUOUS
 10
205.500000
 20
181.282000
 11
206.644000
 21
181.391000
 39
0
 62
0
  0
LINE
  8
7
  6
CONTINUOUS
 10
206.644000
 20
181.391000
 11
207.787000
 21
181.504000
 39
0
 62
0
  0
LINE
  8
7
  6
CONTINUOUS
 10
207.787000
 20
181.504000
 11
208.929000
 21
181.620000
 39
0
 62
0
  0
LINE
  8
7
  6
CONTINUOUS
 10
208.929000
 20
181.620000
 11
210.072000
 21
181.739000
 39
0
 62
0
  0
LINE
  8
7
  6
CONTINUOUS
 10
210.072000
 20
181.739000
 11
211.214000
 21
181.857000
 39
0
 62
0
  0
LINE
  8
7
  6
CONTINUOUS
 10
211.214000
 20
181.857000
 11
212.357000
 21
181.975000
 39
0
 62
0
  0
LINE
  8
7
  6
CONTINUOUS
 10
212.357000
 20
181.975000
 11
213.500000
 21
182.090000
 39
0
 62
0
  0
LINE
  8
7
  6
CONTINUOUS
 10
213.500000
 20
182.090000
 11
214.642000
 21
182.200000
 39
0
 62
0
  0
LINE
  8
7
  6
CONTINUOUS
 10
214.642000
 20
182.200000
 11
215.785000
 21
182.307000
 39
0
 62
0
  0
LINE
  8
7
  6
CONTINUOUS
 10
215.785000
 20
182.307000
 11
216.927000
 21
182.411000
 39
0
 62
0
  0
LINE
  8
7
  6
CONTINUOUS
 10
216.927000
 20
182.411000
 11
218.070000
 21
182.512000
 39
0
 62
0
  0
LINE
  8
7
  6
CONTINUOUS
 10
218.070000
 20
182.512000
 11
219.213000
 21
182.612000
 39
0
 62
0
  0
LINE
  8
7
  6
CONTINUOUS
 10
219.213000
 20
182.612000
 11
220.356000
 21
182.710000
 39
0
 62
0
  0
LINE
  8
7
  6
CONTINUOUS
 10
220.356000
 20
182.710000
 11
221.500000
 21
182.808000
 39
0
 62
0
  0
LINE
  8
7
  6
CONTINUOUS
 10
221.500000
 20
182.808000
 11
221.500000
 21
183.192000
 39
0
 62
0
  0
ENDSEC
  0
EOF
