  0
SECTION
  2
HEADER
  9
$ACADVER
  1
AC1021
  9
$ACADMAINTVER
 70
    25
  9
$DWGCODEPAGE
  3
ANSI_1252
  9
$LASTSAVEDBY
  1
utente
  9
$INSBASE
 10
0.0
 20
0.0
 30
0.0
  9
$EXTMIN
 10
1705.314090151257
 20
832.0972307180253
 30
-0.0015258207003583
  9
$EXTMAX
 10
2868.068018189433
 20
1419.490555304412
 30
0.0000000349246037
  9
$LIMMIN
 10
0.0
 20
0.0
  9
$LIMMAX
 10
420.0
 20
297.0
  9
$ORTHOMODE
 70
     0
  9
$REGENMODE
 70
     1
  9
$FILLMODE
 70
     1
  9
$QTEXTMODE
 70
     0
  9
$MIRRTEXT
 70
     0
  9
$LTSCALE
 40
1.0
  9
$ATTMODE
 70
     1
  9
$TEXTSIZE
 40
2.5
  9
$TRACEWID
 40
1.0
  9
$TEXTSTYLE
  7
Standard
  9
$CLAYER
  8
0
  9
$CELTYPE
  6
ByLayer
  9
$CECOLOR
 62
   256
  9
$CELTSCALE
 40
1.0
  9
$DISPSILH
 70
     0
  9
$DIMSCALE
 40
1.0
  9
$DIMASZ
 40
2.5
  9
$DIMEXO
 40
0.625
  9
$DIMDLI
 40
3.75
  9
$DIMRND
 40
0.0
  9
$DIMDLE
 40
0.0
  9
$DIMEXE
 40
1.25
  9
$DIMTP
 40
0.0
  9
$DIMTM
 40
0.0
  9
$DIMTXT
 40
2.5
  9
$DIMCEN
 40
2.5
  9
$DIMTSZ
 40
0.0
  9
$DIMTOL
 70
     0
  9
$DIMLIM
 70
     0
  9
$DIMTIH
 70
     0
  9
$DIMTOH
 70
     0
  9
$DIMSE1
 70
     0
  9
$DIMSE2
 70
     0
  9
$DIMTAD
 70
     1
  9
$DIMZIN
 70
     8
  9
$DIMBLK
  1

  9
$DIMASO
 70
     1
  9
$DIMSHO
 70
     1
  9
$DIMPOST
  1

  9
$DIMAPOST
  1

  9
$DIMALT
 70
     0
  9
$DIMALTD
 70
     3
  9
$DIMALTF
 40
0.03937007874016
  9
$DIMLFAC
 40
1.0
  9
$DIMTOFL
 70
     1
  9
$DIMTVP
 40
0.0
  9
$DIMTIX
 70
     0
  9
$DIMSOXD
 70
     0
  9
$DIMSAH
 70
     0
  9
$DIMBLK1
  1

  9
$DIMBLK2
  1

  9
$DIMSTYLE
  2
ISO-25
  9
$DIMCLRD
 70
     0
  9
$DIMCLRE
 70
     0
  9
$DIMCLRT
 70
     0
  9
$DIMTFAC
 40
1.0
  9
$DIMGAP
 40
0.625
  9
$DIMJUST
 70
     0
  9
$DIMSD1
 70
     0
  9
$DIMSD2
 70
     0
  9
$DIMTOLJ
 70
     0
  9
$DIMTZIN
 70
     8
  9
$DIMALTZ
 70
     0
  9
$DIMALTTZ
 70
     0
  9
$DIMUPT
 70
     0
  9
$DIMDEC
 70
     2
  9
$DIMTDEC
 70
     2
  9
$DIMALTU
 70
     2
  9
$DIMALTTD
 70
     3
  9
$DIMTXSTY
  7
Standard
  9
$DIMAUNIT
 70
     0
  9
$DIMADEC
 70
     0
  9
$DIMALTRND
 40
0.0
  9
$DIMAZIN
 70
     0
  9
$DIMDSEP
 70
    44
  9
$DIMATFIT
 70
     3
  9
$DIMFRAC
 70
     0
  9
$DIMLDRBLK
  1

  9
$DIMLUNIT
 70
     2
  9
$DIMLWD
 70
    -2
  9
$DIMLWE
 70
    -2
  9
$DIMTMOVE
 70
     0
  9
$DIMFXL
 40
1.0
  9
$DIMFXLON
 70
     0
  9
$DIMJOGANG
 40
0.7853981633974483
  9
$DIMTFILL
 70
     0
  9
$DIMTFILLCLR
 70
     0
  9
$DIMARCSYM
 70
     0
  9
$DIMLTYPE
  6

  9
$DIMLTEX1
  6

  9
$DIMLTEX2
  6

  9
$LUNITS
 70
     2
  9
$LUPREC
 70
     4
  9
$SKETCHINC
 40
1.0
  9
$FILLETRAD
 40
0.0
  9
$AUNITS
 70
     0
  9
$AUPREC
 70
     0
  9
$MENU
  1
.
  9
$ELEVATION
 40
0.0
  9
$PELEVATION
 40
0.0
  9
$THICKNESS
 40
0.0
  9
$LIMCHECK
 70
     0
  9
$CHAMFERA
 40
0.0
  9
$CHAMFERB
 40
0.0
  9
$CHAMFERC
 40
0.0
  9
$CHAMFERD
 40
0.0
  9
$SKPOLY
 70
     0
  9
$TDCREATE
 40
2457679.939387095
  9
$TDUCREATE
 40
2457679.856053762
  9
$TDUPDATE
 40
2457679.942445428
  9
$TDUUPDATE
 40
2457679.859112095
  9
$TDINDWG
 40
0.0030595949
  9
$TDUSRTIMER
 40
0.0030595949
  9
$USRTIMER
 70
     1
  9
$ANGBASE
 50
0.0
  9
$ANGDIR
 70
     0
  9
$PDMODE
 70
     0
  9
$PDSIZE
 40
0.0
  9
$PLINEWID
 40
0.0
  9
$SPLFRAME
 70
     0
  9
$SPLINETYPE
 70
     6
  9
$SPLINESEGS
 70
     8
  9
$HANDSEED
  5
466
  9
$SURFTAB1
 70
     6
  9
$SURFTAB2
 70
     6
  9
$SURFTYPE
 70
     6
  9
$SURFU
 70
     6
  9
$SURFV
 70
     6
  9
$UCSBASE
  2

  9
$UCSNAME
  2

  9
$UCSORG
 10
0.0
 20
0.0
 30
0.0
  9
$UCSXDIR
 10
1.0
 20
0.0
 30
0.0
  9
$UCSYDIR
 10
0.0
 20
1.0
 30
0.0
  9
$UCSORTHOREF
  2

  9
$UCSORTHOVIEW
 70
     0
  9
$UCSORGTOP
 10
0.0
 20
0.0
 30
0.0
  9
$UCSORGBOTTOM
 10
0.0
 20
0.0
 30
0.0
  9
$UCSORGLEFT
 10
0.0
 20
0.0
 30
0.0
  9
$UCSORGRIGHT
 10
0.0
 20
0.0
 30
0.0
  9
$UCSORGFRONT
 10
0.0
 20
0.0
 30
0.0
  9
$UCSORGBACK
 10
0.0
 20
0.0
 30
0.0
  9
$PUCSBASE
  2

  9
$PUCSNAME
  2

  9
$PUCSORG
 10
0.0
 20
0.0
 30
0.0
  9
$PUCSXDIR
 10
1.0
 20
0.0
 30
0.0
  9
$PUCSYDIR
 10
0.0
 20
1.0
 30
0.0
  9
$PUCSORTHOREF
  2

  9
$PUCSORTHOVIEW
 70
     0
  9
$PUCSORGTOP
 10
0.0
 20
0.0
 30
0.0
  9
$PUCSORGBOTTOM
 10
0.0
 20
0.0
 30
0.0
  9
$PUCSORGLEFT
 10
0.0
 20
0.0
 30
0.0
  9
$PUCSORGRIGHT
 10
0.0
 20
0.0
 30
0.0
  9
$PUCSORGFRONT
 10
0.0
 20
0.0
 30
0.0
  9
$PUCSORGBACK
 10
0.0
 20
0.0
 30
0.0
  9
$USERI1
 70
     0
  9
$USERI2
 70
     0
  9
$USERI3
 70
     0
  9
$USERI4
 70
     0
  9
$USERI5
 70
     0
  9
$USERR1
 40
0.0
  9
$USERR2
 40
0.0
  9
$USERR3
 40
0.0
  9
$USERR4
 40
0.0
  9
$USERR5
 40
0.0
  9
$WORLDVIEW
 70
     1
  9
$SHADEDGE
 70
     3
  9
$SHADEDIF
 70
    70
  9
$TILEMODE
 70
     1
  9
$MAXACTVP
 70
    64
  9
$PINSBASE
 10
0.0
 20
0.0
 30
0.0
  9
$PLIMCHECK
 70
     0
  9
$PEXTMIN
 10
0.0
 20
0.0
 30
0.0
  9
$PEXTMAX
 10
0.0
 20
0.0
 30
0.0
  9
$PLIMMIN
 10
0.0
 20
0.0
  9
$PLIMMAX
 10
12.0
 20
9.0
  9
$UNITMODE
 70
     0
  9
$VISRETAIN
 70
     1
  9
$PLINEGEN
 70
     0
  9
$PSLTSCALE
 70
     1
  9
$TREEDEPTH
 70
  3020
  9
$CMLSTYLE
  2
Standard
  9
$CMLJUST
 70
     0
  9
$CMLSCALE
 40
20.0
  9
$PROXYGRAPHICS
 70
     1
  9
$MEASUREMENT
 70
     1
  9
$CELWEIGHT
370
    -1
  9
$ENDCAPS
280
     0
  9
$JOINSTYLE
280
     0
  9
$LWDISPLAY
290
     0
  9
$INSUNITS
 70
     4
  9
$HYPERLINKBASE
  1

  9
$STYLESHEET
  1

  9
$XEDIT
290
     1
  9
$CEPSNTYPE
380
     0
  9
$PSTYLEMODE
290
     1
  9
$FINGERPRINTGUID
  2
{FE708564-A637-40C1-B99E-CBEDB786809B}
  9
$VERSIONGUID
  2
{AAF0C5D2-200D-4EEE-919D-D383A90C37F2}
  9
$EXTNAMES
290
     1
  9
$PSVPSCALE
 40
0.0
  9
$OLESTARTUP
290
     0
  9
$SORTENTS
280
   127
  9
$INDEXCTL
280
     0
  9
$HIDETEXT
280
     1
  9
$XCLIPFRAME
290
     0
  9
$HALOGAP
280
     0
  9
$OBSCOLOR
 70
   257
  9
$OBSLTYPE
280
     0
  9
$INTERSECTIONDISPLAY
280
     0
  9
$INTERSECTIONCOLOR
 70
   257
  9
$DIMASSOC
280
     2
  9
$PROJECTNAME
  1

  9
$CAMERADISPLAY
290
     0
  9
$LENSLENGTH
 40
50.0
  9
$CAMERAHEIGHT
 40
0.0
  9
$STEPSPERSEC
 40
2.0
  9
$STEPSIZE
 40
6.0
  9
$3DDWFPREC
 40
2.0
  9
$PSOLWIDTH
 40
5.0
  9
$PSOLHEIGHT
 40
80.0
  9
$LOFTANG1
 40
1.570796326794896
  9
$LOFTANG2
 40
1.570796326794896
  9
$LOFTMAG1
 40
0.0
  9
$LOFTMAG2
 40
0.0
  9
$LOFTPARAM
 70
     7
  9
$LOFTNORMALS
280
     1
  9
$LATITUDE
 40
37.795
  9
$LONGITUDE
 40
-122.394
  9
$NORTHDIRECTION
 40
0.0
  9
$TIMEZONE
 70
 -8000
  9
$LIGHTGLYPHDISPLAY
280
     1
  9
$TILEMODELIGHTSYNCH
280
     1
  9
$CMATERIAL
347
EC
  9
$SOLIDHIST
280
     1
  9
$SHOWHIST
280
     1
  9
$DWFFRAME
280
     2
  9
$DGNFRAME
280
     0
  9
$REALWORLDSCALE
290
     1
  9
$INTERFERECOLOR
 62
     1
  9
$INTERFEREOBJVS
345
F9
  9
$INTERFEREVPVS
346
F6
  9
$CSHADOW
280
     0
  9
$SHADOWPLANELOCATION
 40
0.0
  0
ENDSEC
  0
SECTION
  2
CLASSES
  0
CLASS
  1
ACDBDICTIONARYWDFLT
  2
AcDbDictionaryWithDefault
  3
ObjectDBX Classes
 90
        0
 91
        1
280
     0
281
     0
  0
CLASS
  1
DICTIONARYVAR
  2
AcDbDictionaryVar
  3
ObjectDBX Classes
 90
        0
 91
        5
280
     0
281
     0
  0
CLASS
  1
TABLESTYLE
  2
AcDbTableStyle
  3
ObjectDBX Classes
 90
     4095
 91
        1
280
     0
281
     0
  0
CLASS
  1
MATERIAL
  2
AcDbMaterial
  3
ObjectDBX Classes
 90
     1153
 91
        3
280
     0
281
     0
  0
CLASS
  1
VISUALSTYLE
  2
AcDbVisualStyle
  3
ObjectDBX Classes
 90
     4095
 91
       16
280
     0
281
     0
  0
CLASS
  1
SCALE
  2
AcDbScale
  3
ObjectDBX Classes
 90
     1153
 91
       33
280
     0
281
     0
  0
CLASS
  1
MLEADERSTYLE
  2
AcDbMLeaderStyle
  3
ACDB_MLEADERSTYLE_CLASS
 90
     4095
 91
        2
280
     0
281
     0
  0
CLASS
  1
CELLSTYLEMAP
  2
AcDbCellStyleMap
  3
ObjectDBX Classes
 90
     1152
 91
        3
280
     0
281
     0
  0
CLASS
  1
SORTENTSTABLE
  2
AcDbSortentsTable
  3
ObjectDBX Classes
 90
        0
 91
        2
280
     0
281
     0
  0
ENDSEC
  0
SECTION
  2
TABLES
  0
TABLE
  2
VPORT
  5
8
330
0
100
AcDbSymbolTable
 70
     1
  0
VPORT
  5
EA
330
8
100
AcDbSymbolTableRecord
100
AcDbViewportTableRecord
  2
*Active
 70
     0
 10
0.0
 20
0.0
 11
1.0
 21
1.0
 12
2286.691054170345
 22
1125.793893011219
 13
0.0
 23
0.0
 14
10.0
 24
10.0
 15
10.0
 25
10.0
 16
0.0
 26
0.0
 36
1.0
 17
0.0
 27
0.0
 37
0.0
 40
593.0323005024156
 41
2.431089743589743
 42
50.0
 43
0.0
 44
0.0
 50
0.0
 51
0.0
 71
     0
 72
  1000
 73
     1
 74
     3
 75
     0
 76
     0
 77
     0
 78
     0
281
     0
 65
     1
110
0.0
120
0.0
130
0.0
111
1.0
121
0.0
131
0.0
112
0.0
122
1.0
132
0.0
 79
     0
146
0.0
348
F5
 60
     2
 61
     5
292
     1
282
     1
141
0.0
142
0.0
 63
   250
421
  3355443
  0
ENDTAB
  0
TABLE
  2
LTYPE
  5
5
330
0
100
AcDbSymbolTable
 70
     3
  0
LTYPE
  5
14
330
5
100
AcDbSymbolTableRecord
100
AcDbLinetypeTableRecord
  2
ByBlock
 70
     0
  3

 72
    65
 73
     0
 40
0.0
  0
LTYPE
  5
15
330
5
100
AcDbSymbolTableRecord
100
AcDbLinetypeTableRecord
  2
ByLayer
 70
     0
  3

 72
    65
 73
     0
 40
0.0
  0
LTYPE
  5
16
330
5
100
AcDbSymbolTableRecord
100
AcDbLinetypeTableRecord
  2
Continuous
 70
     0
  3
Solid line
 72
    65
 73
     0
 40
0.0
  0
LTYPE
  5
1B0
330
5
100
AcDbSymbolTableRecord
100
AcDbLinetypeTableRecord
  2
SOLID
 70
     0
  3
Solido
 72
    65
 73
     0
 40
0.0
  0
ENDTAB
  0
TABLE
  2
LAYER
  5
2
330
0
100
AcDbSymbolTable
 70
     2
  0
LAYER
  5
10
102
{ACAD_XDICTIONARY
360
13C
102
}
330
2
100
AcDbSymbolTableRecord
100
AcDbLayerTableRecord
  2
0
 70
     0
 62
     7
  6
Continuous
370
    -3
390
F
347
EE
  0
LAYER
  5
1B1
102
{ACAD_XDICTIONARY
360
3C5
102
}
330
2
100
AcDbSymbolTableRecord
100
AcDbLayerTableRecord
  2
Layer1
 70
     0
 62
     1
  6
SOLID
370
    -3
390
F
347
EE
1001
AcAecLayerStandard
1000

1000

  0
ENDTAB
  0
TABLE
  2
STYLE
  5
3
330
0
100
AcDbSymbolTable
 70
     2
  0
STYLE
  5
11
330
3
100
AcDbSymbolTableRecord
100
AcDbTextStyleTableRecord
  2
Standard
 70
     0
 40
0.0
 41
1.0
 50
0.0
 71
     0
 42
2.5
  3
txt.shx
  4

  0
STYLE
  5
132
330
3
100
AcDbSymbolTableRecord
100
AcDbTextStyleTableRecord
  2
Annotativa
 70
     0
 40
0.0
 41
1.0
 50
0.0
 71
     0
 42
2.5
  3
txt.shx
  4

1001
AcadAnnotative
1000
AnnotativeData
1002
{
1070
     1
1070
     1
1002
}
  0
ENDTAB
  0
TABLE
  2
VIEW
  5
6
330
0
100
AcDbSymbolTable
 70
     0
  0
ENDTAB
  0
TABLE
  2
UCS
  5
7
330
0
100
AcDbSymbolTable
 70
     0
  0
ENDTAB
  0
TABLE
  2
APPID
  5
9
330
0
100
AcDbSymbolTable
 70
     8
  0
APPID
  5
12
330
9
100
AcDbSymbolTableRecord
100
AcDbRegAppTableRecord
  2
ACAD
 70
     0
  0
APPID
  5
9E
330
9
100
AcDbSymbolTableRecord
100
AcDbRegAppTableRecord
  2
ACAD_PSEXT
 70
     0
  0
APPID
  5
133
330
9
100
AcDbSymbolTableRecord
100
AcDbRegAppTableRecord
  2
AcadAnnoPO
 70
     0
  0
APPID
  5
134
330
9
100
AcDbSymbolTableRecord
100
AcDbRegAppTableRecord
  2
AcadAnnotative
 70
     0
  0
APPID
  5
135
330
9
100
AcDbSymbolTableRecord
100
AcDbRegAppTableRecord
  2
ACAD_DSTYLE_DIMJAG
 70
     0
  0
APPID
  5
136
330
9
100
AcDbSymbolTableRecord
100
AcDbRegAppTableRecord
  2
ACAD_DSTYLE_DIMTALN
 70
     0
  0
APPID
  5
165
330
9
100
AcDbSymbolTableRecord
100
AcDbRegAppTableRecord
  2
ACAD_MLEADERVER
 70
     0
  0
APPID
  5
1B3
330
9
100
AcDbSymbolTableRecord
100
AcDbRegAppTableRecord
  2
AcAecLayerStandard
 70
     0
  0
ENDTAB
  0
TABLE
  2
DIMSTYLE
  5
A
330
0
100
AcDbSymbolTable
 70
     4
100
AcDbDimStyleTable
 71
     2
340
27
340
137
  0
DIMSTYLE
105
27
330
A
100
AcDbSymbolTableRecord
100
AcDbDimStyleTableRecord
  2
ISO-25
 70
     0
 41
2.5
 42
0.625
 43
3.75
 44
1.25
 73
     0
 74
     0
 77
     1
 78
     8
140
2.5
141
2.5
143
0.03937007874016
147
0.625
171
     3
172
     1
271
     2
272
     2
274
     3
278
    44
283
     0
284
     8
340
11
  0
DIMSTYLE
105
137
330
A
100
AcDbSymbolTableRecord
100
AcDbDimStyleTableRecord
  2
Annotativa
 70
     0
 40
0.0
 41
2.5
 42
0.625
 43
3.75
 44
1.25
 73
     0
 74
     0
 77
     1
 78
     8
140
2.5
141
2.5
143
0.03937007874016
147
0.625
171
     3
172
     1
271
     2
272
     2
274
     3
278
    44
283
     0
284
     8
340
11
1001
AcadAnnotative
1000
AnnotativeData
1002
{
1070
     1
1070
     1
1002
}
1001
ACAD_DSTYLE_DIMJAG
1070
   388
1040
1.5
1001
ACAD_DSTYLE_DIMTALN
1070
   392
1070
     0
  0
DIMSTYLE
105
1B2
330
A
100
AcDbSymbolTableRecord
100
AcDbDimStyleTableRecord
  2
Standard
 70
     0
140
15.0
340
11
1001
ACAD_DSTYLE_DIMJAG
1070
   388
1040
1.5
1001
ACAD_DSTYLE_DIMTALN
1070
   392
1070
     0
  0
ENDTAB
  0
TABLE
  2
BLOCK_RECORD
  5
1
330
0
100
AcDbSymbolTable
 70
     3
  0
BLOCK_RECORD
  5
1F
102
{ACAD_XDICTIONARY
360
3CE
102
}
330
1
100
AcDbSymbolTableRecord
100
AcDbBlockTableRecord
  2
*Model_Space
340
22
 70
     0
280
     1
281
     0
  0
BLOCK_RECORD
  5
D2
330
1
100
AcDbSymbolTableRecord
100
AcDbBlockTableRecord
  2
*Paper_Space
340
D3
 70
     0
280
     1
281
     0
  0
BLOCK_RECORD
  5
D6
330
1
100
AcDbSymbolTableRecord
100
AcDbBlockTableRecord
  2
*Paper_Space0
340
D7
 70
     0
280
     1
281
     0
  0
ENDTAB
  0
ENDSEC
  0
SECTION
  2
BLOCKS
  0
BLOCK
  5
20
330
1F
100
AcDbEntity
  8
0
100
AcDbBlockBegin
  2
*Model_Space
 70
     0
 10
0.0
 20
0.0
 30
0.0
  3
*Model_Space
  1

  0
ENDBLK
  5
21
330
1F
100
AcDbEntity
  8
0
100
AcDbBlockEnd
  0
BLOCK
  5
D4
330
D2
100
AcDbEntity
 67
     1
  8
0
100
AcDbBlockBegin
  2
*Paper_Space
 70
     0
 10
0.0
 20
0.0
 30
0.0
  3
*Paper_Space
  1

  0
ENDBLK
  5
D5
330
D2
100
AcDbEntity
 67
     1
  8
0
100
AcDbBlockEnd
  0
BLOCK
  5
D8
330
D6
100
AcDbEntity
 67
     1
  8
0
100
AcDbBlockBegin
  2
*Paper_Space0
 70
     0
 10
0.0
 20
0.0
 30
0.0
  3
*Paper_Space0
  1

  0
ENDBLK
  5
D9
330
D6
100
AcDbEntity
 67
     1
  8
0
100
AcDbBlockEnd
  0
ENDSEC
  0
SECTION
  2
ENTITIES
  0
LINE
  5
2BF
330
1F
100
AcDbEntity
  8
0
100
AcDbLine
 10
2163.956529235858
 20
1255.194106946023
 30
0.0
 11
2527.872326214867
 21
1255.234982143455
 31
0.0
  0
LINE
  5
2C0
330
1F
100
AcDbEntity
  8
0
100
AcDbLine
 10
2537.639065388809
 20
1171.60241441718
 30
0.0
 11
2226.385099692246
 21
1076.147112960408
 31
0.0
  0
LINE
  5
2C1
330
1F
100
AcDbEntity
  8
0
100
AcDbLine
 10
2548.971862917454
 20
1234.445038567369
 30
0.0
 11
2552.079278004214
 21
1210.874210868016
 31
0.0
  0
LINE
  5
2C4
330
1F
100
AcDbEntity
  8
Layer1
  6
Continuous
100
AcDbLine
 10
2171.715394336563
 20
1188.754385061151
 30
0.0
 11
2549.15042688807
 21
1232.831443464885
 31
0.0
  0
LINE
  5
2C5
330
1F
100
AcDbEntity
  8
Layer1
  6
Continuous
100
AcDbLine
 10
2171.093025478217
 20
1194.083774517157
 30
0.0
 11
2547.743855383598
 21
1238.069253330094
 31
0.0
  0
LINE
  5
2C7
330
1F
100
AcDbEntity
  8
0
  6
Continuous
100
AcDbLine
 10
2189.650865194952
 20
1035.546888630594
 30
0.0
 11
2210.0554656832
 21
1037.929748433898
 31
0.0
  0
LINE
  5
2C8
330
1F
100
AcDbEntity
  8
Layer1
  6
Continuous
 62
     0
100
AcDbLine
 10
2189.650865194952
 20
1035.546888630594
 30
0.0
 11
2163.956529235858
 21
1255.194106946023
 31
0.0
  0
LINE
  5
2C9
330
1F
100
AcDbEntity
  8
0
100
AcDbLine
 10
2114.321210880094
 20
1255.194106946023
 30
0.0
 11
1750.405413901084
 21
1255.234982143455
 31
0.0
  0
LINE
  5
2CA
330
1F
100
AcDbEntity
  8
0
100
AcDbLine
 10
1726.209951476223
 20
1306.383156560162
 30
0.0
 11
2095.177045924382
 21
1419.447233907598
 31
0.0
  0
LINE
  5
2CB
330
1F
100
AcDbEntity
  8
0
100
AcDbLine
 10
1729.31054800375
 20
1276.029665015144
 30
0.0
 11
1726.218302393959
 21
1304.030308448048
 31
0.0
  0
LINE
  5
2CE
330
1F
100
AcDbEntity
  8
0
  6
Continuous
100
AcDbLine
 10
2114.321210880094
 20
1255.194106946023
 30
0.0
 11
2095.177045924382
 21
1419.447233907598
 31
0.0
  0
LINE
  5
2CF
330
1F
100
AcDbEntity
  8
0
100
AcDbLine
 10
1740.638674727143
 20
1171.60241441718
 30
0.0
 11
2051.892640423705
 21
1076.147112960408
 31
0.0
  0
LINE
  5
2D0
330
1F
100
AcDbEntity
  8
0
100
AcDbLine
 10
2093.506094693516
 20
1255.196444909889
 30
0.0
 11
1750.405413901084
 21
1255.234982143455
 31
0.0
  0
LINE
  5
2D1
330
1F
100
AcDbEntity
  8
0
100
AcDbLine
 10
1729.305877198498
 20
1234.445038567369
 30
0.0
 11
1726.207341575319
 21
1206.445090485993
 31
0.0
  0
LINE
  5
2D4
330
1F
100
AcDbEntity
  8
0
  6
Continuous
100
AcDbLine
 10
2093.594790507662
 20
1255.196434947533
 30
0.0
 11
2114.321210880094
 21
1255.194106946023
 31
0.0
  0
LINE
  5
2D5
330
1F
100
AcDbEntity
  8
Layer1
  6
Continuous
100
AcDbLine
 10
2106.562345779389
 20
1188.754385061151
 30
0.0
 11
1729.127313227882
 21
1232.831443464885
 31
0.0
  0
LINE
  5
2D6
330
1F
100
AcDbEntity
  8
Layer1
  6
Continuous
100
AcDbLine
 10
2107.184714637734
 20
1194.083774517157
 30
0.0
 11
1730.533884732353
 21
1238.069253330094
 31
0.0
  0
LINE
  5
2D8
330
1F
100
AcDbEntity
  8
0
  6
Continuous
100
AcDbLine
 10
2088.626874921001
 20
1035.546888630594
 30
0.0
 11
2068.222274432752
 21
1037.929748433898
 31
0.0
  0
LINE
  5
2D9
330
1F
100
AcDbEntity
  8
Layer1
  6
Continuous
 62
     0
100
AcDbLine
 10
2088.626874921001
 20
1035.546888630594
 30
0.0
 11
2114.321210880094
 21
1255.194106946023
 31
0.0
  0
LINE
  5
2DA
330
1F
100
AcDbEntity
  8
0
100
AcDbLine
 10
1826.5411800758
 20
986.2941129340402
 30
0.0
 11
1826.5411800758
 21
1121.850203736475
 31
0.0
  0
LINE
  5
2DB
330
1F
100
AcDbEntity
  8
0
100
AcDbLine
 10
1825.274300722506
 20
1121.850203736475
 30
0.0
 11
1825.274300722506
 21
986.2941129340402
 31
0.0
  0
LINE
  5
2DC
330
1F
100
AcDbEntity
  8
0
100
AcDbLine
 10
1825.907740399153
 20
1121.850203736475
 30
0.0
 11
1825.907740399153
 21
985.6606732573933
 31
0.0
  0
LINE
  5
2DD
330
1F
100
AcDbEntity
  8
0
100
AcDbLine
 10
1929.245442598434
 20
1071.524708139225
 30
0.0
 11
1841.201628857614
 21
1122.497442410227
 31
0.0
  0
LINE
  5
2DE
330
1F
100
AcDbEntity
  8
0
100
AcDbLine
 10
1722.570038199871
 20
1071.524708139225
 30
0.0
 11
1809.927187560924
 21
1122.099899874572
 31
0.0
  0
LINE
  5
2E0
330
1F
100
AcDbEntity
  8
0
100
AcDbLine
 10
1825.907740399153
 20
985.6606732573933
 30
0.0
 11
1929.025919733351
 21
1012.797036240077
 31
0.0
  0
LINE
  5
2E3
330
1F
100
AcDbEntity
  8
0
100
AcDbLine
 10
1946.261278962062
 20
1036.335847389144
 30
0.0
 11
1946.261278962062
 21
1047.421041730465
 31
0.0
  0
LINE
  5
2E4
330
1F
100
AcDbEntity
  8
0
100
AcDbLine
 10
1944.792031729313
 20
1026.834252239441
 30
0.0
 11
1825.907740399153
 21
1026.834252239441
 31
0.0
  0
LINE
  5
2E5
330
1F
100
AcDbEntity
  8
0
100
AcDbLine
 10
1707.023449068992
 20
1026.834252239441
 30
0.0
 11
1825.907740399153
 21
1026.834252239441
 31
0.0
  0
LINE
  5
2E6
330
1F
100
AcDbEntity
  8
0
100
AcDbLine
 10
1705.554201836243
 20
1036.335847389144
 30
0.0
 11
1705.554201836243
 21
1047.421041730465
 31
0.0
  0
LINE
  5
2E9
330
1F
100
AcDbEntity
  8
0
100
AcDbLine
 10
1825.907740399153
 20
985.6606732573933
 30
0.0
 11
1722.789561064955
 21
1012.797036240077
 31
0.0
  0
LINE
  5
2EB
330
1F
100
AcDbEntity
  8
Layer1
  6
Continuous
 62
     0
100
AcDbLine
 10
1809.927187560924
 20
1122.099899874572
 30
0.0
 11
1841.201628857614
 21
1122.497442410227
 31
0.0
  0
LINE
  5
2EC
330
1F
100
AcDbEntity
  8
0
100
AcDbLine
 10
1964.131813609651
 20
1002.323310580369
 30
0.0
 11
1967.129191607679
 21
1002.323310580369
 31
0.0
  0
LINE
  5
2EE
330
1F
100
AcDbEntity
  8
0
100
AcDbLine
 10
1923.642604964237
 20
932.5089916648101
 30
0.0
 11
1940.995336363959
 21
989.463058955539
 31
0.0
  0
LINE
  5
2F1
330
1F
100
AcDbEntity
  8
0
100
AcDbLine
 10
2033.785023809375
 20
932.9428747184365
 30
0.0
 11
1991.913668859573
 21
990.7652220300663
 31
0.0
  0
LINE
  5
2F2
330
1F
100
AcDbEntity
  8
0
  6
Continuous
100
AcDbLine
 10
1958.133451694141
 20
912.4756580836907
 30
0.0
 11
1923.611503970003
 21
932.4069138951719
 31
0.0
  0
LINE
  5
2F3
330
1F
100
AcDbEntity
  8
Layer1
  6
Continuous
 62
     0
100
AcDbLine
 10
1958.133451694141
 20
912.4756580836907
 30
0.0
 11
2043.397893601374
 21
912.4756580836907
 31
0.0
  0
LINE
  5
2F4
330
1F
100
AcDbEntity
  8
Layer1
  6
Continuous
 62
     0
100
AcDbLine
 10
2043.397893601374
 20
912.4756580836907
 30
0.0
 11
2043.250382758778
 21
924.4428956923472
 31
0.0
  0
LINE
  5
2F5
330
1F
100
AcDbEntity
  8
0
 62
     7
100
AcDbLine
 10
2714.040255829883
 20
1030.786443230567
 30
0.0
 11
2773.886904748441
 21
1026.54992981872
 31
0.0
  0
LINE
  5
2F6
330
1F
100
AcDbEntity
  8
0
 62
     7
100
AcDbLine
 10
2773.886904748441
 20
1026.54992981872
 30
0.0
 11
2810.063906381567
 21
1022.939791081092
 31
0.0
  0
LINE
  5
2F7
330
1F
100
AcDbEntity
  8
0
 62
     7
100
AcDbLine
 10
2810.063906381567
 20
1022.939791081092
 30
0.0
 11
2848.447625624465
 21
1015.953177638096
 31
0.0
  0
LINE
  5
2F8
330
1F
100
AcDbEntity
  8
0
 62
     7
100
AcDbLine
 10
2848.447625624465
 20
1015.953177638096
 30
0.0
 11
2859.731381458668
 21
1013.832616591742
 31
0.0
  0
LINE
  5
2FA
330
1F
100
AcDbEntity
  8
0
 62
     7
100
AcDbLine
 10
2859.731381458668
 20
1011.78325293116
 30
0.0
 11
2859.731381458668
 21
980.1112690988157
 31
0.0
  0
LINE
  5
2FB
330
1F
100
AcDbEntity
  8
0
 62
     7
100
AcDbLine
 10
2859.731381458668
 20
981.694868290433
 30
0.0
 11
2859.731381458668
 21
980.1112690988157
 31
0.0
  0
LINE
  5
2FC
330
1F
100
AcDbEntity
  8
0
 62
     7
100
AcDbLine
 10
2859.731381458668
 20
1011.78325293116
 30
0.0
 11
2859.731381458668
 21
980.1112690988157
 31
0.0
  0
LINE
  5
2FD
330
1F
100
AcDbEntity
  8
Layer1
  6
Continuous
 62
     7
100
AcDbLine
 10
2778.967822686189
 20
971.3148587888907
 30
0.0
 11
2778.967822686189
 21
973.5505282359849
 31
0.0
  0
LINE
  5
2FE
330
1F
100
AcDbEntity
  8
Layer1
  6
Continuous
 62
     7
100
AcDbLine
 10
2714.759396165643
 20
981.1518043561052
 30
0.0
 11
2776.983625596121
 21
975.7720096179287
 31
0.0
  0
LINE
  5
2FF
330
1F
100
AcDbEntity
  8
Layer1
  6
Continuous
 62
     7
100
AcDbLine
 10
2714.759396165643
 20
981.1518043561052
 30
0.0
 11
2557.822853221103
 21
973.5505282359849
 31
0.0
  0
ARC
  5
300
330
1F
100
AcDbEntity
  8
Layer1
  6
Continuous
 62
     7
100
AcDbCircle
 10
2776.732153239095
 20
973.5505282359849
 30
0.0
 40
2.235669447094235
100
AcDbArc
 50
0.0
 51
86.57560249724879
  0
LINE
  5
301
330
1F
100
AcDbEntity
  8
Layer1
  6
Continuous
 62
     7
100
AcDbLine
 10
2859.731381458668
 20
1011.78325293116
 30
0.0
 11
2859.731381458668
 21
980.1112690988157
 31
0.0
  0
LINE
  5
302
330
1F
100
AcDbEntity
  8
Layer1
  6
Continuous
 62
     7
100
AcDbLine
 10
2859.731381458668
 20
995.9472610149882
 30
0.0
 11
2859.731381458668
 21
1013.832616591742
 31
0.0
  0
LINE
  5
303
330
1F
100
AcDbEntity
  8
Layer1
  6
Continuous
 62
     7
100
AcDbLine
 10
2859.731381458668
 20
995.9472610149882
 30
0.0
 11
2859.731381458668
 21
978.0619054382341
 31
0.0
  0
LINE
  5
304
330
1F
100
AcDbEntity
  8
0
100
AcDbLine
 10
2337.143648224982
 20
1011.866356196712
 30
0.0
 11
2432.806838395769
 21
1011.866356196712
 31
0.0
  0
LINE
  5
305
330
1F
100
AcDbEntity
  8
Layer1
  6
Continuous
 62
     7
100
AcDbLine
 10
2432.806838395769
 20
1011.866356196712
 30
0.0
 11
2432.806838395769
 21
1009.630686749618
 31
0.0
  0
LINE
  5
306
330
1F
100
AcDbEntity
  8
Layer1
  6
Continuous
 62
     7
100
AcDbLine
 10
2432.806838395769
 20
1009.630686749618
 30
0.0
 11
2337.143648224982
 21
1009.630686749618
 31
0.0
  0
LINE
  5
307
330
1F
100
AcDbEntity
  8
Layer1
  6
Continuous
 62
     0
100
AcDbLine
 10
2859.731381458668
 20
995.9472610149882
 30
0.0
 11
2860.994113200042
 21
995.9472610149882
 31
0.0
  0
LINE
  5
308
330
1F
100
AcDbEntity
  8
Layer1
  6
Continuous
 62
     0
100
AcDbLine
 10
2699.787863105328
 20
1019.701248889246
 30
0.0
 11
2337.143648224982
 21
1019.701248889246
 31
0.0
  0
LINE
  5
309
330
1F
100
AcDbEntity
  8
Layer1
  6
Continuous
 62
     0
100
AcDbLine
 10
2337.143648224982
 20
1019.701248889246
 30
0.0
 11
2337.143648224982
 21
1019.701248889246
 31
0.0
  0
LINE
  5
30A
330
1F
100
AcDbEntity
  8
Layer1
  6
Continuous
 62
     0
100
AcDbLine
 10
2337.143648224982
 20
992.7800626317536
 30
0.0
 11
2557.822853221103
 21
973.5505282359849
 31
0.0
  0
LINE
  5
30B
330
1F
100
AcDbEntity
  8
Layer1
  6
Continuous
 62
     0
100
AcDbLine
 10
2337.143648224982
 20
992.7800626317536
 30
0.0
 11
2337.143648224982
 21
1009.630686749618
 31
0.0
  0
LINE
  5
30C
330
1F
100
AcDbEntity
  8
Layer1
  6
Continuous
 62
     0
100
AcDbLine
 10
2337.143648224982
 20
1011.866356196712
 30
0.0
 11
2337.143648224982
 21
1019.701248889246
 31
0.0
  0
LINE
  5
30D
330
1F
100
AcDbEntity
  8
Layer1
  6
Continuous
 62
     0
100
AcDbLine
 10
2699.787863105328
 20
1019.701248889246
 30
0.0
 11
2714.040255829883
 21
1030.786443230567
 31
0.0
  0
LINE
  5
30F
330
1F
100
AcDbEntity
  8
Layer1
  6
Continuous
 62
     7
100
AcDbLine
 10
2334.383159174625
 20
1079.979939333207
 30
0.0
 11
2334.383159174625
 21
1077.007584662734
 31
0.0
  0
LINE
  5
310
330
1F
100
AcDbEntity
  8
Layer1
  6
Continuous
 62
     7
100
AcDbLine
 10
2334.383159174625
 20
1074.77191521564
 30
0.0
 11
2334.383159174625
 21
1071.799560545166
 31
0.0
  0
LINE
  5
311
330
1F
100
AcDbEntity
  8
Layer1
  6
Continuous
 62
     7
100
AcDbLine
 10
2334.383159174625
 20
1074.771915215639
 30
0.0
 11
2419.500090239261
 21
1074.771915215639
 31
0.0
  0
LINE
  5
312
330
1F
100
AcDbEntity
  8
Layer1
  6
Continuous
 62
     7
100
AcDbLine
 10
2419.500090239261
 20
1077.007584662734
 30
0.0
 11
2334.383159174625
 21
1077.007584662734
 31
0.0
  0
LINE
  5
313
330
1F
100
AcDbEntity
  8
0
 62
     7
100
AcDbLine
 10
2616.290940334826
 20
949.5352003240276
 30
0.0
 11
2564.702867844693
 21
949.5352003240276
 31
0.0
  0
LINE
  5
316
330
1F
100
AcDbEntity
  8
0
 62
     7
100
AcDbLine
 10
2616.290940334826
 20
912.8329602361679
 30
0.0
 11
2564.702867844693
 21
912.8329602361683
 31
0.0
  0
LINE
  5
317
330
1F
100
AcDbEntity
  8
Layer1
  6
Continuous
 62
     7
100
AcDbLine
 10
2616.290940334826
 20
912.8329602361679
 30
0.0
 11
2616.290940334826
 21
949.5352003240276
 31
0.0
  0
LINE
  5
318
330
1F
100
AcDbEntity
  8
Layer1
  6
Continuous
 62
     7
100
AcDbLine
 10
2339.831782635047
 20
927.0938908860774
 30
0.0
 11
2339.831782635047
 21
935.2742696741181
 31
0.0
  0
LINE
  5
319
330
1F
100
AcDbEntity
  8
Layer1
  6
Continuous
 62
     7
100
AcDbLine
 10
2419.500088876933
 20
1077.007584011034
 30
0.0
 11
2419.500088876933
 21
1074.77191456394
 31
0.0
  0
LINE
  5
31A
330
1F
100
AcDbEntity
  8
0
 62
     7
100
AcDbLine
 10
2810.970916794978
 20
1057.625196744589
 30
0.0
 11
2699.932667593471
 21
1057.625196744589
 31
0.0
  0
LINE
  5
31B
330
1F
100
AcDbEntity
  8
0
 62
     7
100
AcDbLine
 10
2810.970916794978
 20
1094.327436832449
 30
0.0
 11
2700.147622571799
 21
1094.326472956426
 31
0.0
  0
LINE
  5
31C
330
1F
100
AcDbEntity
  8
Layer1
  6
Continuous
 62
     7
100
AcDbLine
 10
2867.980487693198
 20
1075.976316788519
 30
0.0
 11
2867.980487693198
 21
1091.621569845711
 31
0.0
  0
LINE
  5
31D
330
1F
100
AcDbEntity
  8
Layer1
  6
Continuous
 62
     7
100
AcDbLine
 10
2867.980487693198
 20
1075.976316788519
 30
0.0
 11
2867.980487693198
 21
1060.331063722095
 31
0.0
  0
LINE
  5
320
330
1F
100
AcDbEntity
  8
0
 62
     7
100
AcDbLine
 10
2803.578506254499
 20
915.6384039959752
 30
0.0
 11
2779.824518380241
 21
915.6384039959752
 31
0.0
  0
LINE
  5
321
330
1F
100
AcDbEntity
  8
0
 62
     7
100
AcDbLine
 10
2803.578506254499
 20
952.3406440838344
 30
0.0
 11
2779.824518380241
 21
952.3406440838346
 31
0.0
  0
LINE
  5
322
330
1F
100
AcDbEntity
  8
Layer1
  6
Continuous
 62
     7
100
AcDbLine
 10
2860.58807715272
 20
933.9895240399046
 30
0.0
 11
2860.58807715272
 21
949.634777097097
 31
0.0
  0
LINE
  5
323
330
1F
100
AcDbEntity
  8
Layer1
  6
Continuous
 62
     7
100
AcDbLine
 10
2860.58807715272
 20
933.9895240399046
 30
0.0
 11
2860.58807715272
 21
918.3442709734803
 31
0.0
  0
LINE
  5
326
330
1F
100
AcDbEntity
  8
Layer1
  6
Continuous
 62
     7
100
AcDbLine
 10
2779.824518380241
 20
952.340644083835
 30
0.0
 11
2779.824518380241
 21
915.638403995975
 31
0.0
  0
LINE
  5
327
330
1F
100
AcDbEntity
  8
Layer1
  6
Continuous
 62
     7
100
AcDbLine
 10
2794.866078885339
 20
1159.718085912735
 30
0.0
 11
2830.636790038846
 21
1159.718085912735
 31
0.0
  0
LINE
  5
328
330
1F
100
AcDbEntity
  8
Layer1
  6
Continuous
 62
     7
100
AcDbLine
 10
2797.101748332433
 20
1157.482416465641
 30
0.0
 11
2828.401120591752
 21
1157.482416465641
 31
0.0
  0
LINE
  5
329
330
1F
100
AcDbEntity
  8
Layer1
  6
Continuous
 62
     7
100
AcDbLine
 10
2830.636790038846
 20
1159.718085912735
 30
0.0
 11
2830.636790038846
 21
1123.947374759227
 31
0.0
  0
LINE
  5
32A
330
1F
100
AcDbEntity
  8
Layer1
  6
Continuous
 62
     7
100
AcDbLine
 10
2828.401120591752
 20
1157.482416465641
 30
0.0
 11
2828.401120591752
 21
1126.183044206322
 31
0.0
  0
LINE
  5
32B
330
1F
100
AcDbEntity
  8
Layer1
  6
Continuous
 62
     7
100
AcDbLine
 10
2830.636790038846
 20
1123.947374759227
 30
0.0
 11
2794.866078885339
 21
1123.947374759227
 31
0.0
  0
LINE
  5
32C
330
1F
100
AcDbEntity
  8
Layer1
  6
Continuous
 62
     7
100
AcDbLine
 10
2828.401120591752
 20
1126.183044206322
 30
0.0
 11
2797.101748332433
 21
1126.183044206322
 31
0.0
  0
LINE
  5
32D
330
1F
100
AcDbEntity
  8
Layer1
  6
Continuous
 62
     7
100
AcDbLine
 10
2794.866078885339
 20
1123.947374759227
 30
0.0
 11
2794.866078885339
 21
1159.718085912735
 31
0.0
  0
LINE
  5
32E
330
1F
100
AcDbEntity
  8
Layer1
  6
Continuous
 62
     7
100
AcDbLine
 10
2797.101748332433
 20
1126.183044206322
 30
0.0
 11
2797.101748332433
 21
1157.482416465641
 31
0.0
  0
LINE
  5
32F
330
1F
100
AcDbEntity
  8
Layer1
  6
Continuous
 62
     7
100
AcDbLine
 10
2812.751434462093
 20
1131.654159798681
 30
0.0
 11
2812.751434462093
 21
1131.654159798681
 31
0.0
  0
LINE
  5
330
330
1F
100
AcDbEntity
  8
Layer1
  6
Continuous
 62
     7
100
AcDbLine
 10
2812.751434462093
 20
1152.011300873282
 30
0.0
 11
2812.751434462093
 21
1152.011300873282
 31
0.0
  0
LINE
  5
331
330
1F
100
AcDbEntity
  8
Layer1
  6
Continuous
 62
     7
100
AcDbLine
 10
2821.322862282977
 20
1141.832730335981
 30
0.0
 11
2821.322862282977
 21
1141.832730335981
 31
0.0
  0
LINE
  5
332
330
1F
100
AcDbEntity
  8
Layer1
  6
Continuous
 62
     7
100
AcDbLine
 10
2804.180006641208
 20
1141.832730335981
 30
0.0
 11
2804.180006641208
 21
1141.832730335981
 31
0.0
  0
CIRCLE
  5
333
330
1F
100
AcDbEntity
  8
Layer1
  6
Continuous
 62
     7
100
AcDbCircle
 10
2812.751434462093
 20
1131.654159798681
 30
0.0
 40
1.607142716415912
  0
CIRCLE
  5
334
330
1F
100
AcDbEntity
  8
Layer1
  6
Continuous
 62
     7
100
AcDbCircle
 10
2821.322862282977
 20
1141.832730335981
 30
0.0
 40
1.607142716415912
  0
CIRCLE
  5
335
330
1F
100
AcDbEntity
  8
Layer1
  6
Continuous
 62
     7
100
AcDbCircle
 10
2804.180006641208
 20
1141.832730335981
 30
0.0
 40
1.607142716415912
  0
CIRCLE
  5
336
330
1F
100
AcDbEntity
  8
Layer1
  6
Continuous
 62
     7
100
AcDbCircle
 10
2812.751434462093
 20
1152.011300873282
 30
0.0
 40
1.607142716415912
  0
CIRCLE
  5
337
330
1F
100
AcDbEntity
  8
Layer1
  6
Continuous
 62
     7
100
AcDbCircle
 10
2812.751434462093
 20
1141.832730335981
 30
0.0
 40
14.99999868654852
  0
LINE
  5
338
330
1F
100
AcDbEntity
  8
Layer1
  6
Continuous
 62
     7
100
AcDbLine
 10
2812.751434462093
 20
1141.832730335981
 30
0.0
 11
2812.751434462093
 21
1141.832730335981
 31
0.0
  0
CIRCLE
  5
339
330
1F
100
AcDbEntity
  8
Layer1
  6
Continuous
 62
     7
100
AcDbCircle
 10
2812.751434462093
 20
1141.832730335981
 30
0.0
 40
4.285713910442433
  0
LINE
  5
33A
330
1F
100
AcDbEntity
  8
0
 62
     7
100
AcDbLine
 10
2717.683105351736
 20
838.695331304615
 30
0.0
 11
2777.529754270294
 21
842.9318447164623
 31
0.0
  0
LINE
  5
33B
330
1F
100
AcDbEntity
  8
0
 62
     7
100
AcDbLine
 10
2777.529754270294
 20
842.9318447164623
 30
0.0
 11
2813.70675590342
 21
846.5419834540899
 31
0.0
  0
LINE
  5
33C
330
1F
100
AcDbEntity
  8
0
 62
     7
100
AcDbLine
 10
2813.70675590342
 20
846.5419834540899
 30
0.0
 11
2852.090475146318
 21
853.5285968970862
 31
0.0
  0
LINE
  5
33D
330
1F
100
AcDbEntity
  8
0
 62
     7
100
AcDbLine
 10
2852.090475146318
 20
853.5285968970862
 30
0.0
 11
2863.374230980521
 21
855.6491579434402
 31
0.0
  0
LINE
  5
33F
330
1F
100
AcDbEntity
  8
0
 62
     7
100
AcDbLine
 10
2863.374230980521
 20
857.6985216040219
 30
0.0
 11
2863.374230980521
 21
889.3705054363666
 31
0.0
  0
LINE
  5
340
330
1F
100
AcDbEntity
  8
0
 62
     7
100
AcDbLine
 10
2863.374230980521
 20
887.7869062447492
 30
0.0
 11
2863.374230980521
 21
889.3705054363666
 31
0.0
  0
LINE
  5
341
330
1F
100
AcDbEntity
  8
0
 62
     7
100
AcDbLine
 10
2863.374230980521
 20
857.6985216040219
 30
0.0
 11
2863.374230980521
 21
889.3705054363666
 31
0.0
  0
LINE
  5
342
330
1F
100
AcDbEntity
  8
Layer1
  6
Continuous
 62
     7
100
AcDbLine
 10
2782.610672208042
 20
898.1669157462915
 30
0.0
 11
2782.610672208042
 21
895.9312462991974
 31
0.0
  0
LINE
  5
343
330
1F
100
AcDbEntity
  8
Layer1
  6
Continuous
 62
     7
100
AcDbLine
 10
2718.402245687496
 20
888.329970179077
 30
0.0
 11
2780.626475117975
 21
893.7097649172535
 31
0.0
  0
LINE
  5
344
330
1F
100
AcDbEntity
  8
Layer1
  6
Continuous
 62
     7
100
AcDbLine
 10
2718.402245687496
 20
888.329970179077
 30
0.0
 11
2561.465702742957
 21
895.9312462991974
 31
0.0
  0
ARC
  5
345
330
1F
100
AcDbEntity
  8
Layer1
  6
Continuous
 62
     7
100
AcDbCircle
 10
2780.375002760948
 20
895.9312462991974
 30
0.0
 40
2.235669447094235
100
AcDbArc
 50
273.4243975027512
 51
0.0
  0
LINE
  5
346
330
1F
100
AcDbEntity
  8
Layer1
  6
Continuous
 62
     7
100
AcDbLine
 10
2863.374230980521
 20
857.6985216040219
 30
0.0
 11
2863.374230980521
 21
889.3705054363666
 31
0.0
  0
LINE
  5
347
330
1F
100
AcDbEntity
  8
Layer1
  6
Continuous
 62
     7
100
AcDbLine
 10
2863.374230980521
 20
873.534513520194
 30
0.0
 11
2863.374230980521
 21
855.6491579434402
 31
0.0
  0
LINE
  5
348
330
1F
100
AcDbEntity
  8
Layer1
  6
Continuous
 62
     7
100
AcDbLine
 10
2863.374230980521
 20
873.534513520194
 30
0.0
 11
2863.374230980521
 21
891.4198690969479
 31
0.0
  0
LINE
  5
349
330
1F
100
AcDbEntity
  8
0
100
AcDbLine
 10
2340.786497746836
 20
857.61541833847
 30
0.0
 11
2436.449687917622
 21
857.61541833847
 31
0.0
  0
LINE
  5
34A
330
1F
100
AcDbEntity
  8
Layer1
  6
Continuous
 62
     7
100
AcDbLine
 10
2436.449687917622
 20
857.61541833847
 30
0.0
 11
2436.449687917622
 21
859.8510877855643
 31
0.0
  0
LINE
  5
34B
330
1F
100
AcDbEntity
  8
Layer1
  6
Continuous
 62
     7
100
AcDbLine
 10
2436.449687917622
 20
859.8510877855643
 30
0.0
 11
2340.786497746836
 21
859.8510877855643
 31
0.0
  0
LINE
  5
34C
330
1F
100
AcDbEntity
  8
Layer1
  6
Continuous
 62
     0
100
AcDbLine
 10
2863.374230980521
 20
873.534513520194
 30
0.0
 11
2864.636962721896
 21
873.534513520194
 31
0.0
  0
LINE
  5
34D
330
1F
100
AcDbEntity
  8
Layer1
  6
Continuous
 62
     0
100
AcDbLine
 10
2703.430712627181
 20
849.7805256459358
 30
0.0
 11
2340.786497746836
 21
849.7805256459358
 31
0.0
  0
LINE
  5
34E
330
1F
100
AcDbEntity
  8
Layer1
  6
Continuous
 62
     0
100
AcDbLine
 10
2340.786497746836
 20
849.7805256459358
 30
0.0
 11
2340.786497746836
 21
849.7805256459358
 31
0.0
  0
LINE
  5
34F
330
1F
100
AcDbEntity
  8
Layer1
  6
Continuous
 62
     0
100
AcDbLine
 10
2340.786497746836
 20
876.7017119034287
 30
0.0
 11
2561.465702742957
 21
895.9312462991974
 31
0.0
  0
LINE
  5
350
330
1F
100
AcDbEntity
  8
Layer1
  6
Continuous
 62
     0
100
AcDbLine
 10
2340.786497746836
 20
876.7017119034287
 30
0.0
 11
2340.786497746836
 21
859.8510877855643
 31
0.0
  0
LINE
  5
351
330
1F
100
AcDbEntity
  8
Layer1
  6
Continuous
 62
     0
100
AcDbLine
 10
2340.786497746836
 20
857.61541833847
 30
0.0
 11
2340.786497746836
 21
849.7805256459358
 31
0.0
  0
LINE
  5
352
330
1F
100
AcDbEntity
  8
Layer1
  6
Continuous
 62
     0
100
AcDbLine
 10
2703.430712627181
 20
849.7805256459358
 30
0.0
 11
2717.683105351736
 21
838.695331304615
 31
0.0
  0
LINE
  5
353
330
1F
100
AcDbEntity
  8
Layer1
  6
Continuous
 62
     0
100
AcDbLine
 10
2555.155196141439
 20
1094.326472956426
 30
0.0
 11
2700.147622571799
 21
1094.326472956426
 31
0.0
  0
LINE
  5
354
330
1F
100
AcDbEntity
  8
Layer1
  6
Continuous
 62
     0
100
AcDbLine
 10
2699.932667593471
 20
1057.625196744589
 30
0.0
 11
2555.161556682817
 21
1057.625196744589
 31
0.0
  0
LINE
  5
357
330
1F
100
AcDbEntity
  8
0
 62
     7
370
    15
100
AcDbLine
 10
2612.031649585115
 20
1132.384461562811
 30
0.0
 11
2612.031649585115
 21
1130.800862371194
 31
0.0
  0
LINE
  5
358
330
1F
100
AcDbEntity
  8
0
 62
     7
370
    15
100
AcDbLine
 10
2612.031649585115
 20
1132.384461562811
 30
0.0
 11
2612.031649585115
 21
1157.722048628687
 31
0.0
  0
LINE
  5
359
330
1F
100
AcDbEntity
  8
0
 62
     7
370
    15
100
AcDbLine
 10
2613.549828515512
 20
1157.722048628687
 30
0.0
 11
2612.031649585115
 21
1157.722048628687
 31
0.0
  0
ARC
  5
35A
330
1F
100
AcDbEntity
  8
0
 62
     7
370
    15
100
AcDbCircle
 10
2613.676613728447
 20
1154.554850245452
 30
0.0
 40
3.167198383234456
100
AcDbArc
 50
38.65980825408705
 51
90.0
  0
LINE
  5
35B
330
1F
100
AcDbEntity
  8
0
 62
     7
370
    15
100
AcDbLine
 10
2613.676613728447
 20
1157.722048628687
 30
0.0
 11
2612.031649585115
 21
1157.722048628687
 31
0.0
  0
LINE
  5
35C
330
1F
100
AcDbEntity
  8
0
 62
     7
370
    15
100
AcDbLine
 10
2627.867641501287
 20
1141.886056712515
 30
0.0
 11
2616.149780159233
 21
1156.533383390081
 31
0.0
  0
LINE
  5
35D
330
1F
100
AcDbEntity
  8
0
 62
     7
370
    15
100
AcDbLine
 10
2583.526864136004
 20
1157.722048628687
 30
0.0
 11
2583.526864136004
 21
1130.800862371194
 31
0.0
  0
LINE
  5
35E
330
1F
100
AcDbEntity
  8
0
 62
     7
370
    15
100
AcDbLine
 10
2612.031649585115
 20
1157.722048628687
 30
0.0
 11
2583.526864136004
 21
1157.722048628687
 31
0.0
  0
LINE
  5
360
330
1F
100
AcDbEntity
  8
0
 62
     7
370
    15
100
AcDbLine
 10
2555.022078686894
 20
1140.302457520897
 30
0.0
 11
2555.022078686894
 21
1133.968060754429
 31
0.0
  0
LINE
  5
361
330
1F
100
AcDbEntity
  8
0
 62
     7
370
    15
100
AcDbLine
 10
2555.022078686894
 20
1133.968060754429
 30
0.0
 11
2583.526864136004
 21
1133.968060754429
 31
0.0
  0
LINE
  5
367
330
1F
100
AcDbEntity
  8
0
 62
     7
370
    15
100
AcDbLine
 10
2754.509556981838
 20
1155.122425864727
 30
0.0
 11
2754.509556981838
 21
1132.952037182086
 31
0.0
  0
LINE
  5
368
330
1F
100
AcDbEntity
  8
0
 62
     7
370
    15
100
AcDbLine
 10
2743.424362640518
 20
1155.122425864727
 30
0.0
 11
2754.509556981838
 21
1155.122425864727
 31
0.0
  0
LINE
  5
369
330
1F
100
AcDbEntity
  8
0
 62
     7
370
    15
100
AcDbLine
 10
2667.411601442891
 20
1155.122425864727
 30
0.0
 11
2667.411601442891
 21
1132.952037182086
 31
0.0
  0
LINE
  5
36A
330
1F
100
AcDbEntity
  8
0
 62
     7
370
    15
100
AcDbLine
 10
2687.998390933915
 20
1155.122425864727
 30
0.0
 11
2687.998390933915
 21
1132.952037182086
 31
0.0
  0
LINE
  5
36B
330
1F
100
AcDbEntity
  8
0
 62
     7
370
    15
100
AcDbLine
 10
2743.424362640518
 20
1155.122425864727
 30
0.0
 11
2667.411601442891
 21
1155.122425864727
 31
0.0
  0
LINE
  5
36C
330
1F
100
AcDbEntity
  8
0
 62
     7
370
    15
100
AcDbLine
 10
2707.001581233321
 20
1132.952037182086
 30
0.0
 11
2667.411601442891
 21
1132.952037182086
 31
0.0
  0
LINE
  5
36D
330
1F
100
AcDbEntity
  8
0
 62
     7
370
    15
100
AcDbLine
 10
2707.001581233321
 20
1132.952037182086
 30
0.0
 11
2707.001581233321
 21
1123.450442032382
 31
0.0
  0
LINE
  5
36E
330
1F
100
AcDbEntity
  8
0
 62
     7
370
    15
100
AcDbLine
 10
2707.001581233321
 20
1156.706025056344
 30
0.0
 11
2707.001581233321
 21
1164.62402101443
 31
0.0
  0
LINE
  5
36F
330
1F
100
AcDbEntity
  8
0
 62
     7
370
    15
100
AcDbLine
 10
2743.424362640518
 20
1132.952037182086
 30
0.0
 11
2743.424362640518
 21
1123.450442032382
 31
0.0
  0
LINE
  5
370
330
1F
100
AcDbEntity
  8
0
 62
     7
370
    15
100
AcDbLine
 10
2743.424362640518
 20
1156.706025056344
 30
0.0
 11
2743.424362640518
 21
1164.62402101443
 31
0.0
  0
LINE
  5
371
330
1F
100
AcDbEntity
  8
0
 62
     7
370
    15
100
AcDbLine
 10
2754.509556981838
 20
1132.952037182086
 30
0.0
 11
2743.424362640518
 21
1132.952037182086
 31
0.0
  0
LINE
  5
372
330
1F
100
AcDbEntity
  8
0
 62
     7
370
    15
100
AcDbLine
 10
2707.001581233321
 20
1132.952037182086
 30
0.0
 11
2707.001581233321
 21
1156.706025056344
 31
0.0
  0
LINE
  5
373
330
1F
100
AcDbEntity
  8
0
 62
     7
370
    15
100
AcDbLine
 10
2743.424362640518
 20
1132.952037182086
 30
0.0
 11
2707.001581233321
 21
1132.952037182086
 31
0.0
  0
LINE
  5
374
330
1F
100
AcDbEntity
  8
0
 62
     7
370
    15
100
AcDbLine
 10
2743.424362640518
 20
1156.706025056344
 30
0.0
 11
2743.424362640518
 21
1132.952037182086
 31
0.0
  0
LINE
  5
375
330
1F
100
AcDbEntity
  8
Layer1
 62
     7
370
    15
100
AcDbLine
 10
2707.001581233321
 20
1164.62402101443
 30
0.0
 11
2743.424362640518
 21
1164.62402101443
 31
0.0
  0
LINE
  5
376
330
1F
100
AcDbEntity
  8
Layer1
 62
     7
370
    15
100
AcDbLine
 10
2743.424362640518
 20
1123.450442032382
 30
0.0
 11
2707.001581233321
 21
1123.450442032382
 31
0.0
  0
LINE
  5
377
330
1F
100
AcDbEntity
  8
Layer1
 62
     7
370
    15
100
AcDbLine
 10
2532.851690004254
 20
1130.800862371194
 30
0.0
 11
2532.851690004254
 21
1125.435255698168
 31
0.0
  0
LINE
  5
378
330
1F
100
AcDbEntity
  8
Layer1
 62
     7
370
    15
100
AcDbLine
 10
2532.851690004254
 20
1125.435255698168
 30
0.0
 11
2613.615248776732
 21
1125.435255698168
 31
0.0
  0
LINE
  5
379
330
1F
100
AcDbEntity
  8
Layer1
 62
     7
370
    15
100
AcDbLine
 10
2613.615248776732
 20
1125.435255698168
 30
0.0
 11
2613.615248776732
 21
1130.800862371194
 31
0.0
  0
LINE
  5
37A
330
1F
100
AcDbEntity
  8
Layer1
  6
Continuous
 62
     0
100
AcDbLine
 10
2226.385099692246
 20
1076.147112960408
 30
0.0
 11
2213.309461175331
 21
1114.134651705777
 31
0.0
  0
LINE
  5
37B
330
1F
100
AcDbEntity
  8
Layer1
  6
Continuous
 62
     0
100
AcDbLine
 10
2213.309461175331
 20
1114.134651705777
 30
0.0
 11
2551.62383064574
 21
1207.842864296352
 31
0.0
  0
LINE
  5
37C
330
1F
100
AcDbEntity
  8
0
100
AcDbLine
 10
2552.079278004214
 20
1210.874210868016
 30
0.0
 11
2180.830800035582
 21
1110.698508119096
 31
0.0
  0
LINE
  5
37D
330
1F
100
AcDbEntity
  8
0
100
AcDbLine
 10
2548.971862917454
 20
1234.445038567369
 30
0.0
 11
2552.079278004214
 21
1210.874210868016
 31
0.0
  0
LINE
  5
380
330
1F
100
AcDbEntity
  8
0
  6
Continuous
100
AcDbLine
 10
2163.956529235858
 20
1255.194106946023
 30
0.0
 11
2180.830800035582
 21
1110.698508119096
 31
0.0
  0
LINE
  5
381
330
1F
100
AcDbEntity
  8
0
100
AcDbLine
 10
2548.967192112265
 20
1276.029665015078
 30
0.0
 11
2552.069312147342
 21
1299.601190172395
 31
0.0
  0
LINE
  5
382
330
1F
100
AcDbEntity
  8
0
100
AcDbLine
 10
2552.069312147342
 20
1299.601190172395
 30
0.0
 11
2180.798339980291
 21
1399.693492780534
 31
0.0
  0
LINE
  5
383
330
1F
100
AcDbEntity
  8
0
100
AcDbLine
 10
2548.967192112266
 20
1276.029665015078
 30
0.0
 11
2552.069312147342
 21
1299.601190172395
 31
0.0
  0
LINE
  5
385
330
1F
100
AcDbEntity
  8
0
  6
Continuous
100
AcDbLine
 10
2163.956529235858
 20
1255.194106947156
 30
0.0
 11
2180.798339980291
 21
1399.693492780534
 31
0.0
  0
LINE
  5
387
330
1F
100
AcDbEntity
  8
0
100
AcDbLine
 10
2118.325461304729
 20
882.1122980863584
 30
0.0
 11
2118.325461304729
 21
880.5286988947411
 31
0.0
  0
LINE
  5
388
330
1F
100
AcDbEntity
  8
0
100
AcDbLine
 10
2118.325461304729
 20
882.1122980863584
 30
0.0
 11
2118.325461304729
 21
907.449885152234
 31
0.0
  0
LINE
  5
389
330
1F
100
AcDbEntity
  8
0
100
AcDbLine
 10
2119.843640235126
 20
907.449885152234
 30
0.0
 11
2118.325461304729
 21
907.449885152234
 31
0.0
  0
ARC
  5
38A
330
1F
100
AcDbEntity
  8
0
100
AcDbCircle
 10
2119.970425448061
 20
904.2826867689996
 30
0.0
 40
3.167198383234456
100
AcDbArc
 50
38.65980825408705
 51
90.0
  0
LINE
  5
38B
330
1F
100
AcDbEntity
  8
0
100
AcDbLine
 10
2119.970425448061
 20
907.449885152234
 30
0.0
 11
2118.325461304729
 21
907.449885152234
 31
0.0
  0
LINE
  5
38C
330
1F
100
AcDbEntity
  8
0
100
AcDbLine
 10
2134.161453220901
 20
891.6138932360619
 30
0.0
 11
2122.443591878847
 21
906.2612199136285
 31
0.0
  0
LINE
  5
38D
330
1F
100
AcDbEntity
  8
0
100
AcDbLine
 10
2089.820675855619
 20
907.449885152234
 30
0.0
 11
2089.820675855619
 21
880.5286988947411
 31
0.0
  0
LINE
  5
38E
330
1F
100
AcDbEntity
  8
0
100
AcDbLine
 10
2118.325461304729
 20
907.449885152234
 30
0.0
 11
2089.820675855619
 21
907.449885152234
 31
0.0
  0
LINE
  5
390
330
1F
100
AcDbEntity
  8
0
100
AcDbLine
 10
2061.315890406508
 20
890.0302940444445
 30
0.0
 11
2061.315890406508
 21
883.6958972779758
 31
0.0
  0
LINE
  5
391
330
1F
100
AcDbEntity
  8
0
100
AcDbLine
 10
2061.315890406508
 20
883.6958972779758
 30
0.0
 11
2089.820675855619
 21
883.6958972779758
 31
0.0
  0
LINE
  5
393
330
1F
100
AcDbEntity
  8
0
100
AcDbLine
 10
2222.843007951466
 20
883.4583246844232
 30
0.0
 11
2222.843007951466
 21
833.0207231462242
 31
0.0
  0
LINE
  5
395
330
1F
100
AcDbEntity
  8
0
 62
     7
100
AcDbLine
 10
2279.852578849685
 20
872.610702936655
 30
0.0
 11
2279.852578849685
 21
840.9387191043103
 31
0.0
  0
LINE
  5
396
330
1F
100
AcDbEntity
  8
0
100
AcDbLine
 10
2222.843007951466
 20
882.1122980863584
 30
0.0
 11
2222.843007951466
 21
882.5873785004084
 31
0.0
  0
LINE
  5
397
330
1F
100
AcDbEntity
  8
0
100
AcDbLine
 10
2279.852578849685
 20
842.5223182959276
 30
0.0
 11
2279.852578849685
 21
840.9387191043103
 31
0.0
  0
LINE
  5
398
330
1F
100
AcDbEntity
  8
0
 62
     7
100
AcDbLine
 10
2279.852578849685
 20
872.610702936655
 30
0.0
 11
2279.852578849685
 21
840.9387191043103
 31
0.0
  0
LINE
  5
399
330
1F
100
AcDbEntity
  8
Layer1
  6
Continuous
 62
     7
100
AcDbLine
 10
1977.944050612121
 20
832.1423087943854
 30
0.0
 11
1977.944050612121
 21
834.3779782414797
 31
0.0
  0
LINE
  5
39A
330
1F
100
AcDbEntity
  8
Layer1
  6
Continuous
 62
     7
100
AcDbLine
 10
2199.089020077207
 20
832.1423087943854
 30
0.0
 11
2199.089020077207
 21
834.3779782414797
 31
0.0
  0
LINE
  5
39B
330
1F
100
AcDbEntity
  8
Layer1
  6
Continuous
 62
     7
100
AcDbLine
 10
1977.944050612121
 20
834.3779782414797
 30
0.0
 11
2199.089020077207
 21
834.3779782414797
 31
0.0
  0
LINE
  5
39C
330
1F
100
AcDbEntity
  8
Layer1
  6
Continuous
 62
     7
100
AcDbLine
 10
1977.944050612121
 20
832.1423087943854
 30
0.0
 11
2199.089020077207
 21
832.1423087943854
 31
0.0
  0
LINE
  5
39D
330
1F
100
AcDbEntity
  8
Layer1
  6
Continuous
 62
     7
100
AcDbLine
 10
2199.089020077207
 20
834.3779782414797
 30
0.0
 11
2134.880593556661
 21
834.3779782414797
 31
0.0
  0
LINE
  5
39E
330
1F
100
AcDbEntity
  8
Layer1
  6
Continuous
 62
     7
100
AcDbLine
 10
2134.880593556661
 20
834.3779782414797
 30
0.0
 11
2134.880593556661
 21
837.0607815779928
 31
0.0
  0
CIRCLE
  5
39F
330
1F
100
AcDbEntity
  8
Layer1
  6
Continuous
 62
     7
100
AcDbCircle
 10
2134.880593556661
 20
837.0607815779928
 30
0.0
 40
2.682803336513083
  0
LINE
  5
3A0
330
1F
100
AcDbEntity
  8
Layer1
  6
Continuous
 62
     7
100
AcDbLine
 10
2199.089020077207
 20
834.3779782414797
 30
0.0
 11
2134.880593556661
 21
839.7435849145058
 31
0.0
  0
LINE
  5
3A1
330
1F
100
AcDbEntity
  8
Layer1
  6
Continuous
 62
     7
100
AcDbLine
 10
2033.724003315782
 20
834.3779782414797
 30
0.0
 11
2134.880593556661
 21
839.7435849145058
 31
0.0
  0
LINE
  5
3A2
330
1F
100
AcDbEntity
  8
Layer1
  6
Continuous
 62
     7
100
AcDbLine
 10
2033.724003315782
 20
834.3779782414797
 30
0.0
 11
2033.516590630011
 21
836.6040056120329
 31
0.0
  0
LINE
  5
3A3
330
1F
100
AcDbEntity
  8
Layer1
  6
Continuous
 62
     7
100
AcDbLine
 10
2134.880593556661
 20
839.7435849145058
 30
0.0
 11
2134.880593556661
 21
841.9792543616001
 31
0.0
  0
LINE
  5
3A4
330
1F
100
AcDbEntity
  8
Layer1
  6
Continuous
 62
     7
100
AcDbLine
 10
2134.880593556661
 20
841.9792543616001
 30
0.0
 11
2197.104822987139
 21
836.5994596234234
 31
0.0
  0
LINE
  5
3A5
330
1F
100
AcDbEntity
  8
Layer1
  6
Continuous
 62
     7
100
AcDbLine
 10
2134.880593556661
 20
841.9792543616001
 30
0.0
 11
2033.516590630011
 21
836.6040056120329
 31
0.0
  0
LINE
  5
3A6
330
1F
100
AcDbEntity
  8
Layer1
  6
Continuous
 62
     7
100
AcDbLine
 10
2199.089020077207
 20
834.3779782414797
 30
0.0
 11
2196.853350630113
 21
834.3779782414797
 31
0.0
  0
ARC
  5
3A7
330
1F
100
AcDbEntity
  8
Layer1
  6
Continuous
 62
     7
100
AcDbCircle
 10
2196.853350630113
 20
834.3779782414797
 30
0.0
 40
2.235669447094235
100
AcDbArc
 50
270.0
 51
86.57560249723578
  0
LINE
  5
3A8
330
1F
100
AcDbEntity
  8
Layer1
  6
Continuous
 62
     7
100
AcDbLine
 10
2279.852578849685
 20
872.610702936655
 30
0.0
 11
2279.852578849685
 21
840.9387191043103
 31
0.0
  0
LINE
  5
3A9
330
1F
100
AcDbEntity
  8
Layer1
  6
Continuous
 62
     7
100
AcDbLine
 10
2279.852578849685
 20
856.7747110204827
 30
0.0
 11
2279.852578849685
 21
874.6600665972366
 31
0.0
  0
LINE
  5
3AA
330
1F
100
AcDbEntity
  8
Layer1
  6
Continuous
 62
     7
100
AcDbLine
 10
2279.852578849685
 20
856.7747110204827
 30
0.0
 11
2279.852578849685
 21
838.8893554437288
 31
0.0
  0
LINE
  5
3AB
330
1F
100
AcDbEntity
  8
Layer1
  6
Continuous
 62
     7
100
AcDbLine
 10
2279.852578849685
 20
856.7747110204827
 30
0.0
 11
2270.909901061309
 21
856.7747110204827
 31
0.0
  0
LINE
  5
3AC
330
1F
100
AcDbEntity
  8
Layer1
  6
Continuous
 62
     7
100
AcDbLine
 10
2270.909901061309
 20
856.7747110204827
 30
0.0
 11
2288.795256638063
 21
856.7747110204827
 31
0.0
  0
CIRCLE
  5
3AD
330
1F
100
AcDbEntity
  8
Layer1
  6
Continuous
 62
     7
100
AcDbCircle
 10
2138.277812937394
 20
834.3111785442271
 30
0.0
 40
1.341401668256541
  0
LINE
  5
3AE
330
1F
100
AcDbEntity
  8
Layer1
  6
Continuous
 62
     7
100
AcDbLine
 10
2138.277812937394
 20
834.3111785442271
 30
0.0
 11
2138.277812937394
 21
834.3111785442271
 31
0.0
  0
LINE
  5
3AF
330
1F
100
AcDbEntity
  8
0
100
AcDbLine
 10
1757.264845616
 20
872.6938062022069
 30
0.0
 11
1852.928035786786
 21
872.6938062022069
 31
0.0
  0
LINE
  5
3B0
330
1F
100
AcDbEntity
  8
Layer1
  6
Continuous
 62
     7
100
AcDbLine
 10
1852.928035786786
 20
872.6938062022069
 30
0.0
 11
1852.928035786786
 21
870.4581367551126
 31
0.0
  0
LINE
  5
3B1
330
1F
100
AcDbEntity
  8
Layer1
  6
Continuous
 62
     7
100
AcDbLine
 10
1852.928035786786
 20
870.4581367551126
 30
0.0
 11
1757.264845616
 21
870.4581367551126
 31
0.0
  0
LINE
  5
3B2
330
1F
100
AcDbEntity
  8
Layer1
  6
Continuous
 62
     0
100
AcDbLine
 10
2119.909060496346
 20
880.5286988947411
 30
0.0
 11
1757.264845616
 21
880.5286988947411
 31
0.0
  0
LINE
  5
3B3
330
1F
100
AcDbEntity
  8
Layer1
  6
Continuous
 62
     0
100
AcDbLine
 10
1757.264845616
 20
880.5286988947411
 30
0.0
 11
1757.264845616
 21
880.5286988947411
 31
0.0
  0
LINE
  5
3B4
330
1F
100
AcDbEntity
  8
Layer1
  6
Continuous
 62
     0
100
AcDbLine
 10
1757.264845616
 20
853.6075126372482
 30
0.0
 11
1977.944050612121
 21
834.3779782414795
 31
0.0
  0
LINE
  5
3B5
330
1F
100
AcDbEntity
  8
Layer1
  6
Continuous
 62
     0
100
AcDbLine
 10
1757.264845616
 20
853.6075126372482
 30
0.0
 11
1757.264845616
 21
870.4581367551126
 31
0.0
  0
LINE
  5
3B6
330
1F
100
AcDbEntity
  8
Layer1
  6
Continuous
 62
     0
100
AcDbLine
 10
1757.264845616
 20
872.6938062022069
 30
0.0
 11
1757.264845616
 21
880.5286988947411
 31
0.0
  0
LINE
  5
3B7
330
1F
100
AcDbEntity
  8
0
100
AcDbLine
 10
1763.336962952809
 20
958.686075726386
 30
0.0
 11
1766.334340950837
 21
958.686075726386
 31
0.0
  0
LINE
  5
3B9
330
1F
100
AcDbEntity
  8
0
100
AcDbLine
 10
1722.847754307395
 20
888.8717568108269
 30
0.0
 11
1739.874728278591
 21
944.8361222182574
 31
0.0
  0
LINE
  5
3BC
330
1F
100
AcDbEntity
  8
0
100
AcDbLine
 10
1832.990173152532
 20
889.3056398644533
 30
0.0
 11
1791.118818202731
 21
947.1279871760833
 31
0.0
  0
LINE
  5
3BD
330
1F
100
AcDbEntity
  8
0
  6
Continuous
100
AcDbLine
 10
1722.847754307395
 20
888.8717568108267
 30
0.0
 11
1722.816653313161
 21
888.7696790411885
 31
0.0
  0
LINE
  5
3BE
330
1F
100
AcDbEntity
  8
0
  6
Continuous
100
AcDbLine
 10
1757.338601037299
 20
873.0948948933649
 30
0.0
 11
1722.816653313161
 21
888.7696790411887
 31
0.0
  0
LINE
  5
3BF
330
1F
100
AcDbEntity
  8
Layer1
  6
Continuous
 62
     0
100
AcDbLine
 10
1757.338601037299
 20
873.0948948933649
 30
0.0
 11
1842.603042944532
 21
873.0948948933649
 31
0.0
  0
LINE
  5
3C0
330
1F
100
AcDbEntity
  8
Layer1
  6
Continuous
 62
     0
100
AcDbLine
 10
1842.603042944532
 20
873.0948948933649
 30
0.0
 11
1842.455532101935
 21
880.805660838364
 31
0.0
  0
LINE
  5
3CA
330
1F
100
AcDbEntity
  8
Layer1
  6
Continuous
 62
     0
100
AcDbLine
 10
1757.264845616
 20
872.6938062022069
 30
0.0
 11
1719.730948691999
 21
872.6938062022069
 31
0.0
  0
LINE
  5
3CB
330
1F
100
AcDbEntity
  8
Layer1
  6
Continuous
 62
     0
100
AcDbLine
 10
1719.730948691999
 20
872.6938062022069
 30
0.0
 11
1719.730948691999
 21
870.487110200043
 31
0.0
  0
LINE
  5
3CC
330
1F
100
AcDbEntity
  8
Layer1
  6
Continuous
 62
     0
100
AcDbLine
 10
1719.730948691999
 20
870.487110200043
 30
0.0
 11
1757.264845616
 21
870.487110200043
 31
0.0
  0
LINE
  5
3CD
330
1F
100
AcDbEntity
  8
Layer1
  6
Continuous
 62
     0
100
AcDbLine
 10
1757.264845616
 20
870.487110200043
 30
0.0
 11
1757.264845616
 21
872.6938062022069
 31
0.0
  0
LINE
  5
3D0
330
1F
100
AcDbEntity
  8
0
100
AcDbLine
 10
1832.985966972319
 20
889.3176294941985
 30
0.0
 11
1838.119748067869
 21
882.9868528064217
 31
0.0
  0
LINE
  5
3D1
330
1F
100
AcDbEntity
  8
0
100
AcDbLine
 10
1838.119748067869
 20
882.9868528064217
 30
0.0
 11
1842.455532101935
 21
880.805660838364
 31
0.0
  0
LINE
  5
3D2
330
1F
100
AcDbEntity
  8
0
100
AcDbLine
 10
1791.118818202731
 20
947.1279871760833
 30
0.0
 11
1786.690205281181
 21
951.8983711327917
 31
0.0
  0
LINE
  5
3D3
330
1F
100
AcDbEntity
  8
0
100
AcDbLine
 10
1786.690205281181
 20
951.8983711327917
 30
0.0
 11
1780.810917407776
 21
955.9600121161107
 31
0.0
  0
LINE
  5
3D4
330
1F
100
AcDbEntity
  8
0
100
AcDbLine
 10
1780.810917407776
 20
955.9600121161107
 30
0.0
 11
1774.143983846262
 21
958.1030727860367
 31
0.0
  0
LINE
  5
3D5
330
1F
100
AcDbEntity
  8
0
100
AcDbLine
 10
1774.143983846262
 20
958.1030727860367
 30
0.0
 11
1766.334340950837
 21
958.686075726386
 31
0.0
  0
LINE
  5
3D6
330
1F
100
AcDbEntity
  8
0
100
AcDbLine
 10
1763.336962952809
 20
958.686075726386
 30
0.0
 11
1755.673946465394
 21
957.9318863270978
 31
0.0
  0
LINE
  5
3D7
330
1F
100
AcDbEntity
  8
0
100
AcDbLine
 10
1755.673946465394
 20
957.9318863270978
 30
0.0
 11
1748.931460936425
 21
955.5207412026065
 31
0.0
  0
LINE
  5
3D8
330
1F
100
AcDbEntity
  8
0
100
AcDbLine
 10
1748.931460936425
 20
955.5207412026065
 30
0.0
 11
1743.526167747094
 21
951.229774962973
 31
0.0
  0
LINE
  5
3D9
330
1F
100
AcDbEntity
  8
0
100
AcDbLine
 10
1743.526167747094
 20
951.229774962973
 30
0.0
 11
1739.874728278591
 21
944.8361222182574
 31
0.0
  0
LINE
  5
3DA
330
1F
100
AcDbEntity
  8
0
100
AcDbLine
 10
2199.089020077207
 20
832.1423087943854
 30
0.0
 11
2232.965581833105
 21
833.2920938856039
 31
0.0
  0
LINE
  5
3DB
330
1F
100
AcDbEntity
  8
0
100
AcDbLine
 10
2232.965581833105
 20
833.2920938856039
 30
0.0
 11
2256.599242149903
 21
835.2433742269679
 31
0.0
  0
LINE
  5
3DC
330
1F
100
AcDbEntity
  8
0
100
AcDbLine
 10
2256.599242149903
 20
835.2433742269679
 30
0.0
 11
2279.852578849685
 21
838.8893554437288
 31
0.0
  0
LINE
  5
3DD
330
1F
100
AcDbEntity
  8
0
 62
     7
100
AcDbLine
 10
2134.161453220901
 20
891.6138932360619
 30
0.0
 11
2194.008102139458
 21
886.2528322913405
 31
0.0
  0
LINE
  5
3DE
330
1F
100
AcDbEntity
  8
0
 62
     7
100
AcDbLine
 10
2194.008102139458
 20
886.2528322913405
 30
0.0
 11
2230.185103772584
 21
882.7467724166059
 31
0.0
  0
LINE
  5
3DF
330
1F
100
AcDbEntity
  8
0
 62
     7
100
AcDbLine
 10
2230.185103772584
 20
882.7467724166059
 30
0.0
 11
2268.568823015483
 21
876.7806276435907
 31
0.0
  0
LINE
  5
3E0
330
1F
100
AcDbEntity
  8
0
 62
     7
100
AcDbLine
 10
2268.568823015483
 20
876.7806276435907
 30
0.0
 11
2279.852578849685
 21
874.6600665972366
 31
0.0
  0
LINE
  5
3E1
330
1F
100
AcDbEntity
  8
0
100
AcDbLine
 10
2089.820675855619
 20
907.449885152234
 30
0.0
 11
2083.486279089149
 21
905.9034015666703
 31
0.0
  0
LINE
  5
3E2
330
1F
100
AcDbEntity
  8
0
100
AcDbLine
 10
2083.486279089149
 20
905.9034015666703
 30
0.0
 11
2077.448807171109
 21
902.7980625268584
 31
0.0
  0
LINE
  5
3E3
330
1F
100
AcDbEntity
  8
0
100
AcDbLine
 10
2077.448807171109
 20
902.7980625268584
 30
0.0
 11
2065.670788183456
 21
893.9892920234875
 31
0.0
  0
LINE
  5
3E4
330
1F
100
AcDbEntity
  8
0
100
AcDbLine
 10
2065.670788183456
 20
893.9892920234875
 30
0.0
 11
2053.298919498946
 21
885.1805215201167
 31
0.0
  0
LINE
  5
3E5
330
1F
100
AcDbEntity
  8
0
100
AcDbLine
 10
2053.298919498946
 20
885.1805215201167
 30
0.0
 11
2046.519135459835
 21
882.0751824803048
 31
0.0
  0
LINE
  5
3E6
330
1F
100
AcDbEntity
  8
0
100
AcDbLine
 10
2046.519135459835
 20
882.0751824803048
 30
0.0
 11
2039.145501723867
 21
880.5286988947411
 31
0.0
  0
LINE
  5
3E7
330
1F
100
AcDbEntity
  8
0
100
AcDbLine
 10
2134.161453220901
 20
891.6138932360619
 30
0.0
 11
2127.926031403908
 21
890.3272188928726
 31
0.0
  0
LINE
  5
3E8
330
1F
100
AcDbEntity
  8
0
100
AcDbLine
 10
2127.926031403908
 20
890.3272188928726
 30
0.0
 11
2123.472158677484
 21
887.2589954591145
 31
0.0
  0
LINE
  5
3E9
330
1F
100
AcDbEntity
  8
0
100
AcDbLine
 10
2123.472158677484
 20
887.2589954591145
 30
0.0
 11
2119.909060496346
 21
880.5286988947411
 31
0.0
  0
LINE
  5
3EA
330
1F
100
AcDbEntity
  8
0
100
AcDbLine
 10
2527.872326214867
 20
1255.234982143455
 30
0.0
 11
2536.011434171012
 21
1257.88206626339
 31
0.0
  0
LINE
  5
3EB
330
1F
100
AcDbEntity
  8
0
100
AcDbLine
 10
2536.011434171012
 20
1257.88206626339
 30
0.0
 11
2542.742657075137
 21
1263.77854744729
 31
0.0
  0
LINE
  5
3EC
330
1F
100
AcDbEntity
  8
0
100
AcDbLine
 10
2542.742657075137
 20
1263.77854744729
 30
0.0
 11
2547.146711756617
 21
1270.652913436632
 31
0.0
  0
LINE
  5
3ED
330
1F
100
AcDbEntity
  8
0
100
AcDbLine
 10
2547.146711756617
 20
1270.652913436632
 30
0.0
 11
2548.967192112266
 21
1276.029665015078
 31
0.0
  0
LINE
  5
3EE
330
1F
100
AcDbEntity
  8
0
100
AcDbLine
 10
2527.872326214867
 20
1255.234982143455
 30
0.0
 11
2536.012028609157
 21
1252.589726467307
 31
0.0
  0
LINE
  5
3EF
330
1F
100
AcDbEntity
  8
0
100
AcDbLine
 10
2536.012028609157
 20
1252.589726467307
 30
0.0
 11
2542.744575934613
 21
1246.694757540536
 31
0.0
  0
LINE
  5
3F0
330
1F
100
AcDbEntity
  8
0
100
AcDbLine
 10
2542.744575934613
 20
1246.694757540536
 30
0.0
 11
2547.150174769122
 21
1239.821381055702
 31
0.0
  0
LINE
  5
3F1
330
1F
100
AcDbEntity
  8
0
100
AcDbLine
 10
2547.150174769122
 20
1239.821381055702
 30
0.0
 11
2548.971862917454
 21
1234.445038567369
 31
0.0
  0
LINE
  5
3F2
330
1F
100
AcDbEntity
  8
0
100
AcDbLine
 10
2552.070398540632
 20
1206.445090485993
 30
0.0
 11
2552.079278004214
 21
1210.874210868016
 31
0.0
  0
LINE
  5
3F3
330
1F
100
AcDbEntity
  8
0
 62
     7
370
    15
100
AcDbLine
 10
2707.001581233321
 20
1164.62402101443
 30
0.0
 11
2683.643493156968
 21
1162.842471923861
 31
0.0
  0
LINE
  5
3F4
330
1F
100
AcDbEntity
  8
0
 62
     7
370
    15
100
AcDbLine
 10
2683.643493156968
 20
1162.842471923861
 30
0.0
 11
2674.933697603073
 21
1159.947454651685
 31
0.0
  0
LINE
  5
3F5
330
1F
100
AcDbEntity
  8
0
 62
     7
370
    15
100
AcDbLine
 10
2674.933697603073
 20
1159.947454651685
 30
0.0
 11
2667.411601442891
 21
1155.122425864727
 31
0.0
  0
LINE
  5
3F6
330
1F
100
AcDbEntity
  8
0
 62
     7
370
    15
100
AcDbLine
 10
2743.424362640518
 20
1164.62402101443
 30
0.0
 11
2747.779260417465
 21
1158.685524045866
 31
0.0
  0
LINE
  5
3F7
330
1F
100
AcDbEntity
  8
0
 62
     7
370
    15
100
AcDbLine
 10
2747.779260417465
 20
1158.685524045866
 30
0.0
 11
2754.509556981838
 21
1155.122425864727
 31
0.0
  0
LINE
  5
3F8
330
1F
100
AcDbEntity
  8
0
 62
     7
370
    15
100
AcDbLine
 10
2707.001581233321
 20
1123.450442032382
 30
0.0
 11
2683.643493156968
 21
1125.231991122952
 31
0.0
  0
LINE
  5
3F9
330
1F
100
AcDbEntity
  8
0
 62
     7
370
    15
100
AcDbLine
 10
2683.643493156968
 20
1125.231991122952
 30
0.0
 11
2674.933697603073
 21
1128.127008395127
 31
0.0
  0
LINE
  5
3FA
330
1F
100
AcDbEntity
  8
0
 62
     7
370
    15
100
AcDbLine
 10
2674.933697603073
 20
1128.127008395127
 30
0.0
 11
2667.411601442891
 21
1132.952037182086
 31
0.0
  0
LINE
  5
3FB
330
1F
100
AcDbEntity
  8
0
 62
     7
370
    15
100
AcDbLine
 10
2743.424362640518
 20
1123.450442032382
 30
0.0
 11
2747.779260417465
 21
1129.388939000947
 31
0.0
  0
LINE
  5
3FC
330
1F
100
AcDbEntity
  8
0
 62
     7
370
    15
100
AcDbLine
 10
2747.779260417465
 20
1129.388939000947
 30
0.0
 11
2754.509556981838
 21
1132.952037182086
 31
0.0
  0
LINE
  5
3FD
330
1F
100
AcDbEntity
  8
0
 62
     7
370
    15
100
AcDbLine
 10
2613.615248776732
 20
1130.800862371194
 30
0.0
 11
2532.851690004254
 21
1130.702008566087
 31
0.0
  0
LINE
  5
3FE
330
1F
100
AcDbEntity
  8
0
 62
     7
370
    15
100
AcDbLine
 10
2583.526864136004
 20
1157.722048628687
 30
0.0
 11
2577.192467369535
 21
1156.175565043123
 31
0.0
  0
LINE
  5
3FF
330
1F
100
AcDbEntity
  8
0
 62
     7
370
    15
100
AcDbLine
 10
2577.192467369535
 20
1156.175565043123
 30
0.0
 11
2571.154995451495
 21
1153.070226003311
 31
0.0
  0
LINE
  5
400
330
1F
100
AcDbEntity
  8
0
 62
     7
370
    15
100
AcDbLine
 10
2571.154995451495
 20
1153.070226003311
 30
0.0
 11
2559.376976463842
 21
1144.261455499941
 31
0.0
  0
LINE
  5
401
330
1F
100
AcDbEntity
  8
0
 62
     7
370
    15
100
AcDbLine
 10
2559.376976463842
 20
1144.261455499941
 30
0.0
 11
2547.005107779332
 21
1135.45268499657
 31
0.0
  0
LINE
  5
402
330
1F
100
AcDbEntity
  8
0
 62
     7
370
    15
100
AcDbLine
 10
2547.005107779332
 20
1135.45268499657
 30
0.0
 11
2540.225323740221
 21
1132.347345956758
 31
0.0
  0
LINE
  5
403
330
1F
100
AcDbEntity
  8
0
 62
     7
370
    15
100
AcDbLine
 10
2540.225323740221
 20
1132.347345956758
 30
0.0
 11
2532.851690004254
 21
1130.800862371194
 31
0.0
  0
LINE
  5
404
330
1F
100
AcDbEntity
  8
0
 62
     7
370
    15
100
AcDbLine
 10
2627.867641501287
 20
1141.886056712515
 30
0.0
 11
2621.632219684294
 21
1140.599382369325
 31
0.0
  0
LINE
  5
405
330
1F
100
AcDbEntity
  8
0
 62
     7
370
    15
100
AcDbLine
 10
2621.632219684294
 20
1140.599382369325
 30
0.0
 11
2617.178346957871
 21
1137.531158935567
 31
0.0
  0
LINE
  5
406
330
1F
100
AcDbEntity
  8
0
 62
     7
370
    15
100
AcDbLine
 10
2617.178346957871
 20
1137.531158935567
 30
0.0
 11
2613.615248776732
 21
1130.800862371194
 31
0.0
  0
LINE
  5
407
330
1F
100
AcDbEntity
  8
0
 62
     7
100
AcDbLine
 10
2555.155196141439
 20
1057.453025618547
 30
0.0
 11
2505.718625846351
 21
1058.650833163358
 31
0.0
  0
LINE
  5
408
330
1F
100
AcDbEntity
  8
0
 62
     7
100
AcDbLine
 10
2505.718625846351
 20
1058.650833163358
 30
0.0
 11
2449.946235927382
 21
1061.690267793413
 31
0.0
  0
LINE
  5
409
330
1F
100
AcDbEntity
  8
0
 62
     7
100
AcDbLine
 10
2449.946235927382
 20
1061.690267793413
 30
0.0
 11
2334.383159174625
 21
1071.799559241767
 31
0.0
  0
LINE
  5
40A
330
1F
100
AcDbEntity
  8
0
 62
     7
100
AcDbLine
 10
2782.610672208042
 20
898.1669157462915
 30
0.0
 11
2816.48723396394
 21
897.017130655073
 31
0.0
  0
LINE
  5
40B
330
1F
100
AcDbEntity
  8
0
 62
     7
100
AcDbLine
 10
2816.48723396394
 20
897.017130655073
 30
0.0
 11
2840.120894280739
 21
895.0658503137089
 31
0.0
  0
LINE
  5
40C
330
1F
100
AcDbEntity
  8
0
 62
     7
100
AcDbLine
 10
2840.120894280739
 20
895.0658503137089
 30
0.0
 11
2863.374230980521
 21
891.4198690969479
 31
0.0
  0
LINE
  5
40D
330
1F
100
AcDbEntity
  8
0
 62
     7
100
AcDbLine
 10
2803.506546485392
 20
952.3418034377403
 30
0.0
 11
2832.382960287747
 21
951.4118559673025
 31
0.0
  0
LINE
  5
40E
330
1F
100
AcDbEntity
  8
0
 62
     7
100
AcDbLine
 10
2832.382960287747
 20
951.4118559673025
 30
0.0
 11
2860.58807715272
 21
949.634777097097
 31
0.0
  0
LINE
  5
40F
330
1F
100
AcDbEntity
  8
0
 62
     7
100
AcDbLine
 10
2803.506546485392
 20
915.6372464873767
 30
0.0
 11
2832.382960360846
 21
916.5671939601685
 31
0.0
  0
LINE
  5
410
330
1F
100
AcDbEntity
  8
0
 62
     7
100
AcDbLine
 10
2832.382960360846
 20
916.5671939601685
 30
0.0
 11
2860.58807715272
 21
918.3442709734803
 31
0.0
  0
LINE
  5
411
330
1F
100
AcDbEntity
  8
0
 62
     7
100
AcDbLine
 10
2810.89895702587
 20
1094.328596186355
 30
0.0
 11
2839.775370828225
 21
1093.398648715917
 31
0.0
  0
LINE
  5
412
330
1F
100
AcDbEntity
  8
0
 62
     7
100
AcDbLine
 10
2839.775370828225
 20
1093.398648715917
 30
0.0
 11
2867.980487693198
 21
1091.621569845711
 31
0.0
  0
LINE
  5
413
330
1F
100
AcDbEntity
  8
0
 62
     7
100
AcDbLine
 10
2810.89895702587
 20
1057.624039235991
 30
0.0
 11
2839.775370901325
 21
1058.553986708782
 31
0.0
  0
LINE
  5
414
330
1F
100
AcDbEntity
  8
0
 62
     7
100
AcDbLine
 10
2839.775370901325
 20
1058.553986708782
 30
0.0
 11
2867.980487693198
 21
1060.331063722095
 31
0.0
  0
LINE
  5
415
330
1F
100
AcDbEntity
  8
0
 62
     7
100
AcDbLine
 10
2564.749283830039
 20
912.8324783501021
 30
0.0
 11
2511.167249306773
 21
913.9451648076684
 31
0.0
  0
LINE
  5
416
330
1F
100
AcDbEntity
  8
0
 62
     7
100
AcDbLine
 10
2511.167249306773
 20
913.9451648076684
 30
0.0
 11
2455.394859387804
 21
916.9845994377233
 31
0.0
  0
LINE
  5
417
330
1F
100
AcDbEntity
  8
0
 62
     7
100
AcDbLine
 10
2455.394859387804
 20
916.9845994377233
 30
0.0
 11
2339.831782635047
 21
927.0938908860774
 31
0.0
  0
LINE
  5
418
330
1F
100
AcDbEntity
  8
0
 62
     7
100
AcDbLine
 10
2564.749283830039
 20
949.5356822100937
 30
0.0
 11
2511.167249306773
 21
948.4229957525272
 31
0.0
  0
LINE
  5
419
330
1F
100
AcDbEntity
  8
0
 62
     7
100
AcDbLine
 10
2511.167249306773
 20
948.4229957525272
 30
0.0
 11
2455.394859387804
 21
945.3835611224725
 31
0.0
  0
LINE
  5
41A
330
1F
100
AcDbEntity
  8
0
 62
     7
100
AcDbLine
 10
2455.394859387804
 20
945.3835611224725
 30
0.0
 11
2339.831782635047
 21
935.2742696741181
 31
0.0
  0
LINE
  5
41B
330
1F
100
AcDbEntity
  8
0
 62
     7
100
AcDbLine
 10
2555.155196141439
 20
1094.326472956426
 30
0.0
 11
2505.718625846351
 21
1093.128665411616
 31
0.0
  0
LINE
  5
41C
330
1F
100
AcDbEntity
  8
0
 62
     7
100
AcDbLine
 10
2505.718625846351
 20
1093.128665411616
 30
0.0
 11
2449.946235927382
 21
1090.089230781561
 31
0.0
  0
LINE
  5
41D
330
1F
100
AcDbEntity
  8
0
 62
     7
100
AcDbLine
 10
2449.946235927382
 20
1090.089230781561
 30
0.0
 11
2334.383159174625
 21
1079.979939333207
 31
0.0
  0
LINE
  5
41E
330
1F
100
AcDbEntity
  8
0
 62
     7
100
AcDbLine
 10
2778.967822686189
 20
971.3148587888907
 30
0.0
 11
2812.844384442087
 21
972.4646438801093
 31
0.0
  0
LINE
  5
41F
330
1F
100
AcDbEntity
  8
0
 62
     7
100
AcDbLine
 10
2812.844384442087
 20
972.4646438801093
 30
0.0
 11
2836.478044758885
 21
974.4159242214733
 31
0.0
  0
LINE
  5
420
330
1F
100
AcDbEntity
  8
0
 62
     7
100
AcDbLine
 10
2836.478044758885
 20
974.4159242214733
 30
0.0
 11
2859.731381458668
 21
978.0619054382341
 31
0.0
  0
LINE
  5
421
330
1F
100
AcDbEntity
  8
0
100
AcDbLine
 10
2033.780817629162
 20
932.9548643481818
 30
0.0
 11
2038.914598724712
 21
926.6240876604049
 31
0.0
  0
LINE
  5
422
330
1F
100
AcDbEntity
  8
0
100
AcDbLine
 10
2038.914598724712
 20
926.6240876604049
 30
0.0
 11
2043.250382758778
 21
924.4428956923472
 31
0.0
  0
LINE
  5
423
330
1F
100
AcDbEntity
  8
0
100
AcDbLine
 10
1992.931761769124
 20
989.1968621062472
 30
0.0
 11
1987.485055938023
 21
995.5356059867749
 31
0.0
  0
LINE
  5
424
330
1F
100
AcDbEntity
  8
0
100
AcDbLine
 10
1987.485055938023
 20
995.5356059867749
 30
0.0
 11
1981.605768064618
 21
999.5972469700937
 31
0.0
  0
LINE
  5
425
330
1F
100
AcDbEntity
  8
0
100
AcDbLine
 10
1981.605768064618
 20
999.5972469700937
 30
0.0
 11
1974.938834503105
 21
1001.740307640019
 31
0.0
  0
LINE
  5
426
330
1F
100
AcDbEntity
  8
0
100
AcDbLine
 10
1974.938834503105
 20
1001.740307640019
 30
0.0
 11
1967.129191607679
 21
1002.323310580369
 31
0.0
  0
LINE
  5
427
330
1F
100
AcDbEntity
  8
0
100
AcDbLine
 10
1964.131813609651
 20
1002.323310580369
 30
0.0
 11
1956.468797122237
 21
1001.569121181081
 31
0.0
  0
LINE
  5
428
330
1F
100
AcDbEntity
  8
0
100
AcDbLine
 10
1956.468797122237
 20
1001.569121181081
 30
0.0
 11
1949.726311593268
 21
999.1579760565898
 31
0.0
  0
LINE
  5
429
330
1F
100
AcDbEntity
  8
0
100
AcDbLine
 10
1949.726311593268
 20
999.1579760565898
 30
0.0
 11
1944.321018403937
 21
994.8670098169561
 31
0.0
  0
LINE
  5
42A
330
1F
100
AcDbEntity
  8
0
100
AcDbLine
 10
1944.321018403937
 20
994.8670098169561
 30
0.0
 11
1940.669578935434
 21
988.4733570722405
 31
0.0
  0
LINE
  5
42B
330
1F
100
AcDbEntity
  8
0
100
AcDbLine
 10
1705.672820150325
 20
1036.175028300234
 30
0.0
 11
1706.428528378605
 21
1029.463851679415
 31
0.0
  0
LINE
  5
42C
330
1F
100
AcDbEntity
  8
0
100
AcDbLine
 10
1706.428528378605
 20
1029.463851679415
 30
0.0
 11
1709.144202463455
 21
1022.621035560766
 31
0.0
  0
LINE
  5
42D
330
1F
100
AcDbEntity
  8
0
100
AcDbLine
 10
1709.144202463455
 20
1022.621035560766
 30
0.0
 11
1714.492666504893
 21
1016.626562872574
 31
0.0
  0
LINE
  5
42E
330
1F
100
AcDbEntity
  8
0
100
AcDbLine
 10
1714.492666504893
 20
1016.626562872574
 30
0.0
 11
1723.146744602934
 21
1012.460416543123
 31
0.0
  0
LINE
  5
42F
330
1F
100
AcDbEntity
  8
0
100
AcDbLine
 10
1722.990727420321
 20
1071.746945935901
 30
0.0
 11
1715.288575675783
 21
1066.281797374116
 31
0.0
  0
LINE
  5
430
330
1F
100
AcDbEntity
  8
0
100
AcDbLine
 10
1715.288575675783
 20
1066.281797374116
 30
0.0
 11
1710.00236499348
 21
1060.455160452129
 31
0.0
  0
LINE
  5
431
330
1F
100
AcDbEntity
  8
0
100
AcDbLine
 10
1710.00236499348
 20
1060.455160452129
 30
0.0
 11
1706.85639947817
 21
1054.116655590715
 31
0.0
  0
LINE
  5
432
330
1F
100
AcDbEntity
  8
0
100
AcDbLine
 10
1706.85639947817
 20
1054.116655590715
 30
0.0
 11
1705.57498323461
 21
1047.115903210653
 31
0.0
  0
LINE
  5
433
330
1F
100
AcDbEntity
  8
0
100
AcDbLine
 10
1705.57498323461
 20
1047.115903210653
 30
0.0
 11
1705.516802967713
 21
1045.536059256988
 31
0.0
  0
LINE
  5
434
330
1F
100
AcDbEntity
  8
0
100
AcDbLine
 10
1946.240497563695
 20
1047.115903210653
 30
0.0
 11
1946.298677830592
 21
1045.536059256988
 31
0.0
  0
LINE
  5
435
330
1F
100
AcDbEntity
  8
0
100
AcDbLine
 10
1928.824753377984
 20
1071.746945935901
 30
0.0
 11
1936.526905122522
 21
1066.281797374116
 31
0.0
  0
LINE
  5
436
330
1F
100
AcDbEntity
  8
0
100
AcDbLine
 10
1936.526905122522
 20
1066.281797374116
 30
0.0
 11
1941.813115804825
 21
1060.455160452129
 31
0.0
  0
LINE
  5
437
330
1F
100
AcDbEntity
  8
0
100
AcDbLine
 10
1941.813115804825
 20
1060.455160452129
 30
0.0
 11
1944.959081320135
 21
1054.116655590715
 31
0.0
  0
LINE
  5
438
330
1F
100
AcDbEntity
  8
0
100
AcDbLine
 10
1944.959081320135
 20
1054.116655590715
 30
0.0
 11
1946.240497563695
 21
1047.115903210653
 31
0.0
  0
LINE
  5
439
330
1F
100
AcDbEntity
  8
0
100
AcDbLine
 10
1946.14266064798
 20
1036.175028300234
 30
0.0
 11
1945.3869524197
 21
1029.463851679415
 31
0.0
  0
LINE
  5
43A
330
1F
100
AcDbEntity
  8
0
100
AcDbLine
 10
1945.3869524197
 20
1029.463851679415
 30
0.0
 11
1942.67127833485
 21
1022.621035560766
 31
0.0
  0
LINE
  5
43B
330
1F
100
AcDbEntity
  8
0
100
AcDbLine
 10
1942.67127833485
 20
1022.621035560766
 30
0.0
 11
1937.322814293413
 21
1016.626562872574
 31
0.0
  0
LINE
  5
43C
330
1F
100
AcDbEntity
  8
0
100
AcDbLine
 10
1937.322814293413
 20
1016.626562872574
 30
0.0
 11
1928.668736195371
 21
1012.460416543123
 31
0.0
  0
LINE
  5
43D
330
1F
100
AcDbEntity
  8
0
100
AcDbLine
 10
2051.892640423705
 20
1076.147112960408
 30
0.0
 11
2059.193603570935
 21
1068.131032248192
 31
0.0
  0
LINE
  5
43E
330
1F
100
AcDbEntity
  8
0
100
AcDbLine
 10
2059.193603570935
 20
1068.131032248192
 30
0.0
 11
2063.925314875626
 21
1059.158241832077
 31
0.0
  0
LINE
  5
43F
330
1F
100
AcDbEntity
  8
0
100
AcDbLine
 10
2063.925314875626
 20
1059.158241832077
 30
0.0
 11
2066.749738397594
 21
1049.21241476413
 31
0.0
  0
LINE
  5
440
330
1F
100
AcDbEntity
  8
0
100
AcDbLine
 10
2066.749738397594
 20
1049.21241476413
 30
0.0
 11
2068.308735599375
 21
1037.91965145412
 31
0.0
  0
LINE
  5
441
330
1F
100
AcDbEntity
  8
0
100
AcDbLine
 10
1750.405413901084
 20
1255.234982143455
 30
0.0
 11
1742.265711506794
 21
1252.589726467307
 31
0.0
  0
LINE
  5
442
330
1F
100
AcDbEntity
  8
0
100
AcDbLine
 10
1742.265711506794
 20
1252.589726467307
 30
0.0
 11
1735.533164181339
 21
1246.694757540536
 31
0.0
  0
LINE
  5
443
330
1F
100
AcDbEntity
  8
0
100
AcDbLine
 10
1735.533164181339
 20
1246.694757540536
 30
0.0
 11
1731.127565346829
 21
1239.821381055701
 31
0.0
  0
LINE
  5
444
330
1F
100
AcDbEntity
  8
0
100
AcDbLine
 10
1731.127565346829
 20
1239.821381055701
 30
0.0
 11
1729.305877198498
 21
1234.445038567369
 31
0.0
  0
LINE
  5
445
330
1F
100
AcDbEntity
  8
0
100
AcDbLine
 10
1726.207341575319
 20
1206.445090485993
 30
0.0
 11
1726.167830256319
 21
1195.975532839115
 31
0.0
  0
LINE
  5
446
330
1F
100
AcDbEntity
  8
0
100
AcDbLine
 10
1726.167830256319
 20
1195.975532839115
 30
0.0
 11
1728.581323146427
 21
1185.331936117866
 31
0.0
  0
LINE
  5
447
330
1F
100
AcDbEntity
  8
0
100
AcDbLine
 10
1728.581323146427
 20
1185.331936117866
 30
0.0
 11
1733.446186386505
 21
1176.425699575097
 31
0.0
  0
LINE
  5
448
330
1F
100
AcDbEntity
  8
0
100
AcDbLine
 10
1733.446186386505
 20
1176.425699575097
 30
0.0
 11
1740.638674727143
 21
1171.60241441718
 31
0.0
  0
LINE
  5
449
330
1F
100
AcDbEntity
  8
0
100
AcDbLine
 10
1750.405413901084
 20
1255.234982143455
 30
0.0
 11
1742.266305944947
 21
1257.882066263415
 31
0.0
  0
LINE
  5
44A
330
1F
100
AcDbEntity
  8
0
100
AcDbLine
 10
1742.266305944947
 20
1257.882066263415
 30
0.0
 11
1735.535083040842
 21
1263.778547447336
 31
0.0
  0
LINE
  5
44B
330
1F
100
AcDbEntity
  8
0
100
AcDbLine
 10
1735.535083040842
 20
1263.778547447336
 30
0.0
 11
1731.131028359382
 21
1270.652913436692
 31
0.0
  0
LINE
  5
44C
330
1F
100
AcDbEntity
  8
0
100
AcDbLine
 10
1731.131028359382
 20
1270.652913436692
 30
0.0
 11
1729.31054800375
 21
1276.029665015144
 31
0.0
  0
LINE
  5
44D
330
1F
100
AcDbEntity
  8
0
100
AcDbLine
 10
1726.218302393959
 20
1304.030308448048
 30
0.0
 11
1726.209951476223
 21
1306.383156560162
 31
0.0
  0
LINE
  5
44E
330
1F
100
AcDbEntity
  8
0
100
AcDbLine
 10
2226.385099692246
 20
1076.147112960408
 30
0.0
 11
2219.084136545017
 21
1068.131032248192
 31
0.0
  0
LINE
  5
44F
330
1F
100
AcDbEntity
  8
0
100
AcDbLine
 10
2219.084136545017
 20
1068.131032248192
 30
0.0
 11
2214.352425240325
 21
1059.158241832077
 31
0.0
  0
LINE
  5
450
330
1F
100
AcDbEntity
  8
0
100
AcDbLine
 10
2214.352425240325
 20
1059.158241832077
 30
0.0
 11
2211.528001718357
 21
1049.21241476413
 31
0.0
  0
LINE
  5
451
330
1F
100
AcDbEntity
  8
0
100
AcDbLine
 10
2211.528001718357
 20
1049.21241476413
 30
0.0
 11
2209.969004516576
 21
1037.91965145412
 31
0.0
  0
LINE
  5
452
330
1F
100
AcDbEntity
  8
0
100
AcDbLine
 10
2527.872326214867
 20
1255.234982143455
 30
0.0
 11
2536.012028609157
 21
1252.589726467307
 31
0.0
  0
LINE
  5
453
330
1F
100
AcDbEntity
  8
0
100
AcDbLine
 10
2536.012028609157
 20
1252.589726467307
 30
0.0
 11
2542.744575934613
 21
1246.694757540536
 31
0.0
  0
LINE
  5
454
330
1F
100
AcDbEntity
  8
0
100
AcDbLine
 10
2542.744575934613
 20
1246.694757540536
 30
0.0
 11
2547.150174769122
 21
1239.821381055701
 31
0.0
  0
LINE
  5
455
330
1F
100
AcDbEntity
  8
0
100
AcDbLine
 10
2547.150174769122
 20
1239.821381055701
 30
0.0
 11
2548.971862917454
 21
1234.445038567369
 31
0.0
  0
LINE
  5
456
330
1F
100
AcDbEntity
  8
0
100
AcDbLine
 10
2552.070398540632
 20
1206.445090485993
 30
0.0
 11
2552.109909859633
 21
1195.975532839115
 31
0.0
  0
LINE
  5
457
330
1F
100
AcDbEntity
  8
0
100
AcDbLine
 10
2552.109909859633
 20
1195.975532839115
 30
0.0
 11
2549.696416969525
 21
1185.331936117866
 31
0.0
  0
LINE
  5
458
330
1F
100
AcDbEntity
  8
0
100
AcDbLine
 10
2549.696416969525
 20
1185.331936117866
 30
0.0
 11
2544.831553729447
 21
1176.425699575097
 31
0.0
  0
LINE
  5
459
330
1F
100
AcDbEntity
  8
0
100
AcDbLine
 10
2544.831553729447
 20
1176.425699575097
 30
0.0
 11
2537.639065388809
 21
1171.60241441718
 31
0.0
  0
TEXT
  5
45A
330
1F
100
AcDbEntity
  8
Layer1
 62
     7
100
AcDbText
 10
2633.282003630131
 20
1306.612629064868
 30
0.0
 40
14.99955345444464
  1
IL-2 Sturmovik
100
AcDbText
  0
TEXT
  5
45B
330
1F
100
AcDbEntity
  8
Layer1
 62
     7
100
AcDbText
 10
2618.861680748977
 20
1283.320051031999
 30
0.0
 40
14.99955345444464
  1
COMBAT PROFILE
100
AcDbText
  0
TEXT
  5
45C
330
1F
100
AcDbEntity
  8
Layer1
 62
     7
100
AcDbText
 10
2646.984060220627
 20
1266.396629496014
 30
0.0
 40
8.942677788376942
  1
AA 76 cm by FRANZ
100
AcDbText
  0
TEXT
  5
45D
330
1F
100
AcDbEntity
  8
Layer1
 62
     7
100
AcDbText
 10
2635.060489836124
 20
1251.492166515386
 30
0.0
 40
8.942677788376942
  1
revisionato by DARTEN
100
AcDbText
  0
TEXT
  5
45E
330
1F
100
AcDbEntity
  8
Layer1
 62
     7
100
AcDbText
 10
2684.245217672197
 20
1236.587703534758
 30
0.0
 40
8.942677788376942
  1
17-10-2016
100
AcDbText
  0
ENDSEC
  0
SECTION
  2
OBJECTS
  0
DICTIONARY
  5
C
330
0
100
AcDbDictionary
281
     1
  3
ACAD_COLOR
350
6B
  3
ACAD_GROUP
350
D
  3
ACAD_LAYOUT
350
1A
  3
ACAD_MATERIAL
350
6A
  3
ACAD_MLEADERSTYLE
350
12D
  3
ACAD_MLINESTYLE
350
17
  3
ACAD_PLOTSETTINGS
350
19
  3
ACAD_PLOTSTYLENAME
350
E
  3
ACAD_SCALELIST
350
10C
  3
ACAD_TABLESTYLE
350
7E
  3
ACAD_VISUALSTYLE
350
EF
  3
ACDB_RECOMPOSE_DATA
350
15D
  3
AcDbVariableDictionary
350
5E
  0
DICTIONARY
  5
13C
330
10
100
AcDbDictionary
280
     1
281
     1
  3
ADSK_XREC_LAYER_RECONCILED
360
3C4
  0
DICTIONARY
  5
3C5
330
1B1
100
AcDbDictionary
280
     1
281
     1
  3
ADSK_XREC_LAYER_RECONCILED
360
3C6
  0
DICTIONARY
  5
3CE
330
1F
100
AcDbDictionary
280
     1
281
     1
  3
ACAD_SORTENTS
360
3CF
  0
DICTIONARY
  5
6B
102
{ACAD_REACTORS
330
C
102
}
330
C
100
AcDbDictionary
281
     1
  0
DICTIONARY
  5
D
102
{ACAD_REACTORS
330
C
102
}
330
C
100
AcDbDictionary
281
     1
  0
DICTIONARY
  5
1A
102
{ACAD_REACTORS
330
C
102
}
330
C
100
AcDbDictionary
281
     1
  3
Layout1
350
D3
  3
Layout2
350
D7
  3
Model
350
22
  0
DICTIONARY
  5
6A
102
{ACAD_REACTORS
330
C
102
}
330
C
100
AcDbDictionary
281
     1
  3
ByBlock
350
ED
  3
ByLayer
350
EC
  3
Global
350
EE
  0
DICTIONARY
  5
12D
102
{ACAD_REACTORS
330
C
102
}
330
C
100
AcDbDictionary
281
     1
  3
Annotativa
350
13B
  3
Standard
350
12E
  0
DICTIONARY
  5
17
102
{ACAD_REACTORS
330
C
102
}
330
C
100
AcDbDictionary
281
     1
  3
Standard
350
18
  0
DICTIONARY
  5
19
102
{ACAD_REACTORS
330
C
102
}
330
C
100
AcDbDictionary
281
     1
  0
ACDBDICTIONARYWDFLT
  5
E
102
{ACAD_REACTORS
330
C
102
}
330
C
100
AcDbDictionary
281
     1
  3
Normal
350
F
100
AcDbDictionaryWithDefault
340
F
  0
DICTIONARY
  5
10C
102
{ACAD_REACTORS
330
C
102
}
330
C
100
AcDbDictionary
281
     1
  3
A0
350
10D
  3
A1
350
188
  3
A2
350
189
  3
A3
350
18A
  3
A4
350
18B
  3
A5
350
18C
  3
A6
350
18D
  3
A7
350
18E
  3
A8
350
18F
  3
A9
350
190
  3
B0
350
191
  3
B1
350
192
  3
B2
350
193
  3
B3
350
194
  3
B4
350
195
  3
B5
350
196
  3
B6
350
197
  3
B7
350
198
  3
B8
350
199
  3
B9
350
19A
  3
C0
350
19B
  3
C1
350
19C
  3
C2
350
19D
  3
C3
350
19E
  3
C4
350
19F
  3
C5
350
1A0
  3
C6
350
1A1
  3
C7
350
1A2
  3
C8
350
1A3
  3
C9
350
1A4
  3
D0
350
1A5
  3
D1
350
1A6
  3
D2
350
1A7
  0
DICTIONARY
  5
7E
102
{ACAD_REACTORS
330
C
102
}
330
C
100
AcDbDictionary
281
     1
  3
Standard
350
7F
  0
DICTIONARY
  5
EF
102
{ACAD_REACTORS
330
C
102
}
330
C
100
AcDbDictionary
281
     1
  3
2dWireframe
350
F5
  3
3D Hidden
350
F7
  3
3dWireframe
350
F6
  3
Basic
350
F4
  3
Brighten
350
FB
  3
ColorChange
350
FF
  3
Conceptual
350
F8
  3
Dim
350
FA
  3
Facepattern
350
FE
  3
Flat
350
F0
  3
FlatWithEdges
350
F1
  3
Gouraud
350
F2
  3
GouraudWithEdges
350
F3
  3
Linepattern
350
FD
  3
Realistic
350
F9
  3
Thicken
350
FC
  0
XRECORD
  5
15D
102
{ACAD_REACTORS
330
C
102
}
330
C
100
AcDbXrecord
280
     1
 90
        1
330
7F
  0
DICTIONARY
  5
5E
102
{ACAD_REACTORS
330
C
102
}
330
C
100
AcDbDictionary
281
     1
  3
CANNOSCALE
350
146
  3
CMLEADERSTYLE
350
145
  3
CTABLESTYLE
350
84
  3
DIMASSOC
350
5F
  3
HIDETEXT
350
63
  0
XRECORD
  5
3C4
102
{ACAD_REACTORS
330
13C
102
}
330
13C
100
AcDbXrecord
280
     1
290
     1
  0
XRECORD
  5
3C6
102
{ACAD_REACTORS
330
3C5
102
}
330
3C5
100
AcDbXrecord
280
     1
290
     1
  0
SORTENTSTABLE
  5
3CF
102
{ACAD_REACTORS
330
3CE
102
}
330
3CE
100
AcDbSortentsTable
330
1F
331
3DA
  5
425
331
2E9
  5
323
331
3FC
  5
3DF
331
30B
  5
354
331
327
  5
385
331
416
  5
36B
331
349
  5
3AD
331
438
  5
316
331
3A7
  5
43A
331
38D
  5
416
331
36B
  5
3EC
331
3EB
  5
409
331
2FA
  5
343
331
2D8
  5
304
331
45A
  5
2BF
331
40D
  5
381
331
31C
  5
373
331
338
  5
39A
331
427
  5
32C
331
37C
  5
3FD
331
35A
  5
3D0
331
449
  5
2E6
331
2C7
  5
2DD
331
3D8
  5
44D
331
3FA
  5
3E2
331
309
  5
352
331
414
  5
376
331
347
  5
3AB
331
436
  5
312
331
3A5
  5
438
331
38B
  5
414
331
369
  5
3EA
331
458
  5
2CE
331
3E9
  5
40F
331
2F8
  5
33F
331
40B
  5
3A1
331
31A
  5
371
331
2D6
  5
2FF
331
336
  5
398
331
425
  5
333
331
37A
  5
3FB
331
358
  5
3CC
331
447
  5
2F6
331
3B6
  5
449
331
2C5
  5
2D8
331
3F8
  5
3E0
331
323
  5
37C
331
412
  5
378
331
345
  5
3A9
331
434
  5
317
331
3A3
  5
436
331
389
  5
412
331
367
  5
3E8
331
456
  5
2CA
331
3E7
  5
40D
331
2F6
  5
33C
331
409
  5
3BE
331
318
  5
36F
331
2D4
  5
2FD
331
334
  5
396
331
423
  5
331
331
3B4
  5
447
331
378
  5
3F9
331
445
  5
2F4
331
3D6
  5
44B
331
2E5
  5
31A
331
307
  5
350
331
410
  5
380
331
321
  5
37A
331
343
  5
3A7
331
432
  5
322
331
3A1
  5
434
331
387
  5
410
331
454
  5
2D4
331
3E5
  5
41C
331
2F4
  5
33A
331
407
  5
3BC
331
332
  5
393
331
421
  5
335
331
316
  5
36D
331
376
  5
3F7
331
354
  5
3B9
331
443
  5
2FB
331
3B2
  5
445
331
2C1
  5
2C9
331
3D4
  5
452
331
3F6
  5
3E3
331
305
  5
34E
331
2E3
  5
318
331
341
  5
3A5
331
430
  5
320
331
39F
  5
432
331
385
  5
40C
331
452
  5
2D0
331
3E3
  5
41A
331
2F2
  5
338
331
2D0
  5
2F2
331
330
  5
390
331
41F
  5
341
331
405
  5
3C0
331
396
  5
429
331
374
  5
3F5
331
352
  5
3B6
331
441
  5
2F8
331
3D2
  5
450
331
3B0
  5
443
331
2BF
  5
2C7
331
3F4
  5
3E6
331
303
  5
34C
331
39D
  5
430
331
383
  5
407
331
361
  5
3DC
331
450
  5
2DB
331
3BF
  5
459
331
2CE
  5
2EE
331
3E1
  5
418
331
403
  5
3DA
331
312
  5
360
331
32E
  5
38D
331
41D
  5
35B
331
3D0
  5
454
331
3AE
  5
441
331
372
  5
3F3
331
350
  5
3B4
331
43F
  5
302
331
3F2
  5
3FF
331
301
  5
34A
331
33F
  5
3A3
331
42E
  5
329
331
3BD
  5
457
331
39B
  5
42E
331
381
  5
405
331
3DF
  5
422
331
2EE
  5
330
331
401
  5
3D8
331
310
  5
35D
331
32C
  5
38B
331
41B
  5
359
331
3AC
  5
43F
331
370
  5
3F1
331
34E
  5
3B2
331
3F0
  5
402
331
2FF
  5
348
331
2DD
  5
309
331
33D
  5
39F
331
42C
  5
327
331
44E
  5
2D9
331
43D
  5
300
331
399
  5
42C
331
3DD
  5
420
331
2EC
  5
32B
331
2CA
  5
2E3
331
3FF
  5
3D6
331
32A
  5
389
331
419
  5
368
331
34C
  5
3B0
331
43B
  5
30D
331
3AA
  5
43D
331
390
  5
41E
331
36E
  5
3EF
331
3CC
  5
45D
331
2DB
  5
307
331
3EE
  5
400
331
2FD
  5
346
331
33B
  5
39D
331
42A
  5
32F
331
35D
  5
3D3
331
44C
  5
2EC
331
45D
  5
2C4
331
3B9
  5
44F
331
2C8
  5
2DE
331
3DB
  5
426
331
3FD
  5
3DD
331
30C
  5
357
331
328
  5
387
331
417
  5
36C
331
34A
  5
3AE
331
439
  5
30B
331
3A8
  5
43B
331
38E
  5
417
331
36C
  5
3ED
331
3CA
  5
45B
331
2D9
  5
305
331
45B
  5
2C0
331
3EC
  5
40A
331
2FB
  5
344
331
40E
  5
382
331
31D
  5
374
331
339
  5
39B
331
428
  5
32D
331
37D
  5
3FE
331
35B
  5
3D1
331
44A
  5
2E9
331
3D9
  5
44E
331
3FB
  5
3DE
331
30A
  5
353
331
326
  5
383
331
415
  5
36A
331
348
  5
3AC
331
437
  5
313
331
3A6
  5
439
331
38C
  5
415
331
36A
  5
3EB
331
459
  5
2CF
331
40C
  5
3A2
331
31B
  5
372
331
3EA
  5
408
331
337
  5
399
331
426
  5
334
331
3B7
  5
44A
331
37B
  5
3FC
331
359
  5
3CD
331
448
  5
2F7
331
3F9
  5
3E1
331
308
  5
351
331
413
  5
375
331
346
  5
3AA
331
435
  5
311
331
3A4
  5
437
331
38A
  5
413
331
368
  5
3E9
331
457
  5
2CB
331
3E8
  5
40E
331
2F7
  5
33D
331
40A
  5
3A0
331
319
  5
370
331
2D5
  5
2FE
331
335
  5
397
331
424
  5
332
331
379
  5
3FA
331
357
  5
3CB
331
446
  5
2F5
331
3B5
  5
448
331
2C4
  5
2D6
331
3D7
  5
44C
331
2E6
  5
31B
331
322
  5
37B
331
411
  5
377
331
344
  5
3A8
331
433
  5
31C
331
3A2
  5
435
331
388
  5
411
331
455
  5
2D5
331
3E6
  5
41D
331
2F5
  5
33B
331
408
  5
3BD
331
333
  5
395
331
422
  5
336
331
317
  5
36E
331
3B3
  5
446
331
377
  5
3F8
331
444
  5
2FC
331
3D5
  5
453
331
3F7
  5
3E4
331
306
  5
34F
331
2E4
  5
319
331
320
  5
379
331
342
  5
3A6
331
431
  5
321
331
3A0
  5
433
331
453
  5
2D1
331
3E4
  5
41B
331
2F3
  5
339
331
2D1
  5
2F3
331
331
  5
391
331
420
  5
342
331
406
  5
3CA
331
397
  5
42A
331
375
  5
3F6
331
353
  5
3B7
331
442
  5
2FA
331
3D3
  5
451
331
3B1
  5
444
331
2C0
  5
2C8
331
3F5
  5
3E7
331
304
  5
34D
331
340
  5
3A4
331
39E
  5
431
331
451
  5
2DC
331
3C0
  5
45A
331
2CF
  5
2F1
331
3E2
  5
419
331
2F1
  5
337
331
404
  5
3BF
331
313
  5
361
331
32F
  5
38E
331
41E
  5
340
331
395
  5
428
331
373
  5
3F4
331
351
  5
3B5
331
440
  5
303
331
3AF
  5
442
331
3D1
  5
455
331
2E0
  5
310
331
3F3
  5
3E5
331
302
  5
34B
331
42F
  5
31D
331
3BE
  5
458
331
39C
  5
42F
331
382
  5
406
331
360
  5
3DB
331
3E0
  5
423
331
402
  5
3D9
331
311
  5
35E
331
32D
  5
38C
331
41C
  5
35A
331
3AD
  5
440
331
393
  5
424
331
371
  5
3F2
331
34F
  5
3B3
331
43E
  5
301
331
3F1
  5
403
331
300
  5
349
331
42D
  5
328
331
44F
  5
2DA
331
2DE
  5
30A
331
39A
  5
42D
331
380
  5
404
331
3BC
  5
456
331
2CB
  5
2E4
331
3DE
  5
421
331
400
  5
3D7
331
30F
  5
35C
331
32B
  5
38A
331
41A
  5
369
331
34D
  5
3B1
331
3AB
  5
43E
331
391
  5
41F
331
36F
  5
3F0
331
45E
  5
2C5
331
3CD
  5
45E
331
2DC
  5
308
331
3EF
  5
401
331
2FE
  5
347
331
33C
  5
39E
331
42B
  5
326
331
35E
  5
3D4
331
44D
  5
2E5
331
43C
  5
30F
331
398
  5
42B
331
3DC
  5
427
331
2EB
  5
32A
331
2C9
  5
2E0
331
3FE
  5
3D5
331
30D
  5
358
331
329
  5
388
331
418
  5
367
331
34B
  5
3AF
331
43A
  5
30C
331
3A9
  5
43C
331
36D
  5
3EE
331
3CB
  5
45C
331
2DA
  5
306
331
3ED
  5
40B
331
2FC
  5
345
331
40F
  5
37D
331
33A
  5
39C
331
429
  5
32E
331
35C
  5
3D2
331
44B
  5
2EB
331
45C
  5
2C1
  0
LAYOUT
  5
D3
102
{ACAD_REACTORS
330
1A
102
}
330
1A
100
AcDbPlotSettings
  1

  2
C:\Documents and Settings\basas\Application Data\Autodesk\AutoCAD 2005\R16.1\enu\plotters\Default Windows System Printer.pc3
  4

  6

 40
0.0
 41
0.0
 42
0.0
 43
0.0
 44
0.0
 45
0.0
 46
0.0
 47
0.0
 48
0.0
 49
0.0
140
0.0
141
0.0
142
1.0
143
1.0
 70
   688
 72
     0
 73
     0
 74
     5
  7

 75
    16
147
1.0
 76
     0
 77
     2
 78
   300
148
0.0
149
0.0
100
AcDbLayout
  1
Layout1
 70
     1
 71
     1
 10
0.0
 20
0.0
 11
12.0
 21
9.0
 12
0.0
 22
0.0
 32
0.0
 14
0.0
 24
0.0
 34
0.0
 15
0.0
 25
0.0
 35
0.0
146
0.0
 13
0.0
 23
0.0
 33
0.0
 16
1.0
 26
0.0
 36
0.0
 17
0.0
 27
1.0
 37
0.0
 76
     0
330
D2
  0
LAYOUT
  5
D7
102
{ACAD_REACTORS
330
1A
102
}
330
1A
100
AcDbPlotSettings
  1

  2
C:\Documents and Settings\basas\Application Data\Autodesk\AutoCAD 2005\R16.1\enu\plotters\Default Windows System Printer.pc3
  4

  6

 40
0.0
 41
0.0
 42
0.0
 43
0.0
 44
0.0
 45
0.0
 46
0.0
 47
0.0
 48
0.0
 49
0.0
140
0.0
141
0.0
142
1.0
143
1.0
 70
   688
 72
     0
 73
     0
 74
     5
  7

 75
    16
147
1.0
 76
     0
 77
     2
 78
   300
148
0.0
149
0.0
100
AcDbLayout
  1
Layout2
 70
     1
 71
     2
 10
0.0
 20
0.0
 11
12.0
 21
9.0
 12
0.0
 22
0.0
 32
0.0
 14
0.0
 24
0.0
 34
0.0
 15
0.0
 25
0.0
 35
0.0
146
0.0
 13
0.0
 23
0.0
 33
0.0
 16
1.0
 26
0.0
 36
0.0
 17
0.0
 27
1.0
 37
0.0
 76
     0
330
D6
  0
LAYOUT
  5
22
102
{ACAD_REACTORS
330
1A
102
}
330
1A
100
AcDbPlotSettings
  1

  2
none_device
  4
ISO_A4_(210.00_x_297.00_MM)
  6

 40
7.5
 41
20.0
 42
7.5
 43
20.0
 44
210.0
 45
297.0
 46
11.54999923706054
 47
-13.65000009536743
 48
0.0
 49
0.0
140
0.0
141
0.0
142
1.0
143
8.704084754739808
 70
 11952
 72
     1
 73
     0
 74
     0
  7

 75
     0
147
0.1148885871608098
 76
     0
 77
     2
 78
   300
148
0.0
149
0.0
100
AcDbLayout
  1
Model
 70
     1
 71
     0
 10
0.0
 20
0.0
 11
12.0
 21
9.0
 12
0.0
 22
0.0
 32
0.0
 14
0.0
 24
0.0
 34
0.0
 15
0.0
 25
0.0
 35
0.0
146
0.0
 13
0.0
 23
0.0
 33
0.0
 16
1.0
 26
0.0
 36
0.0
 17
0.0
 27
1.0
 37
0.0
 76
     0
330
1F
331
EA
1001
ACAD_PSEXT
1000
None
1000
None
1000
Not applicable
1000
The layout will not be plotted unless a new plotter configuration name is selected.
1070
     0
  0
MATERIAL
  5
ED
102
{ACAD_REACTORS
330
6A
102
}
330
6A
100
AcDbMaterial
  1
ByBlock
 94
       63
  0
MATERIAL
  5
EC
102
{ACAD_REACTORS
330
6A
102
}
330
6A
100
AcDbMaterial
  1
ByLayer
 94
       63
  0
MATERIAL
  5
EE
102
{ACAD_XDICTIONARY
360
173
102
}
102
{ACAD_REACTORS
330
6A
102
}
330
6A
100
AcDbMaterial
  1
Global
 43
0.0007999999797903
 43
0.0
 43
0.0
 43
0.0
 43
0.0
 43
0.0007999999797903
 43
0.0
 43
0.0
 43
0.0
 43
0.0
 43
1.0
 43
0.0
 43
0.0
 43
0.0
 43
0.0
 43
1.0
 49
0.0007999999797903
 49
0.0
 49
0.0
 49
0.0
 49
0.0
 49
0.0007999999797903
 49
0.0
 49
0.0
 49
0.0
 49
0.0
 49
1.0
 49
0.0
 49
0.0
 49
0.0
 49
0.0
 49
1.0
142
0.0007999999797903
142
0.0
142
0.0
142
0.0
142
0.0
142
0.0007999999797903
142
0.0
142
0.0
142
0.0
142
0.0
142
1.0
142
0.0
142
0.0
142
0.0
142
0.0
142
1.0
144
0.0007999999797903
144
0.0
144
0.0
144
0.0
144
0.0
144
0.0007999999797903
144
0.0
144
0.0
144
0.0
144
0.0
144
1.0
144
0.0
144
0.0
144
0.0
144
0.0
144
1.0
 94
       63
1001
ACAD
1070
    -1
1070
     3
1070
     0
1000

1071
        0
1070
     0
  0
MLEADERSTYLE
  5
13B
102
{ACAD_REACTORS
330
12D
102
}
330
12D
100
AcDbMLeaderStyle
170
     2
171
     1
172
     0
 90
        2
 40
0.0
 41
0.0
173
     1
 91
-1056964608
340
14
 92
       -2
290
     1
 42
2.0
291
     1
 43
8.0
  3
Standard
 44
4.0
300

342
11
174
     1
178
     1
175
     1
176
     0
 93
-1056964608
 45
4.0
292
     0
297
     0
 46
4.0
 94
-1056964608
 47
1.0
 49
1.0
140
1.0
293
     1
141
0.0
294
     1
177
     0
142
1.0
295
     0
296
     1
143
3.75
1001
ACAD_MLEADERVER
1070
     2
  0
MLEADERSTYLE
  5
12E
102
{ACAD_REACTORS
330
12D
102
}
330
12D
100
AcDbMLeaderStyle
170
     2
171
     1
172
     0
 90
        2
 40
0.0
 41
0.0
173
     1
 91
-1056964608
340
14
 92
       -2
290
     1
 42
2.0
291
     1
 43
8.0
  3
Standard
 44
4.0
300

342
11
174
     1
178
     1
175
     1
176
     0
 93
-1056964608
 45
4.0
292
     0
297
     0
 46
4.0
 94
-1056964608
 47
1.0
 49
1.0
140
1.0
293
     1
141
0.0
294
     1
177
     0
142
1.0
295
     0
296
     0
143
3.75
1001
ACAD_MLEADERVER
1070
     2
  0
MLINESTYLE
  5
18
102
{ACAD_REACTORS
330
17
102
}
330
17
100
AcDbMlineStyle
  2
STANDARD
 70
     0
  3

 62
   256
 51
90.0
 52
90.0
 71
     2
 49
0.5
 62
   256
  6
BYLAYER
 49
-0.5
 62
   256
  6
BYLAYER
  0
ACDBPLACEHOLDER
  5
F
102
{ACAD_REACTORS
330
E
102
}
330
E
  0
SCALE
  5
10D
102
{ACAD_REACTORS
330
10C
102
}
330
10C
100
AcDbScale
 70
     0
300
1:1
140
1.0
141
1.0
290
     1
  0
SCALE
  5
188
102
{ACAD_REACTORS
330
10C
102
}
330
10C
100
AcDbScale
 70
     0
300
1:2
140
1.0
141
2.0
290
     0
  0
SCALE
  5
189
102
{ACAD_REACTORS
330
10C
102
}
330
10C
100
AcDbScale
 70
     0
300
1:4
140
1.0
141
4.0
290
     0
  0
SCALE
  5
18A
102
{ACAD_REACTORS
330
10C
102
}
330
10C
100
AcDbScale
 70
     0
300
1:5
140
1.0
141
5.0
290
     0
  0
SCALE
  5
18B
102
{ACAD_REACTORS
330
10C
102
}
330
10C
100
AcDbScale
 70
     0
300
1:8
140
1.0
141
8.0
290
     0
  0
SCALE
  5
18C
102
{ACAD_REACTORS
330
10C
102
}
330
10C
100
AcDbScale
 70
     0
300
1:10
140
1.0
141
10.0
290
     0
  0
SCALE
  5
18D
102
{ACAD_REACTORS
330
10C
102
}
330
10C
100
AcDbScale
 70
     0
300
1:16
140
1.0
141
16.0
290
     0
  0
SCALE
  5
18E
102
{ACAD_REACTORS
330
10C
102
}
330
10C
100
AcDbScale
 70
     0
300
1:20
140
1.0
141
20.0
290
     0
  0
SCALE
  5
18F
102
{ACAD_REACTORS
330
10C
102
}
330
10C
100
AcDbScale
 70
     0
300
1:30
140
1.0
141
30.0
290
     0
  0
SCALE
  5
190
102
{ACAD_REACTORS
330
10C
102
}
330
10C
100
AcDbScale
 70
     0
300
1:40
140
1.0
141
40.0
290
     0
  0
SCALE
  5
191
102
{ACAD_REACTORS
330
10C
102
}
330
10C
100
AcDbScale
 70
     0
300
1:50
140
1.0
141
50.0
290
     0
  0
SCALE
  5
192
102
{ACAD_REACTORS
330
10C
102
}
330
10C
100
AcDbScale
 70
     0
300
1:100
140
1.0
141
100.0
290
     0
  0
SCALE
  5
193
102
{ACAD_REACTORS
330
10C
102
}
330
10C
100
AcDbScale
 70
     0
300
2:1
140
2.0
141
1.0
290
     0
  0
SCALE
  5
194
102
{ACAD_REACTORS
330
10C
102
}
330
10C
100
AcDbScale
 70
     0
300
4:1
140
4.0
141
1.0
290
     0
  0
SCALE
  5
195
102
{ACAD_REACTORS
330
10C
102
}
330
10C
100
AcDbScale
 70
     0
300
8:1
140
8.0
141
1.0
290
     0
  0
SCALE
  5
196
102
{ACAD_REACTORS
330
10C
102
}
330
10C
100
AcDbScale
 70
     0
300
10:1
140
10.0
141
1.0
290
     0
  0
SCALE
  5
197
102
{ACAD_REACTORS
330
10C
102
}
330
10C
100
AcDbScale
 70
     0
300
100:1
140
100.0
141
1.0
290
     0
  0
SCALE
  5
198
102
{ACAD_REACTORS
330
10C
102
}
330
10C
100
AcDbScale
 70
     0
300
1/128" = 1'-0"
140
0.0078125
141
12.0
290
     0
  0
SCALE
  5
199
102
{ACAD_REACTORS
330
10C
102
}
330
10C
100
AcDbScale
 70
     0
300
1/64" = 1'-0"
140
0.015625
141
12.0
290
     0
  0
SCALE
  5
19A
102
{ACAD_REACTORS
330
10C
102
}
330
10C
100
AcDbScale
 70
     0
300
1/32" = 1'-0"
140
0.03125
141
12.0
290
     0
  0
SCALE
  5
19B
102
{ACAD_REACTORS
330
10C
102
}
330
10C
100
AcDbScale
 70
     0
300
1/16" = 1'-0"
140
0.0625
141
12.0
290
     0
  0
SCALE
  5
19C
102
{ACAD_REACTORS
330
10C
102
}
330
10C
100
AcDbScale
 70
     0
300
3/32" = 1'-0"
140
0.09375
141
12.0
290
     0
  0
SCALE
  5
19D
102
{ACAD_REACTORS
330
10C
102
}
330
10C
100
AcDbScale
 70
     0
300
1/8" = 1'-0"
140
0.125
141
12.0
290
     0
  0
SCALE
  5
19E
102
{ACAD_REACTORS
330
10C
102
}
330
10C
100
AcDbScale
 70
     0
300
3/16" = 1'-0"
140
0.1875
141
12.0
290
     0
  0
SCALE
  5
19F
102
{ACAD_REACTORS
330
10C
102
}
330
10C
100
AcDbScale
 70
     0
300
1/4" = 1'-0"
140
0.25
141
12.0
290
     0
  0
SCALE
  5
1A0
102
{ACAD_REACTORS
330
10C
102
}
330
10C
100
AcDbScale
 70
     0
300
3/8" = 1'-0"
140
0.375
141
12.0
290
     0
  0
SCALE
  5
1A1
102
{ACAD_REACTORS
330
10C
102
}
330
10C
100
AcDbScale
 70
     0
300
1/2" = 1'-0"
140
0.5
141
12.0
290
     0
  0
SCALE
  5
1A2
102
{ACAD_REACTORS
330
10C
102
}
330
10C
100
AcDbScale
 70
     0
300
3/4" = 1'-0"
140
0.75
141
12.0
290
     0
  0
SCALE
  5
1A3
102
{ACAD_REACTORS
330
10C
102
}
330
10C
100
AcDbScale
 70
     0
300
1" = 1'-0"
140
1.0
141
12.0
290
     0
  0
SCALE
  5
1A4
102
{ACAD_REACTORS
330
10C
102
}
330
10C
100
AcDbScale
 70
     0
300
1-1/2" = 1'-0"
140
1.5
141
12.0
290
     0
  0
SCALE
  5
1A5
102
{ACAD_REACTORS
330
10C
102
}
330
10C
100
AcDbScale
 70
     0
300
3" = 1'-0"
140
3.0
141
12.0
290
     0
  0
SCALE
  5
1A6
102
{ACAD_REACTORS
330
10C
102
}
330
10C
100
AcDbScale
 70
     0
300
6" = 1'-0"
140
6.0
141
12.0
290
     0
  0
SCALE
  5
1A7
102
{ACAD_REACTORS
330
10C
102
}
330
10C
100
AcDbScale
 70
     0
300
1'-0" = 1'-0"
140
12.0
141
12.0
290
     0
  0
TABLESTYLE
  5
7F
102
{ACAD_XDICTIONARY
360
162
102
}
102
{ACAD_REACTORS
330
7E
102
}
330
7E
100
AcDbTableStyle
  3
Standard
 70
     0
 71
     0
 40
1.5
 41
1.5
280
     0
281
     0
  7
Standard
140
4.5
170
     2
 62
     0
 63
     7
283
     0
 90
      512
 91
        0
  1

274
    -2
284
     1
 64
     0
275
    -2
285
     1
 65
     0
276
    -2
286
     1
 66
     0
277
    -2
287
     1
 67
     0
278
    -2
288
     1
 68
     0
279
    -2
289
     1
 69
     0
  7
Standard
140
6.0
170
     5
 62
     0
 63
     7
283
     0
 90
      512
 91
        0
  1

274
    -2
284
     1
 64
     0
275
    -2
285
     1
 65
     0
276
    -2
286
     1
 66
     0
277
    -2
287
     1
 67
     0
278
    -2
288
     1
 68
     0
279
    -2
289
     1
 69
     0
  7
Standard
140
4.5
170
     5
 62
     0
 63
     7
283
     0
 90
      512
 91
        0
  1

274
    -2
284
     1
 64
     0
275
    -2
285
     1
 65
     0
276
    -2
286
     1
 66
     0
277
    -2
287
     1
 67
     0
278
    -2
288
     1
 68
     0
279
    -2
289
     1
 69
     0
  0
VISUALSTYLE
  5
F5
102
{ACAD_REACTORS
330
EF
102
}
330
EF
100
AcDbVisualStyle
  2
2dWireframe
 70
     4
 71
     0
 72
     2
 73
     1
 90
        0
 40
-0.6
 41
-30.0
 62
     5
 63
     7
421
 16777215
 74
     1
 91
        4
 64
     7
 65
   257
 75
     1
175
     1
 42
1.0
 92
        0
 66
   257
 43
1.0
 76
     1
 77
     6
 78
     2
 67
     7
 79
     5
170
     0
171
     0
290
     0
174
     0
 93
        1
 44
0.0
173
     0
291
     0
 45
0.0
  0
VISUALSTYLE
  5
F7
102
{ACAD_REACTORS
330
EF
102
}
330
EF
100
AcDbVisualStyle
  2
3D Hidden
 70
     6
 71
     1
 72
     2
 73
     2
 90
        0
 40
-0.6
 41
-30.0
 62
     5
 63
     7
421
 16777215
 74
     2
 91
        2
 64
     7
 65
   257
 75
     2
175
     1
 42
40.0
 92
        0
 66
   257
 43
1.0
 76
     1
 77
     6
 78
     2
 67
     7
 79
     3
170
     0
171
     0
290
     0
174
     0
 93
        1
 44
0.0
173
     0
291
     0
 45
0.0
  0
VISUALSTYLE
  5
F6
102
{ACAD_REACTORS
330
EF
102
}
330
EF
100
AcDbVisualStyle
  2
3dWireframe
 70
     5
 71
     0
 72
     2
 73
     1
 90
        0
 40
-0.6
 41
-30.0
 62
     5
 63
     7
421
 16777215
 74
     1
 91
        4
 64
     7
 65
   257
 75
     1
175
     1
 42
1.0
 92
        0
 66
   257
 43
1.0
 76
     1
 77
     6
 78
     2
 67
     7
 79
     5
170
     0
171
     0
290
     0
174
     0
 93
        1
 44
0.0
173
     0
291
     0
 45
0.0
  0
VISUALSTYLE
  5
F4
102
{ACAD_REACTORS
330
EF
102
}
330
EF
100
AcDbVisualStyle
  2
Basic
 70
     7
 71
     1
 72
     0
 73
     1
 90
        0
 40
-0.6
 41
-30.0
 62
     5
 63
     7
421
 16777215
 74
     0
 91
        4
 64
     7
 65
   257
 75
     1
175
     1
 42
1.0
 92
        8
 66
     7
 43
1.0
 76
     1
 77
     6
 78
     2
 67
     7
 79
     5
170
     0
171
     0
290
     0
174
     0
 93
        1
 44
0.0
173
     0
291
     1
 45
0.0
  0
VISUALSTYLE
  5
FB
102
{ACAD_REACTORS
330
EF
102
}
330
EF
100
AcDbVisualStyle
  2
Brighten
 70
    12
 71
     2
 72
     2
 73
     1
 90
        0
 40
-0.6
 41
-30.0
 62
     5
 63
     7
421
 16777215
 74
     1
 91
        4
 64
     7
 65
   257
 75
     1
175
     1
 42
1.0
 92
        8
 66
     7
 43
1.0
 76
     1
 77
     6
 78
     2
 67
     7
 79
     5
170
     0
171
     0
290
     0
174
     0
 93
        1
 44
50.0
173
     0
291
     1
 45
0.0
  0
VISUALSTYLE
  5
FF
102
{ACAD_REACTORS
330
EF
102
}
330
EF
100
AcDbVisualStyle
  2
ColorChange
 70
    16
 71
     2
 72
     2
 73
     3
 90
        0
 40
-0.6
 41
-30.0
 62
     5
 63
     8
421
  8421504
 74
     1
 91
        4
 64
     7
 65
   257
 75
     1
175
     1
 42
1.0
 92
        8
 66
     8
424
  8421504
 43
1.0
 76
     1
 77
     6
 78
     2
 67
     7
 79
     5
170
     0
171
     0
290
     0
174
     0
 93
        1
 44
0.0
173
     0
291
     1
 45
0.0
  0
VISUALSTYLE
  5
F8
102
{ACAD_REACTORS
330
EF
102
}
330
EF
100
AcDbVisualStyle
  2
Conceptual
 70
     9
 71
     3
 72
     2
 73
     1
 90
        0
 40
-0.6
 41
-30.0
 62
     5
 63
     7
421
 16777215
 74
     2
 91
        2
 64
     7
 65
   257
 75
     1
175
     1
 42
40.0
 92
        8
 66
     7
 43
1.0
 76
     1
 77
     6
 78
     2
 67
     7
 79
     3
170
     0
171
     0
290
     0
174
     0
 93
        1
 44
0.0
173
     0
291
     0
 45
0.0
  0
VISUALSTYLE
  5
FA
102
{ACAD_REACTORS
330
EF
102
}
330
EF
100
AcDbVisualStyle
  2
Dim
 70
    11
 71
     2
 72
     2
 73
     1
 90
        0
 40
-0.6
 41
-30.0
 62
     5
 63
     7
421
 16777215
 74
     1
 91
        4
 64
     7
 65
   257
 75
     1
175
     1
 42
1.0
 92
        8
 66
     7
 43
1.0
 76
     1
 77
     6
 78
     2
 67
     7
 79
     5
170
     0
171
     0
290
     0
174
     0
 93
        1
 44
-50.0
173
     0
291
     1
 45
0.0
  0
VISUALSTYLE
  5
FE
102
{ACAD_REACTORS
330
EF
102
}
330
EF
100
AcDbVisualStyle
  2
Facepattern
 70
    15
 71
     2
 72
     2
 73
     1
 90
        0
 40
-0.6
 41
-30.0
 62
     5
 63
     7
421
 16777215
 74
     1
 91
        4
 64
     7
 65
   257
 75
     1
175
     1
 42
1.0
 92
        8
 66
     7
 43
1.0
 76
     1
 77
     6
 78
     2
 67
     7
 79
     5
170
     0
171
     0
290
     0
174
     0
 93
        1
 44
0.0
173
     0
291
     1
 45
0.0
  0
VISUALSTYLE
  5
F0
102
{ACAD_REACTORS
330
EF
102
}
330
EF
100
AcDbVisualStyle
  2
Flat
 70
     0
 71
     2
 72
     1
 73
     1
 90
        2
 40
-0.6
 41
30.0
 62
     5
 63
     7
421
 16777215
 74
     0
 91
        4
 64
     7
 65
   257
 75
     1
175
     1
 42
1.0
 92
        8
 66
     7
 43
1.0
 76
     1
 77
     6
 78
     2
 67
     7
 79
     5
170
     0
171
     0
290
     0
174
     0
 93
        1
 44
0.0
173
     0
291
     1
 45
0.0
  0
VISUALSTYLE
  5
F1
102
{ACAD_REACTORS
330
EF
102
}
330
EF
100
AcDbVisualStyle
  2
FlatWithEdges
 70
     1
 71
     2
 72
     1
 73
     1
 90
        2
 40
-0.6
 41
30.0
 62
     5
 63
     7
421
 16777215
 74
     1
 91
        4
 64
     7
 65
   257
 75
     1
175
     1
 42
1.0
 92
        0
 66
   257
 43
1.0
 76
     1
 77
     6
 78
     2
 67
     7
 79
     5
170
     0
171
     0
290
     0
174
     0
 93
        1
 44
0.0
173
     0
291
     1
 45
0.0
  0
VISUALSTYLE
  5
F2
102
{ACAD_REACTORS
330
EF
102
}
330
EF
100
AcDbVisualStyle
  2
Gouraud
 70
     2
 71
     2
 72
     2
 73
     1
 90
        2
 40
-0.6
 41
30.0
 62
     5
 63
     7
421
 16777215
 74
     0
 91
        4
 64
     7
 65
   257
 75
     1
175
     1
 42
1.0
 92
        0
 66
     7
 43
1.0
 76
     1
 77
     6
 78
     2
 67
     7
 79
     5
170
     0
171
     0
290
     0
174
     0
 93
        1
 44
0.0
173
     0
291
     1
 45
0.0
  0
VISUALSTYLE
  5
F3
102
{ACAD_REACTORS
330
EF
102
}
330
EF
100
AcDbVisualStyle
  2
GouraudWithEdges
 70
     3
 71
     2
 72
     2
 73
     1
 90
        2
 40
-0.6
 41
30.0
 62
     5
 63
     7
421
 16777215
 74
     1
 91
        4
 64
     7
 65
   257
 75
     1
175
     1
 42
1.0
 92
        0
 66
   257
 43
1.0
 76
     1
 77
     6
 78
     2
 67
     7
 79
     5
170
     0
171
     0
290
     0
174
     0
 93
        1
 44
0.0
173
     0
291
     1
 45
0.0
  0
VISUALSTYLE
  5
FD
102
{ACAD_REACTORS
330
EF
102
}
330
EF
100
AcDbVisualStyle
  2
Linepattern
 70
    14
 71
     2
 72
     2
 73
     1
 90
        0
 40
-0.6
 41
-30.0
 62
     5
 63
     7
421
 16777215
 74
     1
 91
        4
 64
     7
 65
   257
 75
     7
175
     7
 42
1.0
 92
        8
 66
     7
 43
1.0
 76
     1
 77
     6
 78
     2
 67
     7
 79
     5
170
     0
171
     0
290
     0
174
     0
 93
        1
 44
0.0
173
     0
291
     1
 45
0.0
  0
VISUALSTYLE
  5
F9
102
{ACAD_REACTORS
330
EF
102
}
330
EF
100
AcDbVisualStyle
  2
Realistic
 70
     8
 71
     2
 72
     2
 73
     1
 90
        0
 40
-0.6
 41
-30.0
 62
     5
 63
     7
421
 16777215
 74
     1
 91
        0
 64
     7
 65
   257
 75
     1
175
     1
 42
1.0
 92
        8
 66
     8
424
  7895160
 43
1.0
 76
     1
 77
     6
 78
     2
 67
     7
 79
     5
170
     0
171
     0
290
     0
174
     0
 93
       13
 44
0.0
173
     0
291
     0
 45
0.0
  0
VISUALSTYLE
  5
FC
102
{ACAD_REACTORS
330
EF
102
}
330
EF
100
AcDbVisualStyle
  2
Thicken
 70
    13
 71
     2
 72
     2
 73
     1
 90
        0
 40
-0.6
 41
-30.0
 62
     5
 63
     7
421
 16777215
 74
     1
 91
        4
 64
     7
 65
   257
 75
     1
175
     1
 42
1.0
 92
       12
 66
     7
 43
1.0
 76
     1
 77
     6
 78
     2
 67
     7
 79
     5
170
     0
171
     0
290
     0
174
     0
 93
        1
 44
0.0
173
     0
291
     1
 45
0.0
  0
DICTIONARYVAR
  5
146
102
{ACAD_REACTORS
330
5E
102
}
330
5E
100
DictionaryVariables
280
     0
  1
1:1
  0
DICTIONARYVAR
  5
145
102
{ACAD_REACTORS
330
5E
102
}
330
5E
100
DictionaryVariables
280
     0
  1
STANDARD
  0
DICTIONARYVAR
  5
84
102
{ACAD_REACTORS
330
5E
102
}
330
5E
100
DictionaryVariables
280
     0
  1
STANDARD
  0
DICTIONARYVAR
  5
5F
102
{ACAD_REACTORS
330
5E
102
}
330
5E
100
DictionaryVariables
280
     0
  1
2
  0
DICTIONARYVAR
  5
63
102
{ACAD_REACTORS
330
5E
102
}
330
5E
100
DictionaryVariables
280
     0
  1
1
  0
DICTIONARY
  5
173
330
EE
100
AcDbDictionary
280
     1
281
     1
  3
BUMPTILE
360
175
  3
DIFFUSETILE
360
174
  3
OPACITYTILE
360
176
  3
REFLECTIONTILE
360
177
  0
DICTIONARY
  5
162
330
7F
100
AcDbDictionary
280
     1
281
     1
  3
ACAD_ROUNDTRIP_2008_TABLESTYLE_CELLSTYLEMAP
360
465
  0
XRECORD
  5
175
102
{ACAD_REACTORS
330
173
102
}
330
173
100
AcDbXrecord
280
     1
270
     1
271
     1
  0
XRECORD
  5
174
102
{ACAD_REACTORS
330
173
102
}
330
173
100
AcDbXrecord
280
     1
270
     1
271
     1
  0
XRECORD
  5
176
102
{ACAD_REACTORS
330
173
102
}
330
173
100
AcDbXrecord
280
     1
270
     1
271
     1
  0
XRECORD
  5
177
102
{ACAD_REACTORS
330
173
102
}
330
173
100
AcDbXrecord
280
     1
270
     1
271
     1
  0
CELLSTYLEMAP
  5
465
102
{ACAD_REACTORS
330
162
102
}
330
162
100
AcDbCellStyleMap
 90
        3
300
CELLSTYLE
  1
TABLEFORMAT_BEGIN
 90
        5
170
     1
 91
        0
 92
    32768
 62
   257
 93
        1
300
CONTENTFORMAT
  1
CONTENTFORMAT_BEGIN
 90
        0
 91
        0
 92
      512
 93
        0
300

 40
0.0
140
1.0
 94
        5
 62
     0
340
11
144
6.0
309
CONTENTFORMAT_END
171
     1
301
MARGIN
  1
CELLMARGIN_BEGIN
 40
1.5
 40
1.5
 40
1.5
 40
1.5
 40
4.5
 40
4.5
309
CELLMARGIN_END
 94
        6
 95
        1
302
GRIDFORMAT
  1
GRIDFORMAT_BEGIN
 90
        0
 91
        1
 62
     0
 92
       -2
340
14
 93
        0
 40
1.125
309
GRIDFORMAT_END
 95
        2
302
GRIDFORMAT
  1
GRIDFORMAT_BEGIN
 90
        0
 91
        1
 62
     0
 92
       -2
340
14
 93
        0
 40
1.125
309
GRIDFORMAT_END
 95
        4
302
GRIDFORMAT
  1
GRIDFORMAT_BEGIN
 90
        0
 91
        1
 62
     0
 92
       -2
340
14
 93
        0
 40
1.125
309
GRIDFORMAT_END
 95
        8
302
GRIDFORMAT
  1
GRIDFORMAT_BEGIN
 90
        0
 91
        1
 62
     0
 92
       -2
340
14
 93
        0
 40
1.125
309
GRIDFORMAT_END
 95
       16
302
GRIDFORMAT
  1
GRIDFORMAT_BEGIN
 90
        0
 91
        1
 62
     0
 92
       -2
340
14
 93
        0
 40
1.125
309
GRIDFORMAT_END
 95
       32
302
GRIDFORMAT
  1
GRIDFORMAT_BEGIN
 90
        0
 91
        1
 62
     0
 92
       -2
340
14
 93
        0
 40
1.125
309
GRIDFORMAT_END
309
TABLEFORMAT_END
  1
CELLSTYLE_BEGIN
 90
        1
 91
        1
300
_TITLE
309
CELLSTYLE_END
300
CELLSTYLE
  1
TABLEFORMAT_BEGIN
 90
        5
170
     1
 91
        0
 92
        0
 62
   257
 93
        1
300
CONTENTFORMAT
  1
CONTENTFORMAT_BEGIN
 90
        0
 91
        0
 92
      512
 93
        0
300

 40
0.0
140
1.0
 94
        5
 62
     0
340
11
144
4.5
309
CONTENTFORMAT_END
171
     1
301
MARGIN
  1
CELLMARGIN_BEGIN
 40
1.5
 40
1.5
 40
1.5
 40
1.5
 40
4.5
 40
4.5
309
CELLMARGIN_END
 94
        6
 95
        1
302
GRIDFORMAT
  1
GRIDFORMAT_BEGIN
 90
        0
 91
        1
 62
     0
 92
       -2
340
14
 93
        0
 40
1.125
309
GRIDFORMAT_END
 95
        2
302
GRIDFORMAT
  1
GRIDFORMAT_BEGIN
 90
        0
 91
        1
 62
     0
 92
       -2
340
14
 93
        0
 40
1.125
309
GRIDFORMAT_END
 95
        4
302
GRIDFORMAT
  1
GRIDFORMAT_BEGIN
 90
        0
 91
        1
 62
     0
 92
       -2
340
14
 93
        0
 40
1.125
309
GRIDFORMAT_END
 95
        8
302
GRIDFORMAT
  1
GRIDFORMAT_BEGIN
 90
        0
 91
        1
 62
     0
 92
       -2
340
14
 93
        0
 40
1.125
309
GRIDFORMAT_END
 95
       16
302
GRIDFORMAT
  1
GRIDFORMAT_BEGIN
 90
        0
 91
        1
 62
     0
 92
       -2
340
14
 93
        0
 40
1.125
309
GRIDFORMAT_END
 95
       32
302
GRIDFORMAT
  1
GRIDFORMAT_BEGIN
 90
        0
 91
        1
 62
     0
 92
       -2
340
14
 93
        0
 40
1.125
309
GRIDFORMAT_END
309
TABLEFORMAT_END
  1
CELLSTYLE_BEGIN
 90
        2
 91
        1
300
_HEADER
309
CELLSTYLE_END
300
CELLSTYLE
  1
TABLEFORMAT_BEGIN
 90
        5
170
     1
 91
        0
 92
        0
 62
   257
 93
        1
300
CONTENTFORMAT
  1
CONTENTFORMAT_BEGIN
 90
        0
 91
        0
 92
      512
 93
        0
300

 40
0.0
140
1.0
 94
        2
 62
     0
340
11
144
4.5
309
CONTENTFORMAT_END
171
     1
301
MARGIN
  1
CELLMARGIN_BEGIN
 40
1.5
 40
1.5
 40
1.5
 40
1.5
 40
4.5
 40
4.5
309
CELLMARGIN_END
 94
        6
 95
        1
302
GRIDFORMAT
  1
GRIDFORMAT_BEGIN
 90
        0
 91
        1
 62
     0
 92
       -2
340
14
 93
        0
 40
1.125
309
GRIDFORMAT_END
 95
        2
302
GRIDFORMAT
  1
GRIDFORMAT_BEGIN
 90
        0
 91
        1
 62
     0
 92
       -2
340
14
 93
        0
 40
1.125
309
GRIDFORMAT_END
 95
        4
302
GRIDFORMAT
  1
GRIDFORMAT_BEGIN
 90
        0
 91
        1
 62
     0
 92
       -2
340
14
 93
        0
 40
1.125
309
GRIDFORMAT_END
 95
        8
302
GRIDFORMAT
  1
GRIDFORMAT_BEGIN
 90
        0
 91
        1
 62
     0
 92
       -2
340
14
 93
        0
 40
1.125
309
GRIDFORMAT_END
 95
       16
302
GRIDFORMAT
  1
GRIDFORMAT_BEGIN
 90
        0
 91
        1
 62
     0
 92
       -2
340
14
 93
        0
 40
1.125
309
GRIDFORMAT_END
 95
       32
302
GRIDFORMAT
  1
GRIDFORMAT_BEGIN
 90
        0
 91
        1
 62
     0
 92
       -2
340
14
 93
        0
 40
1.125
309
GRIDFORMAT_END
309
TABLEFORMAT_END
  1
CELLSTYLE_BEGIN
 90
        3
 91
        2
300
_DATA
309
CELLSTYLE_END
  0
ENDSEC
  0
EOF
