999
Created by ExtraCAD III per Windows 95
  0
SECTION
  2
HEADER
  9
$EXTMIN
 10
-1005
 20
-724.466954641613482
  9
$EXTMAX
 10
-65
 20
715
  9
$LTSCALE
 40
0.1
  9
$PDMODE
 70
2
  9
$PDSIZE
 40
1.5
  0
ENDSEC
  0
SECTION
  2
TABLES
  0
TABLE
  2
LTYPE
 70
32
  0
LTYPE
  2
SOLID
 70
0
  3
Solido
 72
65
 73
0
 40
0
  0
LTYPE
  2
DOTTED
 70
0
  3
Punteggiato
 72
65
 73
2
 40
12
 49
2
 49
-10
  0
LTYPE
  2
DASHEDS
 70
0
  3
Tratteggiato piccolo
 72
65
 73
2
 40
20
 49
10
 49
-10
  0
LTYPE
  2
DASHEDM
 70
0
  3
Tratteggiato medio
 72
65
 73
2
 40
40
 49
20
 49
-20
  0
LTYPE
  2
DASHEDL
 70
0
  3
Tratteggiato grande
 72
65
 73
2
 40
60
 49
40
 49
-20
  0
LTYPE
  2
CENTERED
 70
0
  3
Tratteggiato misto
 72
65
 73
4
 40
70
 49
10
 49
-20
 49
20
 49
-20
  0
LTYPE
  2
POINTLINE
 70
0
  3
Punto e linea
 72
65
 73
4
 40
62
 49
20
 49
-20
 49
2
 49
-20
  0
LTYPE
  2
2POINTLINE
 70
0
  3
Due punti e linea
 72
65
 73
6
 40
84
 49
20
 49
-20
 49
2
 49
-20
 49
2
 49
-20
  0
LTYPE
  2
BORDER
 70
0
  3
AutoCAD BORDER
 72
65
 73
6
 40
450
 49
128
 49
-64
 49
128
 49
-64
 49
2
 49
-64
  0
LTYPE
  2
BORDER2
 70
0
  3
AutoCAD BORDER2
 72
65
 73
6
 40
226
 49
64
 49
-32
 49
64
 49
-32
 49
2
 49
-32
  0
LTYPE
  2
BORDERX2
 70
0
  3
AutoCAD BORDERX2
 72
65
 73
6
 40
898
 49
256
 49
-128
 49
256
 49
-128
 49
2
 49
-128
  0
LTYPE
  2
CENTER
 70
0
  3
AutoCAD CENTER
 72
65
 73
4
 40
512
 49
320
 49
-64
 49
64
 49
-64
  0
LTYPE
  2
CENTER2
 70
0
  3
AutoCAD CENTER2
 72
65
 73
4
 40
256
 49
160
 49
-32
 49
32
 49
-32
  0
LTYPE
  2
CENTERX2
 70
0
  3
AutoCAD CENTERX2
 72
65
 73
4
 40
1024
 49
640
 49
-128
 49
128
 49
-128
  0
LTYPE
  2
DASHDOT
 70
0
  3
AutoCAD DASHDOT
 72
65
 73
4
 40
258
 49
128
 49
-64
 49
2
 49
-64
  0
LTYPE
  2
DASHDOT2
 70
0
  3
AutoCAD DASHDOT2
 72
65
 73
4
 40
130
 49
64
 49
-32
 49
2
 49
-32
  0
LTYPE
  2
DASHDOTX2
 70
0
  3
AutoCAD DASHDOTX2
 72
65
 73
4
 40
514
 49
256
 49
-128
 49
2
 49
-128
  0
LTYPE
  2
DASHED
 70
0
  3
AutoCAD DASHED
 72
65
 73
2
 40
192
 49
128
 49
-64
  0
LTYPE
  2
DASHED2
 70
0
  3
AutoCAD DASHED2
 72
65
 73
2
 40
96
 49
64
 49
-32
  0
LTYPE
  2
DASHEDX2
 70
0
  3
AutoCAD DASHEDX2
 72
65
 73
2
 40
384
 49
256
 49
-128
  0
LTYPE
  2
DIVIDE
 70
0
  3
AutoCAD DIVIDE
 72
65
 73
6
 40
324
 49
128
 49
-64
 49
2
 49
-64
 49
2
 49
-64
  0
LTYPE
  2
DIVIDE2
 70
0
  3
AutoCAD DIVIDE2
 72
65
 73
6
 40
164
 49
64
 49
-32
 49
2
 49
-32
 49
2
 49
-32
  0
LTYPE
  2
DIVIDEX2
 70
0
  3
AutoCAD DIVIDEX2
 72
65
 73
6
 40
644
 49
256
 49
-128
 49
2
 49
-128
 49
2
 49
-128
  0
LTYPE
  2
DOT
 70
0
  3
AutoCAD DOT
 72
65
 73
2
 40
66
 49
2
 49
-64
  0
LTYPE
  2
DOT2
 70
0
  3
AutoCAD DOT2
 72
65
 73
2
 40
34
 49
2
 49
-32
  0
LTYPE
  2
DOTX2
 70
0
  3
AutoCAD DOTX2
 72
65
 73
2
 40
130
 49
2
 49
-128
  0
LTYPE
  2
HIDDEN
 70
0
  3
AutoCAD HIDDEN
 72
65
 73
2
 40
96
 49
64
 49
-32
  0
LTYPE
  2
HIDDEN2
 70
0
  3
AutoCAD HIDDEN2
 72
65
 73
2
 40
48
 49
32
 49
-16
  0
LTYPE
  2
HIDDENX2
 70
0
  3
AutoCAD HIDDENX2
 72
65
 73
2
 40
192
 49
128
 49
-64
  0
LTYPE
  2
PHANTOM
 70
0
  3
AutoCAD PHANTOM
 72
65
 73
6
 40
640
 49
320
 49
-64
 49
64
 49
-64
 49
64
 49
-64
  0
LTYPE
  2
PHANTOM2
 70
0
  3
AutoCAD PHANTOM2
 72
65
 73
6
 40
320
 49
160
 49
-32
 49
32
 49
-32
 49
32
 49
-32
  0
LTYPE
  2
PHANTOMX2
 70
0
  3
AutoCAD PHANTOMX2
 72
65
 73
6
 40
1280
 49
640
 49
-128
 49
128
 49
-128
 49
128
 49
-128
  0
ENDTAB
  0
TABLE
  2
LAYER
 70
256
  0
LAYER
  2
0
 70
0
 62
7
  6
SOLID
  0
LAYER
  2
1
 70
0
 62
7
  6
SOLID
  0
LAYER
  2
2
 70
0
 62
7
  6
SOLID
  0
LAYER
  2
3
 70
0
 62
7
  6
SOLID
  0
LAYER
  2
4
 70
0
 62
7
  6
SOLID
  0
LAYER
  2
5
 70
0
 62
7
  6
SOLID
  0
LAYER
  2
6
 70
0
 62
7
  6
SOLID
  0
LAYER
  2
7
 70
0
 62
7
  6
SOLID
  0
LAYER
  2
8
 70
0
 62
7
  6
SOLID
  0
LAYER
  2
9
 70
0
 62
7
  6
SOLID
  0
LAYER
  2
10
 70
0
 62
7
  6
SOLID
  0
LAYER
  2
11
 70
0
 62
7
  6
SOLID
  0
LAYER
  2
12
 70
0
 62
7
  6
SOLID
  0
LAYER
  2
13
 70
0
 62
7
  6
SOLID
  0
LAYER
  2
14
 70
0
 62
7
  6
SOLID
  0
LAYER
  2
15
 70
0
 62
7
  6
SOLID
  0
LAYER
  2
16
 70
0
 62
7
  6
SOLID
  0
LAYER
  2
17
 70
0
 62
7
  6
SOLID
  0
LAYER
  2
18
 70
0
 62
7
  6
SOLID
  0
LAYER
  2
19
 70
0
 62
7
  6
SOLID
  0
LAYER
  2
20
 70
0
 62
7
  6
SOLID
  0
LAYER
  2
21
 70
0
 62
7
  6
SOLID
  0
LAYER
  2
22
 70
0
 62
7
  6
SOLID
  0
LAYER
  2
23
 70
0
 62
7
  6
SOLID
  0
LAYER
  2
24
 70
0
 62
7
  6
SOLID
  0
LAYER
  2
25
 70
0
 62
7
  6
SOLID
  0
LAYER
  2
26
 70
0
 62
7
  6
SOLID
  0
LAYER
  2
27
 70
0
 62
7
  6
SOLID
  0
LAYER
  2
28
 70
0
 62
7
  6
SOLID
  0
LAYER
  2
29
 70
0
 62
7
  6
SOLID
  0
LAYER
  2
30
 70
0
 62
7
  6
SOLID
  0
LAYER
  2
31
 70
0
 62
7
  6
SOLID
  0
LAYER
  2
32
 70
0
 62
7
  6
SOLID
  0
LAYER
  2
33
 70
0
 62
7
  6
SOLID
  0
LAYER
  2
34
 70
0
 62
7
  6
SOLID
  0
LAYER
  2
35
 70
0
 62
7
  6
SOLID
  0
LAYER
  2
36
 70
0
 62
7
  6
SOLID
  0
LAYER
  2
37
 70
0
 62
7
  6
SOLID
  0
LAYER
  2
38
 70
0
 62
7
  6
SOLID
  0
LAYER
  2
39
 70
0
 62
7
  6
SOLID
  0
LAYER
  2
40
 70
0
 62
7
  6
SOLID
  0
LAYER
  2
41
 70
0
 62
7
  6
SOLID
  0
LAYER
  2
42
 70
0
 62
7
  6
SOLID
  0
LAYER
  2
43
 70
0
 62
7
  6
SOLID
  0
LAYER
  2
44
 70
0
 62
7
  6
SOLID
  0
LAYER
  2
45
 70
0
 62
7
  6
SOLID
  0
LAYER
  2
46
 70
0
 62
7
  6
SOLID
  0
LAYER
  2
47
 70
0
 62
7
  6
SOLID
  0
LAYER
  2
48
 70
0
 62
7
  6
SOLID
  0
LAYER
  2
49
 70
0
 62
7
  6
SOLID
  0
LAYER
  2
50
 70
0
 62
7
  6
SOLID
  0
LAYER
  2
51
 70
0
 62
7
  6
SOLID
  0
LAYER
  2
52
 70
0
 62
7
  6
SOLID
  0
LAYER
  2
53
 70
0
 62
7
  6
SOLID
  0
LAYER
  2
54
 70
0
 62
7
  6
SOLID
  0
LAYER
  2
55
 70
0
 62
7
  6
SOLID
  0
LAYER
  2
56
 70
0
 62
7
  6
SOLID
  0
LAYER
  2
57
 70
0
 62
7
  6
SOLID
  0
LAYER
  2
58
 70
0
 62
7
  6
SOLID
  0
LAYER
  2
59
 70
0
 62
7
  6
SOLID
  0
LAYER
  2
60
 70
0
 62
7
  6
SOLID
  0
LAYER
  2
61
 70
0
 62
7
  6
SOLID
  0
LAYER
  2
62
 70
0
 62
7
  6
SOLID
  0
LAYER
  2
63
 70
0
 62
7
  6
SOLID
  0
LAYER
  2
64
 70
0
 62
7
  6
SOLID
  0
LAYER
  2
65
 70
0
 62
7
  6
SOLID
  0
LAYER
  2
66
 70
0
 62
7
  6
SOLID
  0
LAYER
  2
67
 70
0
 62
7
  6
SOLID
  0
LAYER
  2
68
 70
0
 62
7
  6
SOLID
  0
LAYER
  2
69
 70
0
 62
7
  6
SOLID
  0
LAYER
  2
70
 70
0
 62
7
  6
SOLID
  0
LAYER
  2
71
 70
0
 62
7
  6
SOLID
  0
LAYER
  2
72
 70
0
 62
7
  6
SOLID
  0
LAYER
  2
73
 70
0
 62
7
  6
SOLID
  0
LAYER
  2
74
 70
0
 62
7
  6
SOLID
  0
LAYER
  2
75
 70
0
 62
7
  6
SOLID
  0
LAYER
  2
76
 70
0
 62
7
  6
SOLID
  0
LAYER
  2
77
 70
0
 62
7
  6
SOLID
  0
LAYER
  2
78
 70
0
 62
7
  6
SOLID
  0
LAYER
  2
79
 70
0
 62
7
  6
SOLID
  0
LAYER
  2
80
 70
0
 62
7
  6
SOLID
  0
LAYER
  2
81
 70
0
 62
7
  6
SOLID
  0
LAYER
  2
82
 70
0
 62
7
  6
SOLID
  0
LAYER
  2
83
 70
0
 62
7
  6
SOLID
  0
LAYER
  2
84
 70
0
 62
7
  6
SOLID
  0
LAYER
  2
85
 70
0
 62
7
  6
SOLID
  0
LAYER
  2
86
 70
0
 62
7
  6
SOLID
  0
LAYER
  2
87
 70
0
 62
7
  6
SOLID
  0
LAYER
  2
88
 70
0
 62
7
  6
SOLID
  0
LAYER
  2
89
 70
0
 62
7
  6
SOLID
  0
LAYER
  2
90
 70
0
 62
7
  6
SOLID
  0
LAYER
  2
91
 70
0
 62
7
  6
SOLID
  0
LAYER
  2
92
 70
0
 62
7
  6
SOLID
  0
LAYER
  2
93
 70
0
 62
7
  6
SOLID
  0
LAYER
  2
94
 70
0
 62
7
  6
SOLID
  0
LAYER
  2
95
 70
0
 62
7
  6
SOLID
  0
LAYER
  2
96
 70
0
 62
7
  6
SOLID
  0
LAYER
  2
97
 70
0
 62
7
  6
SOLID
  0
LAYER
  2
98
 70
0
 62
7
  6
SOLID
  0
LAYER
  2
99
 70
0
 62
7
  6
SOLID
  0
LAYER
  2
100
 70
0
 62
7
  6
SOLID
  0
LAYER
  2
101
 70
0
 62
7
  6
SOLID
  0
LAYER
  2
102
 70
0
 62
7
  6
SOLID
  0
LAYER
  2
103
 70
0
 62
7
  6
SOLID
  0
LAYER
  2
104
 70
0
 62
7
  6
SOLID
  0
LAYER
  2
105
 70
0
 62
7
  6
SOLID
  0
LAYER
  2
106
 70
0
 62
7
  6
SOLID
  0
LAYER
  2
107
 70
0
 62
7
  6
SOLID
  0
LAYER
  2
108
 70
0
 62
7
  6
SOLID
  0
LAYER
  2
109
 70
0
 62
7
  6
SOLID
  0
LAYER
  2
110
 70
0
 62
7
  6
SOLID
  0
LAYER
  2
111
 70
0
 62
7
  6
SOLID
  0
LAYER
  2
112
 70
0
 62
7
  6
SOLID
  0
LAYER
  2
113
 70
0
 62
7
  6
SOLID
  0
LAYER
  2
114
 70
0
 62
7
  6
SOLID
  0
LAYER
  2
115
 70
0
 62
7
  6
SOLID
  0
LAYER
  2
116
 70
0
 62
7
  6
SOLID
  0
LAYER
  2
117
 70
0
 62
7
  6
SOLID
  0
LAYER
  2
118
 70
0
 62
7
  6
SOLID
  0
LAYER
  2
119
 70
0
 62
7
  6
SOLID
  0
LAYER
  2
120
 70
0
 62
7
  6
SOLID
  0
LAYER
  2
121
 70
0
 62
7
  6
SOLID
  0
LAYER
  2
122
 70
0
 62
7
  6
SOLID
  0
LAYER
  2
123
 70
0
 62
7
  6
SOLID
  0
LAYER
  2
124
 70
0
 62
7
  6
SOLID
  0
LAYER
  2
125
 70
0
 62
7
  6
SOLID
  0
LAYER
  2
126
 70
0
 62
7
  6
SOLID
  0
LAYER
  2
127
 70
0
 62
7
  6
SOLID
  0
LAYER
  2
128
 70
0
 62
7
  6
SOLID
  0
LAYER
  2
129
 70
0
 62
7
  6
SOLID
  0
LAYER
  2
130
 70
0
 62
7
  6
SOLID
  0
LAYER
  2
131
 70
0
 62
7
  6
SOLID
  0
LAYER
  2
132
 70
0
 62
7
  6
SOLID
  0
LAYER
  2
133
 70
0
 62
7
  6
SOLID
  0
LAYER
  2
134
 70
0
 62
7
  6
SOLID
  0
LAYER
  2
135
 70
0
 62
7
  6
SOLID
  0
LAYER
  2
136
 70
0
 62
7
  6
SOLID
  0
LAYER
  2
137
 70
0
 62
7
  6
SOLID
  0
LAYER
  2
138
 70
0
 62
7
  6
SOLID
  0
LAYER
  2
139
 70
0
 62
7
  6
SOLID
  0
LAYER
  2
140
 70
0
 62
7
  6
SOLID
  0
LAYER
  2
141
 70
0
 62
7
  6
SOLID
  0
LAYER
  2
142
 70
0
 62
7
  6
SOLID
  0
LAYER
  2
143
 70
0
 62
7
  6
SOLID
  0
LAYER
  2
144
 70
0
 62
7
  6
SOLID
  0
LAYER
  2
145
 70
0
 62
7
  6
SOLID
  0
LAYER
  2
146
 70
0
 62
7
  6
SOLID
  0
LAYER
  2
147
 70
0
 62
7
  6
SOLID
  0
LAYER
  2
148
 70
0
 62
7
  6
SOLID
  0
LAYER
  2
149
 70
0
 62
7
  6
SOLID
  0
LAYER
  2
150
 70
0
 62
7
  6
SOLID
  0
LAYER
  2
151
 70
0
 62
7
  6
SOLID
  0
LAYER
  2
152
 70
0
 62
7
  6
SOLID
  0
LAYER
  2
153
 70
0
 62
7
  6
SOLID
  0
LAYER
  2
154
 70
0
 62
7
  6
SOLID
  0
LAYER
  2
155
 70
0
 62
7
  6
SOLID
  0
LAYER
  2
156
 70
0
 62
7
  6
SOLID
  0
LAYER
  2
157
 70
0
 62
7
  6
SOLID
  0
LAYER
  2
158
 70
0
 62
7
  6
SOLID
  0
LAYER
  2
159
 70
0
 62
7
  6
SOLID
  0
LAYER
  2
160
 70
0
 62
7
  6
SOLID
  0
LAYER
  2
161
 70
0
 62
7
  6
SOLID
  0
LAYER
  2
162
 70
0
 62
7
  6
SOLID
  0
LAYER
  2
163
 70
0
 62
7
  6
SOLID
  0
LAYER
  2
164
 70
0
 62
7
  6
SOLID
  0
LAYER
  2
165
 70
0
 62
7
  6
SOLID
  0
LAYER
  2
166
 70
0
 62
7
  6
SOLID
  0
LAYER
  2
167
 70
0
 62
7
  6
SOLID
  0
LAYER
  2
168
 70
0
 62
7
  6
SOLID
  0
LAYER
  2
169
 70
0
 62
7
  6
SOLID
  0
LAYER
  2
170
 70
0
 62
7
  6
SOLID
  0
LAYER
  2
171
 70
0
 62
7
  6
SOLID
  0
LAYER
  2
172
 70
0
 62
7
  6
SOLID
  0
LAYER
  2
173
 70
0
 62
7
  6
SOLID
  0
LAYER
  2
174
 70
0
 62
7
  6
SOLID
  0
LAYER
  2
175
 70
0
 62
7
  6
SOLID
  0
LAYER
  2
176
 70
0
 62
7
  6
SOLID
  0
LAYER
  2
177
 70
0
 62
7
  6
SOLID
  0
LAYER
  2
178
 70
0
 62
7
  6
SOLID
  0
LAYER
  2
179
 70
0
 62
7
  6
SOLID
  0
LAYER
  2
180
 70
0
 62
7
  6
SOLID
  0
LAYER
  2
181
 70
0
 62
7
  6
SOLID
  0
LAYER
  2
182
 70
0
 62
7
  6
SOLID
  0
LAYER
  2
183
 70
0
 62
7
  6
SOLID
  0
LAYER
  2
184
 70
0
 62
7
  6
SOLID
  0
LAYER
  2
185
 70
0
 62
7
  6
SOLID
  0
LAYER
  2
186
 70
0
 62
7
  6
SOLID
  0
LAYER
  2
187
 70
0
 62
7
  6
SOLID
  0
LAYER
  2
188
 70
0
 62
7
  6
SOLID
  0
LAYER
  2
189
 70
0
 62
7
  6
SOLID
  0
LAYER
  2
190
 70
0
 62
7
  6
SOLID
  0
LAYER
  2
191
 70
0
 62
7
  6
SOLID
  0
LAYER
  2
192
 70
0
 62
7
  6
SOLID
  0
LAYER
  2
193
 70
0
 62
7
  6
SOLID
  0
LAYER
  2
194
 70
0
 62
7
  6
SOLID
  0
LAYER
  2
195
 70
0
 62
7
  6
SOLID
  0
LAYER
  2
196
 70
0
 62
7
  6
SOLID
  0
LAYER
  2
197
 70
0
 62
7
  6
SOLID
  0
LAYER
  2
198
 70
0
 62
7
  6
SOLID
  0
LAYER
  2
199
 70
0
 62
7
  6
SOLID
  0
LAYER
  2
200
 70
0
 62
7
  6
SOLID
  0
LAYER
  2
201
 70
0
 62
7
  6
SOLID
  0
LAYER
  2
202
 70
0
 62
7
  6
SOLID
  0
LAYER
  2
203
 70
0
 62
7
  6
SOLID
  0
LAYER
  2
204
 70
0
 62
7
  6
SOLID
  0
LAYER
  2
205
 70
0
 62
7
  6
SOLID
  0
LAYER
  2
206
 70
0
 62
7
  6
SOLID
  0
LAYER
  2
207
 70
0
 62
7
  6
SOLID
  0
LAYER
  2
208
 70
0
 62
7
  6
SOLID
  0
LAYER
  2
209
 70
0
 62
7
  6
SOLID
  0
LAYER
  2
210
 70
0
 62
7
  6
SOLID
  0
LAYER
  2
211
 70
0
 62
7
  6
SOLID
  0
LAYER
  2
212
 70
0
 62
7
  6
SOLID
  0
LAYER
  2
213
 70
0
 62
7
  6
SOLID
  0
LAYER
  2
214
 70
0
 62
7
  6
SOLID
  0
LAYER
  2
215
 70
0
 62
7
  6
SOLID
  0
LAYER
  2
216
 70
0
 62
7
  6
SOLID
  0
LAYER
  2
217
 70
0
 62
7
  6
SOLID
  0
LAYER
  2
218
 70
0
 62
7
  6
SOLID
  0
LAYER
  2
219
 70
0
 62
7
  6
SOLID
  0
LAYER
  2
220
 70
0
 62
7
  6
SOLID
  0
LAYER
  2
221
 70
0
 62
7
  6
SOLID
  0
LAYER
  2
222
 70
0
 62
7
  6
SOLID
  0
LAYER
  2
223
 70
0
 62
7
  6
SOLID
  0
LAYER
  2
224
 70
0
 62
7
  6
SOLID
  0
LAYER
  2
225
 70
0
 62
7
  6
SOLID
  0
LAYER
  2
226
 70
0
 62
7
  6
SOLID
  0
LAYER
  2
227
 70
0
 62
7
  6
SOLID
  0
LAYER
  2
228
 70
0
 62
7
  6
SOLID
  0
LAYER
  2
229
 70
0
 62
7
  6
SOLID
  0
LAYER
  2
230
 70
0
 62
7
  6
SOLID
  0
LAYER
  2
231
 70
0
 62
7
  6
SOLID
  0
LAYER
  2
232
 70
0
 62
7
  6
SOLID
  0
LAYER
  2
233
 70
0
 62
7
  6
SOLID
  0
LAYER
  2
234
 70
0
 62
7
  6
SOLID
  0
LAYER
  2
235
 70
0
 62
7
  6
SOLID
  0
LAYER
  2
236
 70
0
 62
7
  6
SOLID
  0
LAYER
  2
237
 70
0
 62
7
  6
SOLID
  0
LAYER
  2
238
 70
0
 62
7
  6
SOLID
  0
LAYER
  2
239
 70
0
 62
7
  6
SOLID
  0
LAYER
  2
240
 70
0
 62
7
  6
SOLID
  0
LAYER
  2
241
 70
0
 62
7
  6
SOLID
  0
LAYER
  2
242
 70
0
 62
7
  6
SOLID
  0
LAYER
  2
243
 70
0
 62
7
  6
SOLID
  0
LAYER
  2
244
 70
0
 62
7
  6
SOLID
  0
LAYER
  2
245
 70
0
 62
7
  6
SOLID
  0
LAYER
  2
246
 70
0
 62
7
  6
SOLID
  0
LAYER
  2
247
 70
0
 62
7
  6
SOLID
  0
LAYER
  2
248
 70
0
 62
7
  6
SOLID
  0
LAYER
  2
249
 70
0
 62
7
  6
SOLID
  0
LAYER
  2
250
 70
0
 62
7
  6
SOLID
  0
LAYER
  2
251
 70
0
 62
7
  6
SOLID
  0
LAYER
  2
252
 70
0
 62
7
  6
SOLID
  0
LAYER
  2
253
 70
0
 62
7
  6
SOLID
  0
LAYER
  2
254
 70
0
 62
7
  6
SOLID
  0
LAYER
  2
255
 70
0
 62
7
  6
SOLID
  0
ENDTAB
  0
TABLE
  2
STYLE
 70
1
  0
STYLE
  2
STANDARD
 70
0
 40
0.0
 41
1.0
 50
0.0
 71
0
 42
10.0
  3
txt
  4

  0
ENDTAB
  0
TABLE
  2
VIEW
 70
0
  0
ENDTAB
  0
ENDSEC
  0
SECTION
  2
BLOCKS
  0
ENDSEC
  0
SECTION
  2
ENTITIES
  0
LINE
  8
0
 10
-930
 20
-525
 11
-927.5
 21
-525
  0
POLYLINE
  8
0
 66
1
 70
128
 40
0
 41
0
  0
VERTEX
  8
0
 10
-930.530492268399635
 20
-525.159102106949754
  0
VERTEX
  8
0
 10
-942.627960693457906
 20
-526.349727555738418
  0
VERTEX
  8
0
 10
-953.272203196011811
 20
-530.15615966503494
  0
VERTEX
  8
0
 10
-961.805443832190954
 20
-536.930232079235114
  0
VERTEX
  8
0
 10
-967.569906658124937
 20
-547.023778442734734
  0
SEQEND
  8
0
  0
LINE
  8
0
 10
-1005
 20
-670
 11
-967.055639174519697
 21
-545.46135360610712
  0
POLYLINE
  8
0
 66
1
 70
128
 40
0
 41
0
  0
VERTEX
  8
0
 10
-885.064524124558777
 20
-545.881593858029548
  0
VERTEX
  8
0
 10
-893.663142164926478
 20
-535.874731146047733
  0
VERTEX
  8
0
 10
-902.944669814926401
 20
-529.462690452892506
  0
VERTEX
  8
0
 10
-913.469639764400928
 20
-526.079478524535852
  0
VERTEX
  8
0
 10
-925.798584703192438
 20
-525.159102106949754
  0
SEQEND
  8
0
  0
POLYLINE
  8
0
 66
1
 70
128
 40
0
 41
0
  0
VERTEX
  8
0
 10
-345
 20
-625
  0
VERTEX
  8
0
 10
-354.84375
 20
-627.03125
  0
VERTEX
  8
0
 10
-361.875
 20
-631.875
  0
VERTEX
  8
0
 10
-367.5
 20
-642.5
  0
SEQEND
  8
0
  0
LINE
  8
0
 10
-370
 20
-640
 11
-370
 21
-642.5
  0
LINE
  8
0
 10
-370
 20
-640
 11
-370
 21
-600
  0
LINE
  8
0
 10
-367.603277807866851
 20
-600
 11
-370
 21
-600
  0
ARC
  8
0
 10
-367.403124237432849
 20
-605
 40
5
 50
38.6598082540900899
 51
90
  0
LINE
  8
0
 10
-367.403124237432849
 20
-600
 11
-370
 21
-600
  0
LINE
  8
0
 10
-345
 20
-625
 11
-363.498780190217697
 21
-601.876524762227879
  0
LINE
  8
0
 10
-415
 20
-600
 11
-415
 21
-642.5
  0
LINE
  8
0
 10
-370
 20
-600
 11
-415
 21
-600
  0
POLYLINE
  8
0
 66
1
 70
128
 40
0
 41
0
  0
VERTEX
  8
0
 10
-415
 20
-600
  0
VERTEX
  8
0
 10
-425
 20
-602.44140625
  0
VERTEX
  8
0
 10
-434.53125
 20
-607.34375
  0
VERTEX
  8
0
 10
-453.125
 20
-621.25
  0
VERTEX
  8
0
 10
-472.65625
 20
-635.15625
  0
VERTEX
  8
0
 10
-483.359375
 20
-640.05859375
  0
VERTEX
  8
0
 10
-495
 20
-642.5
  0
SEQEND
  8
0
  0
LINE
  8
0
 10
-460
 20
-627.5
 11
-460
 21
-637.5
  0
LINE
  8
0
 10
-460
 20
-637.5
 11
-415
 21
-637.5
  0
POLYLINE
  8
0
 66
1
 70
128
 40
0
 41
0
  0
VERTEX
  8
0
 10
-345
 20
-625
  0
VERTEX
  8
0
 10
-250.521155170835708
 20
-633.463411974917556
  0
VERTEX
  8
0
 10
-178.889747122228555
 20
-642.56909859978015
  0
VERTEX
  8
0
 10
-132.813465512507124
 20
-650.390235924752668
  0
VERTEX
  8
0
 10
-115
 20
-655
  0
SEQEND
  8
0
  0
POLYLINE
  8
0
 66
1
 70
128
 40
0
 41
0
  0
VERTEX
  8
0
 10
-367.5
 20
-642.5
  0
VERTEX
  8
0
 10
-590.8984375
 20
-642.7734375
  0
VERTEX
  8
0
 10
-729.6875
 20
-644.6875
  0
VERTEX
  8
0
 10
-830.5078125
 20
-649.8828125
  0
VERTEX
  8
0
 10
-940
 20
-660
  0
SEQEND
  8
0
  0
LINE
  8
0
 10
-427.883182961278434
 20
-455.63718384757218
 11
-520.564364418167159
 21
49.8965331900026874
  0
LINE
  8
0
 10
-246.307892573307756
 20
82.3609208002192382
 11
-309.074322631903286
 21
-455.637051130599591
  0
LINE
  8
0
 10
-344.049117449018854
 20
-485
 11
-375.596608671604463
 21
-485
  0
LINE
  8
0
 10
-467.5
 20
-20
 11
-392.920450461748564
 21
-482.393207137158906
  0
LINE
  8
0
 10
-507.5
 20
-20
 11
-467.5
 21
-20
  0
POLYLINE
  8
0
 66
1
 70
128
 40
0
 41
0
  0
VERTEX
  8
0
 10
-375.891540642722117
 20
-484.646109010712035
  0
VERTEX
  8
0
 10
-392.315318231997282
 20
-482.790931475710854
  0
VERTEX
  8
0
 10
-408.562811983104915
 20
-477.057509501023944
  0
VERTEX
  8
0
 10
-421.637196647196952
 20
-467.798410762986374
  0
VERTEX
  8
0
 10
-428.541646975425331
 20
-455.366202937933207
  0
SEQEND
  8
0
  0
POLYLINE
  8
0
 66
1
 70
128
 40
0
 41
0
  0
VERTEX
  8
0
 10
-309.273038752362949
 20
-454.560333963453056
  0
VERTEX
  8
0
 10
-314.71265433010397
 20
-467.915933321764729
  0
VERTEX
  8
0
 10
-325.188950998345936
 20
-477.393288240390674
  0
VERTEX
  8
0
 10
-336.77331750649811
 20
-483.042765530235901
  0
VERTEX
  8
0
 10
-345.537142603969754
 20
-484.914732002205419
  0
SEQEND
  8
0
  0
LINE
  8
0
 10
-530
 20
-715
 11
-530
 21
-720
  0
LINE
  8
0
 10
-527.5
 20
-720
 11
-490
 21
-720
  0
LINE
  8
0
 10
-242.5
 20
-715
 11
-242.5
 21
-720
  0
LINE
  8
0
 10
-242.5
 20
-720
 11
-255
 21
-720
  0
POLYLINE
  8
0
 66
1
 70
128
 40
0
 41
0
  0
VERTEX
  8
0
 10
-532.5
 20
-715
  0
VERTEX
  8
0
 10
-426.015625
 20
-722.734375
  0
VERTEX
  8
0
 10
-333.125
 20
-724.375
  0
VERTEX
  8
0
 10
-267.421875
 20
-721.328125
  0
VERTEX
  8
0
 10
-249.013671875
 20
-718.486328125
  0
VERTEX
  8
0
 10
-242.5
 20
-715
  0
SEQEND
  8
0
  0
POLYLINE
  8
0
 66
1
 70
128
 40
0
 41
0
  0
VERTEX
  8
0
 10
-532.5
 20
-715
  0
VERTEX
  8
0
 10
-407.03125
 20
-699.53125
  0
VERTEX
  8
0
 10
-316.25
 20
-696.25
  0
VERTEX
  8
0
 10
-284.16015625
 20
-698.30078125
  0
VERTEX
  8
0
 10
-261.09375
 20
-702.34375
  0
VERTEX
  8
0
 10
-247.16796875
 20
-708.02734375
  0
VERTEX
  8
0
 10
-242.5
 20
-715
  0
SEQEND
  8
0
  0
POLYLINE
  8
0
 66
1
 70
128
 40
0
 41
0
  0
VERTEX
  8
0
 10
-520
 20
50
  0
VERTEX
  8
0
 10
-531.796875
 20
62.8125
  0
VERTEX
  8
0
 10
-545
 20
71.875
  0
VERTEX
  8
0
 10
-560.078125
 20
78.125
  0
VERTEX
  8
0
 10
-577.5
 20
82.5
  0
SEQEND
  8
0
  0
POLYLINE
  8
0
 66
1
 70
128
 40
0
 41
0
  0
VERTEX
  8
0
 10
-247.5
 20
82.5
  0
VERTEX
  8
0
 10
-344.9609375
 20
78.125
  0
VERTEX
  8
0
 10
-429.0625
 20
71.875
  0
VERTEX
  8
0
 10
-491.1328125
 20
62.8125
  0
VERTEX
  8
0
 10
-511.1962890625
 20
56.93359375
  0
VERTEX
  8
0
 10
-522.5
 20
50
  0
SEQEND
  8
0
  0
POLYLINE
  8
0
 66
1
 70
128
 40
0
 41
0
  0
VERTEX
  8
0
 10
-520
 20
180
  0
VERTEX
  8
0
 10
-531.796875
 20
167.1875
  0
VERTEX
  8
0
 10
-545
 20
158.125
  0
VERTEX
  8
0
 10
-560.078125
 20
151.875
  0
VERTEX
  8
0
 10
-577.5
 20
147.5
  0
SEQEND
  8
0
  0
POLYLINE
  8
0
 66
1
 70
128
 40
0
 41
0
  0
VERTEX
  8
0
 10
-247.5
 20
147.5
  0
VERTEX
  8
0
 10
-344.9609375
 20
151.875
  0
VERTEX
  8
0
 10
-429.0625
 20
158.125
  0
VERTEX
  8
0
 10
-491.1328125
 20
167.1875
  0
VERTEX
  8
0
 10
-511.1962890625
 20
173.06640625
  0
VERTEX
  8
0
 10
-522.5
 20
180
  0
SEQEND
  8
0
  0
LINE
  8
0
 10
-246.307892573307756
 20
147.639079199780762
 11
-309.074322631903286
 21
685.637051130599591
  0
LINE
  8
0
 10
-427.883182961278434
 20
685.63718384757218
 11
-520.564364418167159
 21
180.103466809997313
  0
POLYLINE
  8
0
 66
1
 70
128
 40
0
 41
0
  0
VERTEX
  8
0
 10
-309.273038752362949
 20
684.560333963453056
  0
VERTEX
  8
0
 10
-314.71265433010397
 20
697.915933321764729
  0
VERTEX
  8
0
 10
-325.188950998345936
 20
707.393288240390674
  0
VERTEX
  8
0
 10
-336.77331750649811
 20
713.042765530235901
  0
VERTEX
  8
0
 10
-345.537142603969754
 20
714.914732002205419
  0
SEQEND
  8
0
  0
POLYLINE
  8
0
 66
1
 70
128
 40
0
 41
0
  0
VERTEX
  8
0
 10
-375.891540642722117
 20
714.646109010712035
  0
VERTEX
  8
0
 10
-392.315318231997283
 20
712.790931475710854
  0
VERTEX
  8
0
 10
-408.562811983104915
 20
707.057509501023945
  0
VERTEX
  8
0
 10
-421.637196647196952
 20
697.798410762986374
  0
VERTEX
  8
0
 10
-428.541646975425331
 20
685.366202937933207
  0
SEQEND
  8
0
  0
LINE
  8
0
 10
-507.5
 20
250
 11
-467.5
 21
250
  0
LINE
  8
0
 10
-467.5
 20
250
 11
-392.920450461748564
 21
712.393207137158906
  0
LINE
  8
0
 10
-344.049117449018854
 20
715
 11
-375.596608671604463
 21
715
  0
POLYLINE
  8
0
 66
1
 70
128
 40
0
 41
0
  0
VERTEX
  8
0
 10
-820.576843030327268
 20
-634.669839734546611
  0
VERTEX
  8
0
 10
-812.47223372841917
 20
-644.664124780422919
  0
VERTEX
  8
0
 10
-805.627408255823212
 20
-648.1075339138761
  0
SEQEND
  8
0
  0
LINE
  8
0
 10
-940
 20
-665
 11
-940.033225361861306
 21
-666.791321877664222
  0
LINE
  8
0
 10
-940
 20
-670
 11
-940
 21
-685
  0
LINE
  8
0
 10
-940
 20
-660
 11
-940
 21
-665
  0
LINE
  8
0
 10
-205
 20
-640
 11
-205
 21
-717.5
  0
POLYLINE
  8
0
 66
1
 70
128
 40
0
 41
0
  0
VERTEX
  8
0
 10
-240
 20
-720
  0
VERTEX
  8
0
 10
-189.019671872745527
 20
-717.071591819419729
  0
VERTEX
  8
0
 10
-151.709630856838718
 20
-712.486790796847195
  0
VERTEX
  8
0
 10
-115
 20
-705
  0
SEQEND
  8
0
  0
POLYLINE
  8
0
 66
1
 70
128
 40
0
 41
0
  0
VERTEX
  8
0
 10
-115
 20
-655
  0
VERTEX
  8
0
 10
-86.25
 20
-665.625
  0
VERTEX
  8
0
 10
-65
 20
-680
  0
SEQEND
  8
0
  0
POLYLINE
  8
0
 66
1
 70
128
 40
0
 41
0
  0
VERTEX
  8
0
 10
-115
 20
-705
  0
VERTEX
  8
0
 10
-86.25
 20
-694.375
  0
VERTEX
  8
0
 10
-65
 20
-680
  0
SEQEND
  8
0
  0
LINE
  8
0
 10
-115
 20
-655
 11
-115
 21
-705
  0
LINE
  8
0
 10
-115
 20
140
 11
-115
 21
90
  0
POLYLINE
  8
0
 66
1
 70
128
 40
0
 41
0
  0
VERTEX
  8
0
 10
-115
 20
140
  0
VERTEX
  8
0
 10
-86.25
 20
129.375
  0
VERTEX
  8
0
 10
-65
 20
115
  0
SEQEND
  8
0
  0
POLYLINE
  8
0
 66
1
 70
128
 40
0
 41
0
  0
VERTEX
  8
0
 10
-115
 20
90
  0
VERTEX
  8
0
 10
-86.25
 20
100.625
  0
VERTEX
  8
0
 10
-65
 20
115
  0
SEQEND
  8
0
  0
POLYLINE
  8
0
 66
1
 70
128
 40
0
 41
0
  0
VERTEX
  8
0
 10
-205
 20
82.5
  0
VERTEX
  8
0
 10
-159.359112898809172
 20
83.969837210354147
  0
VERTEX
  8
0
 10
-115
 20
90
  0
SEQEND
  8
0
  0
POLYLINE
  8
0
 66
1
 70
128
 40
0
 41
0
  0
VERTEX
  8
0
 10
-205
 20
147.5
  0
VERTEX
  8
0
 10
-159.359112898809172
 20
146.030162789645853
  0
VERTEX
  8
0
 10
-115
 20
140
  0
SEQEND
  8
0
  0
LINE
  8
0
 10
-205
 20
-640
 11
-205
 21
-637.5
  0
LINE
  8
0
 10
-115
 20
-702.5
 11
-115
 21
-705
  0
LINE
  8
0
 10
-115
 20
-655
 11
-115
 21
-705
  0
LINE
  8
0
 10
-820.570202808112324
 20
-634.688767550702028
 11
-886.671769371556413
 21
-543.40565182023162
  0
LINE
  8
0
 10
-1004
 20
114
 11
-790
 21
114
  0
LINE
  8
0
 10
-1004
 20
116
 11
-1004
 21
114
  0
LINE
  8
0
 10
-790
 20
116
 11
-1004
 21
116
  0
LINE
  8
0
 10
-790
 20
115
 11
-1005
 21
115
  0
LINE
  8
0
 10
-869.447968690005452
 20
-48.1374004645548719
 11
-788.978215767634855
 21
90.8558091286307054
  0
LINE
  8
0
 10
-869.447968690005452
 20
278.137400464554872
 11
-789.605809128630705
 21
140.228215767634855
  0
POLYLINE
  8
0
 66
1
 70
128
 40
0
 41
0
  0
VERTEX
  8
0
 10
-925.253882247733485
 20
-74.8127393681586391
  0
VERTEX
  8
0
 10
-935.848697931437745
 20
-73.619716170938036
  0
VERTEX
  8
0
 10
-946.651330559173981
 20
-69.3325295847969008
  0
VERTEX
  8
0
 10
-956.114698436481926
 20
-60.8890041180162449
  0
VERTEX
  8
0
 10
-962.691719868901316
 20
-47.2269642788770797
  0
SEQEND
  8
0
  0
LINE
  8
0
 10
-1005
 20
115
 11
-962.160304314485328
 21
-47.7908436049557555
  0
POLYLINE
  8
0
 66
1
 70
128
 40
0
 41
0
  0
VERTEX
  8
0
 10
-869.09712581598174
 20
-47.4732658421742365
  0
VERTEX
  8
0
 10
-877.72485906868
 20
-59.6325164046112422
  0
VERTEX
  8
0
 10
-886.923267594067081
 20
-67.9777635957646724
  0
VERTEX
  8
0
 10
-896.929752970805762
 20
-72.9442436431829575
  0
VERTEX
  8
0
 10
-907.981716777558822
 20
-74.967192774414528
  0
SEQEND
  8
0
  0
POLYLINE
  8
0
 66
1
 70
128
 40
0
 41
0
  0
VERTEX
  8
0
 10
-907.981716777558822
 20
-74.967192774414528
  0
VERTEX
  8
0
 10
-910.475788449904079
 20
-75.0590409314557959
  0
SEQEND
  8
0
  0
LINE
  8
0
 10
-925
 20
-75
 11
-907.5
 21
-75
  0
LINE
  8
0
 10
-940
 20
-72.6805254124182378
 11
-940
 21
115
  0
LINE
  8
0
 10
-940
 20
302.680525412418238
 11
-940
 21
115
  0
LINE
  8
0
 10
-925
 20
305
 11
-907.5
 21
305
  0
POLYLINE
  8
0
 66
1
 70
128
 40
0
 41
0
  0
VERTEX
  8
0
 10
-907.981716777558822
 20
304.967192774414528
  0
VERTEX
  8
0
 10
-910.475788449904079
 20
305.059040931455796
  0
SEQEND
  8
0
  0
POLYLINE
  8
0
 66
1
 70
128
 40
0
 41
0
  0
VERTEX
  8
0
 10
-869.09712581598174
 20
277.473265842174236
  0
VERTEX
  8
0
 10
-877.72485906868
 20
289.632516404611242
  0
VERTEX
  8
0
 10
-886.923267594067081
 20
297.977763595764672
  0
VERTEX
  8
0
 10
-896.929752970805762
 20
302.944243643182958
  0
VERTEX
  8
0
 10
-907.981716777558822
 20
304.967192774414528
  0
SEQEND
  8
0
  0
LINE
  8
0
 10
-1005
 20
115
 11
-962.160304314485328
 21
277.790843604955756
  0
POLYLINE
  8
0
 66
1
 70
128
 40
0
 41
0
  0
VERTEX
  8
0
 10
-362.5
 20
82.5
  0
VERTEX
  8
0
 10
-355.625
 20
91.875
  0
VERTEX
  8
0
 10
-345
 20
97.5
  0
SEQEND
  8
0
  0
POLYLINE
  8
0
 66
1
 70
128
 40
0
 41
0
  0
VERTEX
  8
0
 10
-420
 20
82.5
  0
VERTEX
  8
0
 10
-456.875
 20
85.3125
  0
VERTEX
  8
0
 10
-470.625
 20
89.8828125
  0
VERTEX
  8
0
 10
-482.5
 20
97.5
  0
SEQEND
  8
0
  0
POLYLINE
  8
0
 66
1
 70
128
 40
0
 41
0
  0
VERTEX
  8
0
 10
-925.253882247733485
 20
304.812739368158639
  0
VERTEX
  8
0
 10
-935.848697931437745
 20
303.619716170938036
  0
VERTEX
  8
0
 10
-946.651330559173981
 20
299.332529584796901
  0
VERTEX
  8
0
 10
-956.114698436481926
 20
290.889004118016245
  0
VERTEX
  8
0
 10
-962.691719868901316
 20
277.22696427887708
  0
SEQEND
  8
0
  0
POLYLINE
  8
0
 66
1
 70
128
 40
0
 41
0
  0
VERTEX
  8
0
 10
-362.5
 20
147.5
  0
VERTEX
  8
0
 10
-355.625
 20
138.125
  0
VERTEX
  8
0
 10
-345
 20
132.5
  0
SEQEND
  8
0
  0
POLYLINE
  8
0
 66
1
 70
128
 40
0
 41
0
  0
VERTEX
  8
0
 10
-420
 20
147.5
  0
VERTEX
  8
0
 10
-456.875
 20
144.6875
  0
VERTEX
  8
0
 10
-470.625
 20
140.1171875
  0
VERTEX
  8
0
 10
-482.5
 20
132.5
  0
SEQEND
  8
0
  0
LINE
  8
0
 10
-345
 20
132.5
 11
-345
 21
97.5
  0
LINE
  8
0
 10
-362.5
 20
132.5
 11
-345
 21
132.5
  0
LINE
  8
0
 10
-482.5
 20
132.5
 11
-482.5
 21
97.5
  0
LINE
  8
0
 10
-450
 20
132.5
 11
-450
 21
97.5
  0
LINE
  8
0
 10
-362.5
 20
132.5
 11
-482.5
 21
132.5
  0
LINE
  8
0
 10
-420
 20
97.5
 11
-482.5
 21
97.5
  0
LINE
  8
0
 10
-420
 20
97.5
 11
-420
 21
82.5
  0
LINE
  8
0
 10
-420
 20
135
 11
-420
 21
147.5
  0
LINE
  8
0
 10
-362.5
 20
97.5
 11
-362.5
 21
82.5
  0
LINE
  8
0
 10
-362.5
 20
135
 11
-362.5
 21
147.5
  0
LINE
  8
0
 10
-345
 20
97.5
 11
-362.5
 21
97.5
  0
LINE
  8
0
 10
-420
 20
97.5
 11
-420
 21
135
  0
LINE
  8
0
 10
-362.5
 20
97.5
 11
-420
 21
97.5
  0
LINE
  8
0
 10
-362.5
 20
135
 11
-362.5
 21
97.5
  0
LINE
  8
0
 10
-205
 20
82.5
 11
-585
 21
82.5
  0
POLYLINE
  8
0
 66
1
 70
128
 40
0
 41
0
  0
VERTEX
  8
0
 10
-585
 20
82.5
  0
VERTEX
  8
0
 10
-669.6484375
 20
84.2578125
  0
VERTEX
  8
0
 10
-757.8125
 20
89.0625
  0
VERTEX
  8
0
 10
-940
 20
105
  0
SEQEND
  8
0
  0
POLYLINE
  8
0
 66
1
 70
128
 40
0
 41
0
  0
VERTEX
  8
0
 10
-585
 20
147.5
  0
VERTEX
  8
0
 10
-669.6484375
 20
145.7421875
  0
VERTEX
  8
0
 10
-757.8125
 20
140.9375
  0
VERTEX
  8
0
 10
-940
 20
125
  0
SEQEND
  8
0
  0
LINE
  8
0
 10
-205
 20
147.5
 11
-585
 21
147.5
  0
LINE
  8
0
 10
-775
 20
-670
 11
-775
 21
-667.5
  0
POLYLINE
  8
0
 66
1
 70
128
 40
0
 41
0
  0
VERTEX
  8
0
 10
-525
 20
-720
  0
VERTEX
  8
0
 10
-641.875
 20
-718.046875
  0
VERTEX
  8
0
 10
-747.5
 20
-711.875
  0
VERTEX
  8
0
 10
-845.625
 20
-701.015625
  0
VERTEX
  8
0
 10
-940
 20
-685
  0
SEQEND
  8
0
  0
LINE
  8
0
 10
-1005
 20
-670
 11
-775
 21
-670
  0
LINE
  8
0
 10
-1005
 20
-670
 11
-1005
 21
-667
  0
LINE
  8
0
 10
-1005
 20
-667
 11
-775
 21
-667
  0
LINE
  8
0
 10
-940
 20
-685
 11
-1005
 21
-670
  0
LINE
  8
0
 10
-205
 20
145
 11
-205
 21
85
  0
ENDSEC
  0
EOF
