  0
SECTION
  2
HEADER
  9
$ACADVER
  1
AC1009
999
DXF CREATED BY CADSTD VERSION 3.7.2
999
CadStd_Unit=mm
999
CadStd_Export_Unit=mm
999
CadStd_Paper_Size=Custom
999
CadStd_Drawing_Width=2070.25748000000021
999
CadStd_Drawing_Height=1575.79822000000013
999
CadStd_Paper_Orientation=Landscape
999
CadStd_Paper_Origin_X=55.4761400000000009
999
CadStd_Paper_Origin_Y=1213.85076000000004
999
CadStd_Paper_Scale=1
999
CadStd_Dim_Accuracy_General=3
999
CadStd_Dim_Accuracy_Radial=2
999
CadStd_Dim_Accuracy_Angular=1
999
CadStd_Dim_Simplify=FALSE
999
CadStd_Dim_Style=Horizontal
999
CadStd_Dim_ArrowStyle=Closed
999
CadStd_Dim_LeadArrowStyle=Closed
999
CadStd_Dim_AngularDimStyle=Decimal
999
CadStd_Text_Slant=FALSE
999
CadStd_Text_ZeroSlash=FALSE
  0
ENDSEC
  0
SECTION
  2
TABLES
  0
TABLE
  2
LTYPE
 70
     3
  0
LTYPE
  2
LINETYPE_1
 70
    64
  3
See CAD-STD manual for LINETYPE_1
 72
    65
 73
     0
 40
0.0
  0
LTYPE
  2
LINETYPE_2
 70
    64
  3
See CAD-STD manual for LINETYPE_2
 72
    65
 73
     0
 40
0.0
  0
LTYPE
  2
LINETYPE_3
 70
    64
  3
See CAD-STD manual for LINETYPE_3
 72
    65
 73
     2
 40
3.9674800000000001
 49
3.1750000000000003
 49
-0.7924800000000001
  0
LTYPE
  2
LINETYPE_4
 70
    64
  3
See CAD-STD manual for LINETYPE_4
 72
    65
 73
     4
 40
25.4000000000000021
 49
19.0500000000000007
 49
-1.5875000000000001
 49
3.1750000000000003
 49
-1.5875000000000001
  0
LTYPE
  2
LINETYPE_5
 70
    64
  3
See CAD-STD manual for LINETYPE_5
 72
    65
 73
     2
 40
7.9375000000000009
 49
6.3500000000000005
 49
-1.5875000000000001
  0
LTYPE
  2
LINETYPE_6
 70
    64
  3
See CAD-STD manual for LINETYPE_6
 72
    65
 73
     6
 40
30.1625000000000014
 49
19.0500000000000007
 49
-1.5875000000000001
 49
3.1750000000000003
 49
-1.5875000000000001
 49
3.1750000000000003
 49
-1.5875000000000001
  0
LTYPE
  2
LINETYPE_7
 70
    64
  3
See CAD-STD manual for LINETYPE_7
 72
    65
 73
     6
 40
30.1625000000000014
 49
19.0500000000000007
 49
-1.5875000000000001
 49
3.1750000000000003
 49
-1.5875000000000001
 49
3.1750000000000003
 49
-1.5875000000000001
  0
LTYPE
  2
LINETYPE_8
 70
    64
  3
See CAD-STD manual for LINETYPE_8
 72
    65
 73
     2
 40
3.1750000000000003
 49
1.5875000000000001
 49
-1.5875000000000001
  0
LTYPE
  2
LINETYPE_9
 70
    64
  3
See CAD-STD manual for LINETYPE_9
 72
    65
 73
     2
 40
1.5875000000000001
 49
0.00254
 49
-1.5849600000000002
  0
LTYPE
  2
LINETYPE_10
 70
    64
  3
See CAD-STD manual for LINETYPE_10
 72
    65
 73
     4
 40
14.2875000000000014
 49
9.5250000000000004
 49
-1.5875000000000001
 49
1.5875000000000001
 49
-1.5875000000000001
  0
LTYPE
  2
LINETYPE_11
 70
    64
  3
See CAD-STD manual for LINETYPE_11
 72
    65
 73
     0
 40
0.0
  0
ENDTAB
  0
TABLE
  2
LAYER
 70
    16
  0
LAYER
  2
0
 70
     0
 62
     7
  6
CONTINUOUS
  0
LAYER
  2
1
 70
     0
 62
     2
  6
CONTINUOUS
  0
LAYER
  2
2
 70
     0
 62
     4
  6
CONTINUOUS
  0
LAYER
  2
3
 70
     0
 62
     3
  6
CONTINUOUS
  0
LAYER
  2
4
 70
     0
 62
     9
  6
CONTINUOUS
  0
LAYER
  2
5
 70
     0
 62
     5
  6
CONTINUOUS
  0
LAYER
  2
6
 70
     0
 62
     6
  6
CONTINUOUS
  0
LAYER
  2
7
 70
     0
 62
     1
  6
CONTINUOUS
  0
LAYER
  2
8
 70
     0
 62
    40
  6
CONTINUOUS
  0
LAYER
  2
9
 70
     0
 62
    30
  6
CONTINUOUS
  0
LAYER
  2
10
 70
     0
 62
   134
  6
CONTINUOUS
  0
LAYER
  2
11
 70
     0
 62
    94
  6
CONTINUOUS
  0
LAYER
  2
12
 70
     0
 62
   254
  6
CONTINUOUS
  0
LAYER
  2
13
 70
     0
 62
   174
  6
CONTINUOUS
  0
LAYER
  2
14
 70
     0
 62
   214
  6
CONTINUOUS
  0
LAYER
  2
15
 70
     0
 62
    32
  6
CONTINUOUS
  0
ENDTAB
  0
ENDSEC
  0
SECTION
  2
ENTITIES
  0
POLYLINE
  8
0
  6
LINETYPE_1
 66
     1
 10
0.0
 20
0.0
 30
0.0
  0
VERTEX
  8
0
 10
-946.254140000000007
 20
1391.15800000000013
 30
0.0
  0
VERTEX
  8
0
 10
-1398.8288
 20
1392.59310000000005
 30
0.0
  0
VERTEX
  8
0
 10
-1480.95716000000016
 20
1391.76760000000013
 30
0.0
  0
VERTEX
  8
0
 10
-1502.37698
 20
1388.20398
 30
0.0
  0
VERTEX
  8
0
 10
-1519.57532000000015
 20
1382.04956000000016
 30
0.0
  0
VERTEX
  8
0
 10
-1529.28320000000008
 20
1376.49712
 30
0.0
  0
VERTEX
  8
0
 10
-1534.36574000000019
 20
1371.46792000000005
 30
0.0
  0
VERTEX
  8
0
 10
-1537.84554000000003
 20
1364.4981600000001
 30
0.0
  0
VERTEX
  8
0
 10
-1540.60398000000009
 20
1357.89416000000006
 30
0.0
  0
VERTEX
  8
0
 10
-1541.4193200000002
 20
1352.89544000000001
 30
0.0
  0
VERTEX
  8
0
 10
-1541.25675999999999
 20
1346.55814000000009
 30
0.0
  0
VERTEX
  8
0
 10
-1538.88948000000005
 20
1338.90258000000017
 30
0.0
  0
VERTEX
  8
0
 10
-1536.16660000000002
 20
1332.94882000000007
 30
0.0
  0
VERTEX
  8
0
 10
-1529.65150000000017
 20
1324.94782000000009
 30
0.0
  0
VERTEX
  8
0
 10
-1519.25528000000008
 20
1319.54016000000001
 30
0.0
  0
VERTEX
  8
0
 10
-1502.029
 20
1313.32478000000015
 30
0.0
  0
VERTEX
  8
0
 10
-1491.77502000000004
 20
1311.20388000000003
 30
0.0
  0
VERTEX
  8
0
 10
-1474.20076000000017
 20
1309.60368000000017
 30
0.0
  0
VERTEX
  8
0
 10
-1399.15900000000011
 20
1309.42334000000005
 30
0.0
  0
VERTEX
  8
0
 10
-945.901080000000093
 20
1307.56660000000011
 30
0.0
  0
VERTEX
  8
0
 10
-806.673520000000053
 20
1322.62626
 30
0.0
  0
VERTEX
  8
0
 10
-687.735480000000052
 20
1347.53604000000018
 30
0.0
  0
VERTEX
  8
0
 10
-683.05934000000002
 20
1350.06842000000006
 30
0.0
  0
VERTEX
  8
0
 10
-682.457359999999994
 20
1351.28762000000006
 30
0.0
  0
VERTEX
  8
0
 10
-685.76697999999999
 20
1353.58123999999998
 30
0.0
  0
VERTEX
  8
0
 10
-806.930060000000026
 20
1376.60634000000005
 30
0.0
  0
VERTEX
  8
0
 10
-946.922160000000076
 20
1390.97004000000015
 30
0.0
  0
SEQEND
  0
POLYLINE
  8
0
  6
LINETYPE_1
 66
     1
 10
0.0
 20
0.0
 30
0.0
  0
VERTEX
  8
0
 10
-806.442380000000071
 20
1376.85272000000009
 30
0.0
  0
VERTEX
  8
0
 10
-794.76854000000003
 20
1483.07044000000019
 30
0.0
  0
VERTEX
  8
0
 10
-787.958799999999997
 20
1533.87044000000014
 30
0.0
  0
VERTEX
  8
0
 10
-786.513540000000035
 20
1539.54988000000003
 30
0.0
  0
VERTEX
  8
0
 10
-782.551140000000032
 20
1547.37562000000003
 30
0.0
  0
VERTEX
  8
0
 10
-777.11554000000001
 20
1554.72638000000006
 30
0.0
  0
VERTEX
  8
0
 10
-770.440420000000017
 20
1558.42716000000019
 30
0.0
  0
VERTEX
  8
0
 10
-761.573280000000068
 20
1562.02634000000012
 30
0.0
  0
VERTEX
  8
0
 10
-753.907560000000103
 20
1563.78402000000006
 30
0.0
  0
VERTEX
  8
0
 10
-745.253780000000006
 20
1563.59860000000003
 30
0.0
  0
VERTEX
  8
0
 10
-735.134420000000091
 20
1562.94328000000019
 30
0.0
  0
VERTEX
  8
0
 10
-727.809060000000045
 20
1560.55822000000012
 30
0.0
  0
VERTEX
  8
0
 10
-721.443820000000073
 20
1556.45612000000006
 30
0.0
  0
VERTEX
  8
0
 10
-715.429100000000062
 20
1551.26182000000017
 30
0.0
  0
VERTEX
  8
0
 10
-711.860400000000027
 20
1545.44014000000016
 30
0.0
  0
VERTEX
  8
0
 10
-710.979019999999991
 20
1541.90954000000011
 30
0.0
  0
VERTEX
  8
0
 10
-700.915540000000078
 20
1356.42096000000015
 30
0.0
  0
SEQEND
  0
POLYLINE
  8
0
  6
LINETYPE_1
 66
     1
 10
0.0
 20
0.0
 30
0.0
  0
VERTEX
  8
0
 10
-1349.55788000000007
 20
1317.39132000000018
 30
0.0
  0
VERTEX
  8
0
 10
-1321.90998000000013
 20
1336.34734000000003
 30
0.0
  0
VERTEX
  8
0
 10
-1322.09794000000011
 20
1363.15704000000005
 30
0.0
  0
VERTEX
  8
0
 10
-1347.33030000000008
 20
1381.50092000000018
 30
0.0
  0
VERTEX
  8
0
 10
-1429.90316000000007
 20
1375.55478000000016
 30
0.0
  0
VERTEX
  8
0
 10
-1432.49142000000006
 20
1373.83012000000008
 30
0.0
  0
VERTEX
  8
0
 10
-1435.67912000000001
 20
1365.27794000000017
 30
0.0
  0
VERTEX
  8
0
 10
-1437.56888000000004
 20
1356.16696000000002
 30
0.0
  0
VERTEX
  8
0
 10
-1437.58920000000012
 20
1347.3912600000001
 30
0.0
  0
VERTEX
  8
0
 10
-1436.6392400000002
 20
1339.92366000000015
 30
0.0
  0
VERTEX
  8
0
 10
-1433.99002000000019
 20
1332.71260000000007
 30
0.0
  0
VERTEX
  8
0
 10
-1431.10458000000017
 20
1326.64454000000001
 30
0.0
  0
VERTEX
  8
0
 10
-1430.36036000000013
 20
1325.59298000000013
 30
0.0
  0
VERTEX
  8
0
 10
-1349.87792000000013
 20
1317.22368000000006
 30
0.0
  0
SEQEND
  0
POLYLINE
  8
7
  6
LINETYPE_2
 66
     1
 10
0.0
 20
0.0
 30
0.0
  0
VERTEX
  8
7
 10
-780.204180000000065
 20
1552.24734000000012
 30
0.0
  0
VERTEX
  8
7
 10
-780.204180000000065
 20
1575.31308000000013
 30
0.0
  0
SEQEND
  0
POLYLINE
  8
7
  6
LINETYPE_2
 66
     1
 10
0.0
 20
0.0
 30
0.0
  0
VERTEX
  8
7
 10
-715.370679999999993
 20
1552.24734000000012
 30
0.0
  0
VERTEX
  8
7
 10
-715.370679999999993
 20
1575.31308000000013
 30
0.0
  0
SEQEND
  0
POLYLINE
  8
7
  6
LINETYPE_2
 66
     1
 10
0.0
 20
0.0
 30
0.0
  0
VERTEX
  8
7
 10
-786.554180000000088
 20
1572.13808000000017
 30
0.0
  0
VERTEX
  8
7
 10
-780.204180000000065
 20
1572.13808000000017
 30
0.0
  0
SEQEND
  0
POLYLINE
  8
7
  6
LINETYPE_2
 66
     1
 10
0.0
 20
0.0
 30
0.0
  0
VERTEX
  8
7
 10
-780.204180000000065
 20
1572.13808000000017
 30
0.0
  0
VERTEX
  8
7
 10
-783.379180000000019
 20
1572.77308000000016
 30
0.0
  0
SEQEND
  0
POLYLINE
  8
7
  6
LINETYPE_2
 66
     1
 10
0.0
 20
0.0
 30
0.0
  0
VERTEX
  8
7
 10
-783.379180000000019
 20
1572.77308000000016
 30
0.0
  0
VERTEX
  8
7
 10
-783.379180000000019
 20
1571.50308000000018
 30
0.0
  0
SEQEND
  0
POLYLINE
  8
7
  6
LINETYPE_2
 66
     1
 10
0.0
 20
0.0
 30
0.0
  0
VERTEX
  8
7
 10
-783.379180000000019
 20
1571.50308000000018
 30
0.0
  0
VERTEX
  8
7
 10
-780.204180000000065
 20
1572.13808000000017
 30
0.0
  0
SEQEND
  0
POLYLINE
  8
7
  6
LINETYPE_2
 66
     1
 10
0.0
 20
0.0
 30
0.0
  0
VERTEX
  8
7
 10
-709.020680000000084
 20
1572.13808000000017
 30
0.0
  0
VERTEX
  8
7
 10
-715.370679999999993
 20
1572.13808000000017
 30
0.0
  0
SEQEND
  0
POLYLINE
  8
7
  6
LINETYPE_2
 66
     1
 10
0.0
 20
0.0
 30
0.0
  0
VERTEX
  8
7
 10
-715.370679999999993
 20
1572.13808000000017
 30
0.0
  0
VERTEX
  8
7
 10
-712.195680000000038
 20
1571.50308000000018
 30
0.0
  0
SEQEND
  0
POLYLINE
  8
7
  6
LINETYPE_2
 66
     1
 10
0.0
 20
0.0
 30
0.0
  0
VERTEX
  8
7
 10
-712.195680000000038
 20
1571.50308000000018
 30
0.0
  0
VERTEX
  8
7
 10
-712.195680000000038
 20
1572.77308000000016
 30
0.0
  0
SEQEND
  0
POLYLINE
  8
7
  6
LINETYPE_2
 66
     1
 10
0.0
 20
0.0
 30
0.0
  0
VERTEX
  8
7
 10
-712.195680000000038
 20
1572.77308000000016
 30
0.0
  0
VERTEX
  8
7
 10
-715.370679999999993
 20
1572.13808000000017
 30
0.0
  0
SEQEND
  0
TEXT
999
CadStd_TT=2
  8
7
 10
-707.445879999999988
 20
1569.63872000000015
 30
0.0
 40
5.0012600000000003
  1
64,834
 50
0.0000000000000000
  0
POLYLINE
  8
7
  6
LINETYPE_2
 66
     1
 10
0.0
 20
0.0
 30
0.0
  0
VERTEX
  8
7
 10
-746.213900000000081
 20
1365.36684000000014
 30
0.0
  0
VERTEX
  8
7
 10
-587.344519999999989
 20
1365.36684000000014
 30
0.0
  0
SEQEND
  0
POLYLINE
  8
7
  6
LINETYPE_2
 66
     1
 10
0.0
 20
0.0
 30
0.0
  0
VERTEX
  8
7
 10
-746.213900000000081
 20
1563.81450000000018
 30
0.0
  0
VERTEX
  8
7
 10
-587.344519999999989
 20
1563.81450000000018
 30
0.0
  0
SEQEND
  0
POLYLINE
  8
7
  6
LINETYPE_2
 66
     1
 10
0.0
 20
0.0
 30
0.0
  0
VERTEX
  8
7
 10
-590.519520000000057
 20
1417.36572000000001
 30
0.0
  0
VERTEX
  8
7
 10
-590.519520000000057
 20
1365.36684000000014
 30
0.0
  0
SEQEND
  0
POLYLINE
  8
7
  6
LINETYPE_2
 66
     1
 10
0.0
 20
0.0
 30
0.0
  0
VERTEX
  8
7
 10
-590.519520000000057
 20
1365.36684000000014
 30
0.0
  0
VERTEX
  8
7
 10
-589.884520000000066
 20
1368.54184000000009
 30
0.0
  0
SEQEND
  0
POLYLINE
  8
7
  6
LINETYPE_2
 66
     1
 10
0.0
 20
0.0
 30
0.0
  0
VERTEX
  8
7
 10
-589.884520000000066
 20
1368.54184000000009
 30
0.0
  0
VERTEX
  8
7
 10
-591.154520000000048
 20
1368.54184000000009
 30
0.0
  0
SEQEND
  0
POLYLINE
  8
7
  6
LINETYPE_2
 66
     1
 10
0.0
 20
0.0
 30
0.0
  0
VERTEX
  8
7
 10
-591.154520000000048
 20
1368.54184000000009
 30
0.0
  0
VERTEX
  8
7
 10
-590.519520000000057
 20
1365.36684000000014
 30
0.0
  0
SEQEND
  0
POLYLINE
  8
7
  6
LINETYPE_2
 66
     1
 10
0.0
 20
0.0
 30
0.0
  0
VERTEX
  8
7
 10
-590.519520000000057
 20
1425.51404000000002
 30
0.0
  0
VERTEX
  8
7
 10
-590.519520000000057
 20
1563.81450000000018
 30
0.0
  0
SEQEND
  0
POLYLINE
  8
7
  6
LINETYPE_2
 66
     1
 10
0.0
 20
0.0
 30
0.0
  0
VERTEX
  8
7
 10
-590.519520000000057
 20
1563.81450000000018
 30
0.0
  0
VERTEX
  8
7
 10
-591.154520000000048
 20
1560.6395
 30
0.0
  0
SEQEND
  0
POLYLINE
  8
7
  6
LINETYPE_2
 66
     1
 10
0.0
 20
0.0
 30
0.0
  0
VERTEX
  8
7
 10
-591.154520000000048
 20
1560.6395
 30
0.0
  0
VERTEX
  8
7
 10
-589.884520000000066
 20
1560.6395
 30
0.0
  0
SEQEND
  0
POLYLINE
  8
7
  6
LINETYPE_2
 66
     1
 10
0.0
 20
0.0
 30
0.0
  0
VERTEX
  8
7
 10
-589.884520000000066
 20
1560.6395
 30
0.0
  0
VERTEX
  8
7
 10
-590.519520000000057
 20
1563.81450000000018
 30
0.0
  0
SEQEND
  0
TEXT
999
CadStd_TT=2
  8
7
 10
-606.315780000000018
 20
1418.94052000000011
 30
0.0
 40
5.0012600000000003
  1
198,448
 50
0.0000000000000000
  0
POLYLINE
  8
7
  6
LINETYPE_2
 66
     1
 10
0.0
 20
0.0
 30
0.0
  0
VERTEX
  8
7
 10
-1541.61743999999999
 20
1348.94574000000011
 30
0.0
  0
VERTEX
  8
7
 10
-1541.61743999999999
 20
1190.33036000000016
 30
0.0
  0
SEQEND
  0
POLYLINE
  8
7
  6
LINETYPE_2
 66
     1
 10
0.0
 20
0.0
 30
0.0
  0
VERTEX
  8
7
 10
-682.632620000000088
 20
1349.64424000000008
 30
0.0
  0
VERTEX
  8
7
 10
-682.632620000000088
 20
1190.33036000000016
 30
0.0
  0
SEQEND
  0
POLYLINE
  8
7
  6
LINETYPE_2
 66
     1
 10
0.0
 20
0.0
 30
0.0
  0
VERTEX
  8
7
 10
-766.493260000000078
 20
1193.50536000000011
 30
0.0
  0
VERTEX
  8
7
 10
-1541.61743999999999
 20
1193.50536000000011
 30
0.0
  0
SEQEND
  0
POLYLINE
  8
7
  6
LINETYPE_2
 66
     1
 10
0.0
 20
0.0
 30
0.0
  0
VERTEX
  8
7
 10
-1541.61743999999999
 20
1193.50536000000011
 30
0.0
  0
VERTEX
  8
7
 10
-1538.44244000000003
 20
1192.87036000000012
 30
0.0
  0
SEQEND
  0
POLYLINE
  8
7
  6
LINETYPE_2
 66
     1
 10
0.0
 20
0.0
 30
0.0
  0
VERTEX
  8
7
 10
-1538.44244000000003
 20
1192.87036000000012
 30
0.0
  0
VERTEX
  8
7
 10
-1538.44244000000003
 20
1194.1403600000001
 30
0.0
  0
SEQEND
  0
POLYLINE
  8
7
  6
LINETYPE_2
 66
     1
 10
0.0
 20
0.0
 30
0.0
  0
VERTEX
  8
7
 10
-1538.44244000000003
 20
1194.1403600000001
 30
0.0
  0
VERTEX
  8
7
 10
-1541.61743999999999
 20
1193.50536000000011
 30
0.0
  0
SEQEND
  0
POLYLINE
  8
7
  6
LINETYPE_2
 66
     1
 10
0.0
 20
0.0
 30
0.0
  0
VERTEX
  8
7
 10
-731.903540000000021
 20
1193.50536000000011
 30
0.0
  0
VERTEX
  8
7
 10
-682.632620000000088
 20
1193.50536000000011
 30
0.0
  0
SEQEND
  0
POLYLINE
  8
7
  6
LINETYPE_2
 66
     1
 10
0.0
 20
0.0
 30
0.0
  0
VERTEX
  8
7
 10
-682.632620000000088
 20
1193.50536000000011
 30
0.0
  0
VERTEX
  8
7
 10
-685.807620000000043
 20
1194.1403600000001
 30
0.0
  0
SEQEND
  0
POLYLINE
  8
7
  6
LINETYPE_2
 66
     1
 10
0.0
 20
0.0
 30
0.0
  0
VERTEX
  8
7
 10
-685.807620000000043
 20
1194.1403600000001
 30
0.0
  0
VERTEX
  8
7
 10
-685.807620000000043
 20
1192.87036000000012
 30
0.0
  0
SEQEND
  0
POLYLINE
  8
7
  6
LINETYPE_2
 66
     1
 10
0.0
 20
0.0
 30
0.0
  0
VERTEX
  8
7
 10
-685.807620000000043
 20
1192.87036000000012
 30
0.0
  0
VERTEX
  8
7
 10
-682.632620000000088
 20
1193.50536000000011
 30
0.0
  0
SEQEND
  0
TEXT
999
CadStd_TT=2
  8
7
 10
-764.918460000000096
 20
1191.00600000000009
 30
0.0
 40
5.0012600000000003
  1
858,985
 50
0.0000000000000000
  0
POLYLINE
  8
0
  6
LINETYPE_1
 66
     1
 70
     1
 10
0.0
 20
0.0
 30
0.0
  0
VERTEX
  8
0
 10
-1431.39668000000006
 20
940.173380000000066
 30
0.0
  0
VERTEX
  8
0
 10
-1102.63432000000012
 20
938.979580000000055
 30
0.0
  0
VERTEX
  8
0
 10
-1049.22828000000004
 20
937.14316000000008
 30
0.0
  0
VERTEX
  8
0
 10
-967.01102000000003
 20
932.916600000000017
 30
0.0
  0
VERTEX
  8
0
 10
-892.375660000000039
 20
926.307520000000068
 30
0.0
  0
VERTEX
  8
0
 10
-846.879180000000019
 20
921.974280000000022
 30
0.0
  0
VERTEX
  8
0
 10
-711.471780000000081
 20
902.261340000000018
 30
0.0
  0
VERTEX
  8
0
 10
-688.075840000000085
 20
890.12776000000008
 30
0.0
  0
VERTEX
  8
0
 10
-685.368200000000002
 20
886.988320000000044
 30
0.0
  0
VERTEX
  8
0
 10
-685.368200000000002
 20
885.037600000000111
 30
0.0
  0
VERTEX
  8
0
 10
-686.666140000000041
 20
883.737120000000004
 30
0.0
  0
VERTEX
  8
0
 10
-710.064619999999991
 20
870.089700000000107
 30
0.0
  0
VERTEX
  8
0
 10
-731.078040000000101
 20
865.319580000000087
 30
0.0
  0
VERTEX
  8
0
 10
-791.093160000000012
 20
854.704920000000016
 30
0.0
  0
VERTEX
  8
0
 10
-868.974640000000022
 20
845.278980000000047
 30
0.0
  0
VERTEX
  8
0
 10
-956.937380000000076
 20
837.049380000000042
 30
0.0
  0
VERTEX
  8
0
 10
-1077.39434000000006
 20
834.014080000000035
 30
0.0
  0
VERTEX
  8
0
 10
-1220.38110000000006
 20
832.281800000000089
 30
0.0
  0
VERTEX
  8
0
 10
-1374.20096000000012
 20
832.281800000000089
 30
0.0
  0
VERTEX
  8
0
 10
-1440.06316000000015
 20
832.716139999999996
 30
0.0
  0
VERTEX
  8
0
 10
-1496.39528000000018
 20
836.615040000000022
 30
0.0
  0
VERTEX
  8
0
 10
-1510.25860000000011
 20
838.779120000000034
 30
0.0
  0
VERTEX
  8
0
 10
-1521.52350000000001
 20
840.079600000000028
 30
0.0
  0
VERTEX
  8
0
 10
-1531.05612000000019
 20
842.683100000000081
 30
0.0
  0
VERTEX
  8
0
 10
-1537.12164000000007
 20
846.147660000000087
 30
0.0
  0
VERTEX
  8
0
 10
-1540.58874000000014
 20
850.04656
 30
0.0
  0
VERTEX
  8
0
 10
-1541.88922000000002
 20
853.950540000000046
 30
0.0
  0
VERTEX
  8
0
 10
-1541.02562000000012
 20
861.311460000000011
 30
0.0
  0
VERTEX
  8
0
 10
-1531.92226000000005
 20
872.14456000000007
 30
0.0
  0
VERTEX
  8
0
 10
-1514.58930000000009
 20
883.409460000000081
 30
0.0
  0
VERTEX
  8
0
 10
-1498.12502000000018
 20
892.51028000000008
 30
0.0
  0
VERTEX
  8
0
 10
-1475.15834000000018
 20
903.340840000000071
 30
0.0
  0
VERTEX
  8
0
 10
-1452.62599999999998
 20
910.706840000000057
 30
0.0
  0
VERTEX
  8
0
 10
-1444.39894000000004
 20
913.742140000000063
 30
0.0
  0
SEQEND
  0
POLYLINE
  8
0
  6
LINETYPE_1
 66
     1
 10
0.0
 20
0.0
 30
0.0
  0
VERTEX
  8
0
 10
-844.603340000000003
 20
921.867600000000039
 30
0.0
  0
VERTEX
  8
0
 10
-816.655720000000088
 20
1002.675160000000005
 30
0.0
  0
VERTEX
  8
0
 10
-804.740580000000023
 20
1035.82216000000017
 30
0.0
  0
VERTEX
  8
0
 10
-799.543740000000071
 20
1044.05938000000015
 30
0.0
  0
VERTEX
  8
0
 10
-789.360880000000066
 20
1050.55416000000014
 30
0.0
  0
VERTEX
  8
0
 10
-780.694400000000087
 20
1054.23970000000008
 30
0.0
  0
VERTEX
  8
0
 10
-772.025380000000041
 20
1055.10584000000017
 30
0.0
  0
VERTEX
  8
0
 10
-763.145540000000096
 20
1055.54017999999996
 30
0.0
  0
VERTEX
  8
0
 10
-755.56110000000001
 20
1054.4556
 30
0.0
  0
VERTEX
  8
0
 10
-744.946440000000052
 20
1051.85464000000002
 30
0.0
  0
VERTEX
  8
0
 10
-739.096820000000093
 20
1048.17164000000002
 30
0.0
  0
VERTEX
  8
0
 10
-731.514920000000075
 20
1041.89022
 30
0.0
  0
VERTEX
  8
0
 10
-727.395039999999994
 20
1033.87398000000007
 30
0.0
  0
VERTEX
  8
0
 10
-723.496140000000082
 20
1022.606540000000109
 30
0.0
  0
VERTEX
  8
0
 10
-720.681820000000016
 20
1008.740680000000111
 30
0.0
  0
VERTEX
  8
0
 10
-703.351400000000012
 20
898.469120000000089
 30
0.0
  0
SEQEND
  0
POLYLINE
  8
0
  6
LINETYPE_1
 66
     1
 10
0.0
 20
0.0
 30
0.0
  0
VERTEX
  8
0
 10
-682.553880000000049
 20
886.335540000000037
 30
0.0
  0
VERTEX
  8
0
 10
-804.740580000000023
 20
885.685300000000098
 30
0.0
  0
SEQEND
  0
POLYLINE
  8
0
  6
LINETYPE_1
 66
     1
 10
0.0
 20
0.0
 30
0.0
  0
VERTEX
  8
0
 10
-1383.30178000000001
 20
832.281800000000089
 30
0.0
  0
VERTEX
  8
0
 10
-1383.73612000000003
 20
867.811320000000023
 30
0.0
  0
SEQEND
  0
POLYLINE
  8
0
  6
LINETYPE_1
 66
     1
 10
0.0
 20
0.0
 30
0.0
  0
VERTEX
  8
0
 10
-1443.53280000000018
 20
914.176480000000083
 30
0.0
  0
VERTEX
  8
0
 10
-1406.26846
 20
894.676900000000046
 30
0.0
  0
VERTEX
  8
0
 10
-1365.97136
 20
894.676900000000046
 30
0.0
  0
VERTEX
  8
0
 10
-1330.00750000000016
 20
939.736500000000092
 30
0.0
  0
SEQEND
  0
POLYLINE
  8
7
  6
LINETYPE_2
 66
     1
 10
0.0
 20
0.0
 30
0.0
  0
VERTEX
  8
7
 10
-1541.45996000000014
 20
876.731800000000021
 30
0.0
  0
VERTEX
  8
7
 10
-1541.45996000000014
 20
789.640280000000075
 30
0.0
  0
SEQEND
  0
POLYLINE
  8
7
  6
LINETYPE_2
 66
     1
 10
0.0
 20
0.0
 30
0.0
  0
VERTEX
  8
7
 10
-685.779680000000098
 20
884.85726000000011
 30
0.0
  0
VERTEX
  8
7
 10
-685.779680000000098
 20
789.640280000000075
 30
0.0
  0
SEQEND
  0
POLYLINE
  8
7
  6
LINETYPE_2
 66
     1
 10
0.0
 20
0.0
 30
0.0
  0
VERTEX
  8
7
 10
-1441.48048000000017
 20
792.81528000000003
 30
0.0
  0
VERTEX
  8
7
 10
-1541.45996000000014
 20
792.81528000000003
 30
0.0
  0
SEQEND
  0
POLYLINE
  8
7
  6
LINETYPE_2
 66
     1
 10
0.0
 20
0.0
 30
0.0
  0
VERTEX
  8
7
 10
-1541.45996000000014
 20
792.81528000000003
 30
0.0
  0
VERTEX
  8
7
 10
-1538.28496000000018
 20
792.180280000000039
 30
0.0
  0
SEQEND
  0
POLYLINE
  8
7
  6
LINETYPE_2
 66
     1
 10
0.0
 20
0.0
 30
0.0
  0
VERTEX
  8
7
 10
-1538.28496000000018
 20
792.180280000000039
 30
0.0
  0
VERTEX
  8
7
 10
-1538.28496000000018
 20
793.450280000000021
 30
0.0
  0
SEQEND
  0
POLYLINE
  8
7
  6
LINETYPE_2
 66
     1
 10
0.0
 20
0.0
 30
0.0
  0
VERTEX
  8
7
 10
-1538.28496000000018
 20
793.450280000000021
 30
0.0
  0
VERTEX
  8
7
 10
-1541.45996000000014
 20
792.81528000000003
 30
0.0
  0
SEQEND
  0
POLYLINE
  8
7
  6
LINETYPE_2
 66
     1
 10
0.0
 20
0.0
 30
0.0
  0
VERTEX
  8
7
 10
-1406.83996000000002
 20
792.81528000000003
 30
0.0
  0
VERTEX
  8
7
 10
-685.779680000000098
 20
792.81528000000003
 30
0.0
  0
SEQEND
  0
POLYLINE
  8
7
  6
LINETYPE_2
 66
     1
 10
0.0
 20
0.0
 30
0.0
  0
VERTEX
  8
7
 10
-685.779680000000098
 20
792.81528000000003
 30
0.0
  0
VERTEX
  8
7
 10
-688.954680000000053
 20
793.450280000000021
 30
0.0
  0
SEQEND
  0
POLYLINE
  8
7
  6
LINETYPE_2
 66
     1
 10
0.0
 20
0.0
 30
0.0
  0
VERTEX
  8
7
 10
-688.954680000000053
 20
793.450280000000021
 30
0.0
  0
VERTEX
  8
7
 10
-688.954680000000053
 20
792.180280000000039
 30
0.0
  0
SEQEND
  0
POLYLINE
  8
7
  6
LINETYPE_2
 66
     1
 10
0.0
 20
0.0
 30
0.0
  0
VERTEX
  8
7
 10
-688.954680000000053
 20
792.180280000000039
 30
0.0
  0
VERTEX
  8
7
 10
-685.779680000000098
 20
792.81528000000003
 30
0.0
  0
SEQEND
  0
TEXT
999
CadStd_TT=2
  8
7
 10
-1439.90568000000007
 20
790.315920000000006
 30
0.0
 40
5.0012600000000003
  1
855,680
 50
0.0000000000000000
  0
POLYLINE
  8
0
  6
LINETYPE_1
 66
     1
 10
0.0
 20
0.0
 30
0.0
  0
VERTEX
  8
0
 10
-806.637960000000021
 20
1376.96956
 30
0.0
  0
VERTEX
  8
0
 10
-806.637960000000021
 20
1349.8296600000001
 30
0.0
  0
SEQEND
  0
POLYLINE
  8
0
  6
LINETYPE_1
 66
     1
 10
0.0
 20
0.0
 30
0.0
  0
VERTEX
  8
0
 10
-700.933320000000094
 20
1356.55558000000019
 30
0.0
  0
VERTEX
  8
0
 10
-700.933320000000094
 20
1351.15553999999997
 30
0.0
  0
SEQEND
  0
POLYLINE
  8
7
  6
LINETYPE_2
 66
     1
 10
0.0
 20
0.0
 30
0.0
  0
VERTEX
  8
7
 10
-1264.47550000000001
 20
832.434200000000033
 30
0.0
  0
VERTEX
  8
7
 10
-1633.53242
 20
832.434200000000033
 30
0.0
  0
SEQEND
  0
POLYLINE
  8
7
  6
LINETYPE_2
 66
     1
 10
0.0
 20
0.0
 30
0.0
  0
VERTEX
  8
7
 10
-1264.47550000000001
 20
939.208180000000084
 30
0.0
  0
VERTEX
  8
7
 10
-1633.53242
 20
939.208180000000084
 30
0.0
  0
SEQEND
  0
POLYLINE
  8
7
  6
LINETYPE_2
 66
     1
 10
0.0
 20
0.0
 30
0.0
  0
VERTEX
  8
7
 10
-1630.35742000000005
 20
860.587560000000053
 30
0.0
  0
VERTEX
  8
7
 10
-1630.35742000000005
 20
832.434200000000033
 30
0.0
  0
SEQEND
  0
POLYLINE
  8
7
  6
LINETYPE_2
 66
     1
 10
0.0
 20
0.0
 30
0.0
  0
VERTEX
  8
7
 10
-1630.35742000000005
 20
832.434200000000033
 30
0.0
  0
VERTEX
  8
7
 10
-1629.72242000000006
 20
835.609200000000101
 30
0.0
  0
SEQEND
  0
POLYLINE
  8
7
  6
LINETYPE_2
 66
     1
 10
0.0
 20
0.0
 30
0.0
  0
VERTEX
  8
7
 10
-1629.72242000000006
 20
835.609200000000101
 30
0.0
  0
VERTEX
  8
7
 10
-1630.99242000000004
 20
835.609200000000101
 30
0.0
  0
SEQEND
  0
POLYLINE
  8
7
  6
LINETYPE_2
 66
     1
 10
0.0
 20
0.0
 30
0.0
  0
VERTEX
  8
7
 10
-1630.99242000000004
 20
835.609200000000101
 30
0.0
  0
VERTEX
  8
7
 10
-1630.35742000000005
 20
832.434200000000033
 30
0.0
  0
SEQEND
  0
POLYLINE
  8
7
  6
LINETYPE_2
 66
     1
 10
0.0
 20
0.0
 30
0.0
  0
VERTEX
  8
7
 10
-1630.35742000000005
 20
868.735880000000066
 30
0.0
  0
VERTEX
  8
7
 10
-1630.35742000000005
 20
939.208180000000084
 30
0.0
  0
SEQEND
  0
POLYLINE
  8
7
  6
LINETYPE_2
 66
     1
 10
0.0
 20
0.0
 30
0.0
  0
VERTEX
  8
7
 10
-1630.35742000000005
 20
939.208180000000084
 30
0.0
  0
VERTEX
  8
7
 10
-1630.99242000000004
 20
936.033180000000016
 30
0.0
  0
SEQEND
  0
POLYLINE
  8
7
  6
LINETYPE_2
 66
     1
 10
0.0
 20
0.0
 30
0.0
  0
VERTEX
  8
7
 10
-1630.99242000000004
 20
936.033180000000016
 30
0.0
  0
VERTEX
  8
7
 10
-1629.72242000000006
 20
936.033180000000016
 30
0.0
  0
SEQEND
  0
POLYLINE
  8
7
  6
LINETYPE_2
 66
     1
 10
0.0
 20
0.0
 30
0.0
  0
VERTEX
  8
7
 10
-1629.72242000000006
 20
936.033180000000016
 30
0.0
  0
VERTEX
  8
7
 10
-1630.35742000000005
 20
939.208180000000084
 30
0.0
  0
SEQEND
  0
TEXT
999
CadStd_TT=2
  8
7
 10
-1646.26035999999999
 20
862.162360000000035
 30
0.0
 40
5.0012600000000003
  1
106,774
 50
0.0000000000000000
  0
POLYLINE
  8
7
  6
LINETYPE_2
 66
     1
 10
0.0
 20
0.0
 30
0.0
  0
VERTEX
  8
7
 10
-762.599440000000072
 20
859.350580000000036
 30
0.0
  0
VERTEX
  8
7
 10
-643.379459999999995
 20
859.350580000000036
 30
0.0
  0
SEQEND
  0
POLYLINE
  8
7
  6
LINETYPE_2
 66
     1
 10
0.0
 20
0.0
 30
0.0
  0
VERTEX
  8
7
 10
-762.088900000000081
 20
909.90420000000006
 30
0.0
  0
VERTEX
  8
7
 10
-643.379459999999995
 20
909.90420000000006
 30
0.0
  0
SEQEND
  0
POLYLINE
  8
7
  6
LINETYPE_2
 66
     1
 10
0.0
 20
0.0
 30
0.0
  0
VERTEX
  8
7
 10
-646.554460000000063
 20
883.020840000000021
 30
0.0
  0
VERTEX
  8
7
 10
-646.554460000000063
 20
859.350580000000036
 30
0.0
  0
SEQEND
  0
POLYLINE
  8
7
  6
LINETYPE_2
 66
     1
 10
0.0
 20
0.0
 30
0.0
  0
VERTEX
  8
7
 10
-646.554460000000063
 20
859.350580000000036
 30
0.0
  0
VERTEX
  8
7
 10
-645.919460000000072
 20
862.525580000000104
 30
0.0
  0
SEQEND
  0
POLYLINE
  8
7
  6
LINETYPE_2
 66
     1
 10
0.0
 20
0.0
 30
0.0
  0
VERTEX
  8
7
 10
-645.919460000000072
 20
862.525580000000104
 30
0.0
  0
VERTEX
  8
7
 10
-647.189460000000054
 20
862.525580000000104
 30
0.0
  0
SEQEND
  0
POLYLINE
  8
7
  6
LINETYPE_2
 66
     1
 10
0.0
 20
0.0
 30
0.0
  0
VERTEX
  8
7
 10
-647.189460000000054
 20
862.525580000000104
 30
0.0
  0
VERTEX
  8
7
 10
-646.554460000000063
 20
859.350580000000036
 30
0.0
  0
SEQEND
  0
POLYLINE
  8
7
  6
LINETYPE_2
 66
     1
 10
0.0
 20
0.0
 30
0.0
  0
VERTEX
  8
7
 10
-646.554460000000063
 20
891.169160000000034
 30
0.0
  0
VERTEX
  8
7
 10
-646.554460000000063
 20
909.90420000000006
 30
0.0
  0
SEQEND
  0
POLYLINE
  8
7
  6
LINETYPE_2
 66
     1
 10
0.0
 20
0.0
 30
0.0
  0
VERTEX
  8
7
 10
-646.554460000000063
 20
909.90420000000006
 30
0.0
  0
VERTEX
  8
7
 10
-647.189460000000054
 20
906.729200000000105
 30
0.0
  0
SEQEND
  0
POLYLINE
  8
7
  6
LINETYPE_2
 66
     1
 10
0.0
 20
0.0
 30
0.0
  0
VERTEX
  8
7
 10
-647.189460000000054
 20
906.729200000000105
 30
0.0
  0
VERTEX
  8
7
 10
-645.919460000000072
 20
906.729200000000105
 30
0.0
  0
SEQEND
  0
POLYLINE
  8
7
  6
LINETYPE_2
 66
     1
 10
0.0
 20
0.0
 30
0.0
  0
VERTEX
  8
7
 10
-645.919460000000072
 20
906.729200000000105
 30
0.0
  0
VERTEX
  8
7
 10
-646.554460000000063
 20
909.90420000000006
 30
0.0
  0
SEQEND
  0
TEXT
999
CadStd_TT=2
  8
7
 10
-659.955500000000029
 20
884.595640000000003
 30
0.0
 40
5.0012600000000003
  1
50,554
 50
0.0000000000000000
  0
POLYLINE
  8
0
  6
LINETYPE_1
 66
     1
 10
0.0
 20
0.0
 30
0.0
  0
VERTEX
  8
0
 10
-599.615260000000035
 20
660.466040000000021
 30
0.0
  0
VERTEX
  8
0
 10
-588.076040000000035
 20
697.077600000000075
 30
0.0
  0
VERTEX
  8
0
 10
-586.27010000000007
 20
699.061340000000087
 30
0.0
  0
VERTEX
  8
0
 10
-584.829920000000016
 20
699.960500000000025
 30
0.0
  0
VERTEX
  8
0
 10
-584.060299999999984
 20
700.458340000000021
 30
0.0
  0
VERTEX
  8
0
 10
-573.60311999999999
 20
700.730120000000056
 30
0.0
  0
VERTEX
  8
0
 10
-572.160399999999981
 20
700.097660000000019
 30
0.0
  0
VERTEX
  8
0
 10
-571.078360000000089
 20
699.015620000000013
 30
0.0
  0
VERTEX
  8
0
 10
-569.996320000000082
 20
698.022480000000087
 30
0.0
  0
VERTEX
  8
0
 10
-568.779660000000035
 20
696.897260000000074
 30
0.0
  0
VERTEX
  8
0
 10
-556.874680000000012
 20
659.203660000000014
 30
0.0
  0
VERTEX
  8
0
 10
-556.874680000000012
 20
655.957539999999994
 30
0.0
  0
VERTEX
  8
0
 10
-558.319940000000088
 20
653.072100000000091
 30
0.0
  0
VERTEX
  8
0
 10
-560.844699999999989
 20
651.268700000000081
 30
0.0
  0
VERTEX
  8
0
 10
-561.924200000000042
 20
650.727680000000078
 30
0.0
  0
VERTEX
  8
0
 10
-563.189120000000003
 20
650.364460000000008
 30
0.0
  0
VERTEX
  8
0
 10
-588.256380000000036
 20
649.825980000000072
 30
0.0
  0
VERTEX
  8
0
 10
-592.945220000000063
 20
650.184120000000007
 30
0.0
  0
VERTEX
  8
0
 10
-594.928960000000075
 20
650.727680000000078
 30
0.0
  0
VERTEX
  8
0
 10
-596.549480000000017
 20
651.449040000000082
 30
0.0
  0
VERTEX
  8
0
 10
-597.63406000000009
 20
652.531080000000088
 30
0.0
  0
VERTEX
  8
0
 10
-598.896439999999984
 20
653.973800000000097
 30
0.0
  0
VERTEX
  8
0
 10
-599.615260000000035
 20
655.416519999999991
 30
0.0
  0
VERTEX
  8
0
 10
-599.798139999999989
 20
657.580600000000004
 30
0.0
  0
VERTEX
  8
0
 10
-599.752420000000029
 20
660.422860000000014
 30
0.0
  0
SEQEND
  0
POLYLINE
  8
7
  6
LINETYPE_2
 66
     1
 10
0.0
 20
0.0
 30
0.0
  0
VERTEX
  8
7
 10
-576.770500000000084
 20
650.128240000000005
 30
0.0
  0
VERTEX
  8
7
 10
-524.921480000000088
 20
650.128240000000005
 30
0.0
  0
SEQEND
  0
POLYLINE
  8
7
  6
LINETYPE_2
 66
     1
 10
0.0
 20
0.0
 30
0.0
  0
VERTEX
  8
7
 10
-576.623180000000048
 20
700.529460000000086
 30
0.0
  0
VERTEX
  8
7
 10
-524.921480000000088
 20
700.529460000000086
 30
0.0
  0
SEQEND
  0
POLYLINE
  8
7
  6
LINETYPE_2
 66
     1
 10
0.0
 20
0.0
 30
0.0
  0
VERTEX
  8
7
 10
-528.096480000000042
 20
662.904440000000022
 30
0.0
  0
VERTEX
  8
7
 10
-528.096480000000042
 20
650.128240000000005
 30
0.0
  0
SEQEND
  0
POLYLINE
  8
7
  6
LINETYPE_2
 66
     1
 10
0.0
 20
0.0
 30
0.0
  0
VERTEX
  8
7
 10
-528.096480000000042
 20
650.128240000000005
 30
0.0
  0
VERTEX
  8
7
 10
-527.461480000000051
 20
653.303240000000073
 30
0.0
  0
SEQEND
  0
POLYLINE
  8
7
  6
LINETYPE_2
 66
     1
 10
0.0
 20
0.0
 30
0.0
  0
VERTEX
  8
7
 10
-527.461480000000051
 20
653.303240000000073
 30
0.0
  0
VERTEX
  8
7
 10
-528.731480000000033
 20
653.303240000000073
 30
0.0
  0
SEQEND
  0
POLYLINE
  8
7
  6
LINETYPE_2
 66
     1
 10
0.0
 20
0.0
 30
0.0
  0
VERTEX
  8
7
 10
-528.731480000000033
 20
653.303240000000073
 30
0.0
  0
VERTEX
  8
7
 10
-528.096480000000042
 20
650.128240000000005
 30
0.0
  0
SEQEND
  0
POLYLINE
  8
7
  6
LINETYPE_2
 66
     1
 10
0.0
 20
0.0
 30
0.0
  0
VERTEX
  8
7
 10
-528.096480000000042
 20
671.052760000000035
 30
0.0
  0
VERTEX
  8
7
 10
-528.096480000000042
 20
700.529460000000086
 30
0.0
  0
SEQEND
  0
POLYLINE
  8
7
  6
LINETYPE_2
 66
     1
 10
0.0
 20
0.0
 30
0.0
  0
VERTEX
  8
7
 10
-528.096480000000042
 20
700.529460000000086
 30
0.0
  0
VERTEX
  8
7
 10
-528.731480000000033
 20
697.354460000000017
 30
0.0
  0
SEQEND
  0
POLYLINE
  8
7
  6
LINETYPE_2
 66
     1
 10
0.0
 20
0.0
 30
0.0
  0
VERTEX
  8
7
 10
-528.731480000000033
 20
697.354460000000017
 30
0.0
  0
VERTEX
  8
7
 10
-527.461480000000051
 20
697.354460000000017
 30
0.0
  0
SEQEND
  0
POLYLINE
  8
7
  6
LINETYPE_2
 66
     1
 10
0.0
 20
0.0
 30
0.0
  0
VERTEX
  8
7
 10
-527.461480000000051
 20
697.354460000000017
 30
0.0
  0
VERTEX
  8
7
 10
-528.096480000000042
 20
700.529460000000086
 30
0.0
  0
SEQEND
  0
TEXT
999
CadStd_TT=2
  8
7
 10
-541.497520000000009
 20
664.479240000000004
 30
0.0
 40
5.0012600000000003
  1
50,401
 50
0.0000000000000000
  0
POLYLINE
  8
2
  6
LINETYPE_1
 66
     1
 10
0.0
 20
0.0
 30
0.0
  0
VERTEX
  8
2
 10
-762.215900000000033
 20
909.853400000000079
 30
0.0
  0
VERTEX
  8
2
 10
-762.215900000000033
 20
676.277540000000044
 30
0.0
  0
SEQEND
  0
POLYLINE
  8
2
  6
LINETYPE_1
 66
     1
 10
0.0
 20
0.0
 30
0.0
  0
VERTEX
  8
2
 10
-1000.587280000000078
 20
934.887640000000033
 30
0.0
  0
VERTEX
  8
2
 10
-1000.587280000000078
 20
642.236460000000079
 30
0.0
  0
SEQEND
  0
POLYLINE
  8
2
  6
LINETYPE_1
 66
     1
 10
0.0
 20
0.0
 30
0.0
  0
VERTEX
  8
2
 10
-1233.37066000000004
 20
939.975260000000048
 30
0.0
  0
VERTEX
  8
2
 10
-1233.37066000000004
 20
629.155460000000062
 30
0.0
  0
SEQEND
  0
POLYLINE
  8
0
  6
LINETYPE_1
 66
     1
 10
0.0
 20
0.0
 30
0.0
  0
VERTEX
  8
0
 10
-366.080039999999997
 20
937.463200000000029
 30
0.0
  0
VERTEX
  8
0
 10
-331.218540000000019
 20
837.544680000000085
 30
0.0
  0
VERTEX
  8
0
 10
-345.21902
 20
833.701660000000061
 30
0.0
  0
VERTEX
  8
0
 10
-410.001720000000034
 20
833.701660000000061
 30
0.0
  0
VERTEX
  8
0
 10
-424.54830000000004
 20
837.544680000000085
 30
0.0
  0
VERTEX
  8
0
 10
-392.706860000000006
 20
936.089060000000018
 30
0.0
  0
VERTEX
  8
0
 10
-390.029700000000048
 20
939.177700000000073
 30
0.0
  0
VERTEX
  8
0
 10
-388.658100000000047
 20
939.72634000000005
 30
0.0
  0
VERTEX
  8
0
 10
-369.168679999999995
 20
939.589180000000056
 30
0.0
  0
VERTEX
  8
0
 10
-367.111280000000022
 20
939.040540000000078
 30
0.0
  0
VERTEX
  8
0
 10
-366.288319999999999
 20
937.806100000000015
 30
0.0
  0
SEQEND
  0
POLYLINE
  8
7
  6
LINETYPE_2
 66
     1
 10
0.0
 20
0.0
 30
0.0
  0
VERTEX
  8
7
 10
-377.007120000000043
 20
833.483220000000074
 30
0.0
  0
VERTEX
  8
7
 10
-246.824500000000029
 20
833.483220000000074
 30
0.0
  0
SEQEND
  0
POLYLINE
  8
7
  6
LINETYPE_2
 66
     1
 10
0.0
 20
0.0
 30
0.0
  0
VERTEX
  8
7
 10
-378.063760000000002
 20
939.840640000000008
 30
0.0
  0
VERTEX
  8
7
 10
-246.824500000000029
 20
939.840640000000008
 30
0.0
  0
SEQEND
  0
POLYLINE
  8
7
  6
LINETYPE_2
 66
     1
 10
0.0
 20
0.0
 30
0.0
  0
VERTEX
  8
7
 10
-249.999500000000012
 20
856.394020000000069
 30
0.0
  0
VERTEX
  8
7
 10
-249.999500000000012
 20
833.483220000000074
 30
0.0
  0
SEQEND
  0
POLYLINE
  8
7
  6
LINETYPE_2
 66
     1
 10
0.0
 20
0.0
 30
0.0
  0
VERTEX
  8
7
 10
-249.999500000000012
 20
833.483220000000074
 30
0.0
  0
VERTEX
  8
7
 10
-249.364500000000021
 20
836.658220000000028
 30
0.0
  0
SEQEND
  0
POLYLINE
  8
7
  6
LINETYPE_2
 66
     1
 10
0.0
 20
0.0
 30
0.0
  0
VERTEX
  8
7
 10
-249.364500000000021
 20
836.658220000000028
 30
0.0
  0
VERTEX
  8
7
 10
-250.634500000000003
 20
836.658220000000028
 30
0.0
  0
SEQEND
  0
POLYLINE
  8
7
  6
LINETYPE_2
 66
     1
 10
0.0
 20
0.0
 30
0.0
  0
VERTEX
  8
7
 10
-250.634500000000003
 20
836.658220000000028
 30
0.0
  0
VERTEX
  8
7
 10
-249.999500000000012
 20
833.483220000000074
 30
0.0
  0
SEQEND
  0
POLYLINE
  8
7
  6
LINETYPE_2
 66
     1
 10
0.0
 20
0.0
 30
0.0
  0
VERTEX
  8
7
 10
-249.999500000000012
 20
864.542340000000081
 30
0.0
  0
VERTEX
  8
7
 10
-249.999500000000012
 20
939.840640000000008
 30
0.0
  0
SEQEND
  0
POLYLINE
  8
7
  6
LINETYPE_2
 66
     1
 10
0.0
 20
0.0
 30
0.0
  0
VERTEX
  8
7
 10
-249.999500000000012
 20
939.840640000000008
 30
0.0
  0
VERTEX
  8
7
 10
-250.634500000000003
 20
936.665640000000053
 30
0.0
  0
SEQEND
  0
POLYLINE
  8
7
  6
LINETYPE_2
 66
     1
 10
0.0
 20
0.0
 30
0.0
  0
VERTEX
  8
7
 10
-250.634500000000003
 20
936.665640000000053
 30
0.0
  0
VERTEX
  8
7
 10
-249.364500000000021
 20
936.665640000000053
 30
0.0
  0
SEQEND
  0
POLYLINE
  8
7
  6
LINETYPE_2
 66
     1
 10
0.0
 20
0.0
 30
0.0
  0
VERTEX
  8
7
 10
-249.364500000000021
 20
936.665640000000053
 30
0.0
  0
VERTEX
  8
7
 10
-249.999500000000012
 20
939.840640000000008
 30
0.0
  0
SEQEND
  0
TEXT
999
CadStd_TT=2
  8
7
 10
-265.902440000000013
 20
857.968820000000051
 30
0.0
 40
5.0012600000000003
  1
106,357
 50
0.0000000000000000
  0
POLYLINE
  8
0
  6
LINETYPE_1
 66
     1
 10
0.0
 20
0.0
 30
0.0
  0
VERTEX
  8
0
 10
-185.491120000000024
 20
852.746580000000108
 30
0.0
  0
VERTEX
  8
0
 10
-157.492700000000013
 20
932.901360000000068
 30
0.0
  0
VERTEX
  8
0
 10
-155.844240000000013
 20
934.547280000000114
 30
0.0
  0
VERTEX
  8
0
 10
-135.806180000000012
 20
934.547280000000114
 30
0.0
  0
VERTEX
  8
0
 10
-133.527800000000013
 20
933.643040000000042
 30
0.0
  0
VERTEX
  8
0
 10
-132.430520000000001
 20
932.106340000000046
 30
0.0
  0
VERTEX
  8
0
 10
-105.270300000000006
 20
853.363800000000083
 30
0.0
  0
VERTEX
  8
0
 10
-104.8562800000000124
 20
845.129120000000057
 30
0.0
  0
VERTEX
  8
0
 10
-106.3675800000000038
 20
841.560420000000022
 30
0.0
  0
VERTEX
  8
0
 10
-109.2504800000000102
 20
839.365859999999998
 30
0.0
  0
VERTEX
  8
0
 10
-111.9936800000000119
 20
837.717399999999998
 30
0.0
  0
VERTEX
  8
0
 10
-115.4252200000000102
 20
837.16876000000002
 30
0.0
  0
VERTEX
  8
0
 10
-119.2682400000000058
 20
836.345800000000054
 30
0.0
  0
VERTEX
  8
0
 10
-168.953180000000003
 20
836.345800000000054
 30
0.0
  0
VERTEX
  8
0
 10
-176.50206
 20
837.580240000000003
 30
0.0
  0
VERTEX
  8
0
 10
-179.108100000000007
 20
838.405740000000037
 30
0.0
  0
VERTEX
  8
0
 10
-181.579520000000002
 20
840.051660000000084
 30
0.0
  0
VERTEX
  8
0
 10
-184.18810000000002
 20
842.794860000000085
 30
0.0
  0
VERTEX
  8
0
 10
-185.559700000000021
 20
845.129120000000057
 30
0.0
  0
VERTEX
  8
0
 10
-186.245500000000021
 20
848.423500000000104
 30
0.0
  0
VERTEX
  8
0
 10
-185.696860000000015
 20
852.266520000000014
 30
0.0
  0
SEQEND
  0
POLYLINE
  8
7
  6
LINETYPE_2
 66
     1
 10
0.0
 20
0.0
 30
0.0
  0
VERTEX
  8
7
 10
-142.773400000000009
 20
836.500740000000064
 30
0.0
  0
VERTEX
  8
7
 10
-44.3407800000000023
 20
836.500740000000064
 30
0.0
  0
SEQEND
  0
POLYLINE
  8
7
  6
LINETYPE_2
 66
     1
 10
0.0
 20
0.0
 30
0.0
  0
VERTEX
  8
7
 10
-142.773400000000009
 20
934.389800000000037
 30
0.0
  0
VERTEX
  8
7
 10
-44.3407800000000023
 20
934.389800000000037
 30
0.0
  0
SEQEND
  0
POLYLINE
  8
7
  6
LINETYPE_2
 66
     1
 10
0.0
 20
0.0
 30
0.0
  0
VERTEX
  8
7
 10
-47.5157799999999995
 20
859.942400000000021
 30
0.0
  0
VERTEX
  8
7
 10
-47.5157799999999995
 20
836.500740000000064
 30
0.0
  0
SEQEND
  0
POLYLINE
  8
7
  6
LINETYPE_2
 66
     1
 10
0.0
 20
0.0
 30
0.0
  0
VERTEX
  8
7
 10
-47.5157799999999995
 20
836.500740000000064
 30
0.0
  0
VERTEX
  8
7
 10
-46.8807800000000015
 20
839.675740000000019
 30
0.0
  0
SEQEND
  0
POLYLINE
  8
7
  6
LINETYPE_2
 66
     1
 10
0.0
 20
0.0
 30
0.0
  0
VERTEX
  8
7
 10
-46.8807800000000015
 20
839.675740000000019
 30
0.0
  0
VERTEX
  8
7
 10
-48.1507800000000046
 20
839.675740000000019
 30
0.0
  0
SEQEND
  0
POLYLINE
  8
7
  6
LINETYPE_2
 66
     1
 10
0.0
 20
0.0
 30
0.0
  0
VERTEX
  8
7
 10
-48.1507800000000046
 20
839.675740000000019
 30
0.0
  0
VERTEX
  8
7
 10
-47.5157799999999995
 20
836.500740000000064
 30
0.0
  0
SEQEND
  0
POLYLINE
  8
7
  6
LINETYPE_2
 66
     1
 10
0.0
 20
0.0
 30
0.0
  0
VERTEX
  8
7
 10
-47.5157799999999995
 20
868.090720000000033
 30
0.0
  0
VERTEX
  8
7
 10
-47.5157799999999995
 20
934.389800000000037
 30
0.0
  0
SEQEND
  0
POLYLINE
  8
7
  6
LINETYPE_2
 66
     1
 10
0.0
 20
0.0
 30
0.0
  0
VERTEX
  8
7
 10
-47.5157799999999995
 20
934.389800000000037
 30
0.0
  0
VERTEX
  8
7
 10
-48.1507800000000046
 20
931.214800000000082
 30
0.0
  0
SEQEND
  0
POLYLINE
  8
7
  6
LINETYPE_2
 66
     1
 10
0.0
 20
0.0
 30
0.0
  0
VERTEX
  8
7
 10
-48.1507800000000046
 20
931.214800000000082
 30
0.0
  0
VERTEX
  8
7
 10
-46.8807800000000015
 20
931.214800000000082
 30
0.0
  0
SEQEND
  0
POLYLINE
  8
7
  6
LINETYPE_2
 66
     1
 10
0.0
 20
0.0
 30
0.0
  0
VERTEX
  8
7
 10
-46.8807800000000015
 20
931.214800000000082
 30
0.0
  0
VERTEX
  8
7
 10
-47.5157799999999995
 20
934.389800000000037
 30
0.0
  0
SEQEND
  0
TEXT
999
CadStd_TT=2
  8
7
 10
-60.8634800000000027
 20
861.517200000000002
 30
0.0
 40
5.0012600000000003
  1
97,889
 50
0.0000000000000000
  0
POLYLINE
  8
2
  6
LINETYPE_1
 66
     1
 10
0.0
 20
0.0
 30
0.0
  0
VERTEX
  8
2
 10
-1479.54238000000009
 20
901.192000000000007
 30
0.0
  0
VERTEX
  8
2
 10
-1479.54238000000009
 20
800.003480000000081
 30
0.0
  0
SEQEND
  0
POLYLINE
  8
0
  6
LINETYPE_1
 66
     1
 10
0.0
 20
0.0
 30
0.0
  0
VERTEX
  8
0
 10
-1451.44744000000014
 20
705.46214000000009
 30
0.0
  0
VERTEX
  8
0
 10
-1438.28770000000009
 20
663.181300000000078
 30
0.0
  0
VERTEX
  8
0
 10
-1438.56709999999998
 20
658.700739999999996
 30
0.0
  0
VERTEX
  8
0
 10
-1441.08678000000009
 20
655.622260000000097
 30
0.0
  0
VERTEX
  8
0
 10
-1445.28794000000016
 20
652.823180000000093
 30
0.0
  0
VERTEX
  8
0
 10
-1451.16804000000002
 20
651.141700000000014
 30
0.0
  0
VERTEX
  8
0
 10
-1464.32778000000008
 20
649.742160000000013
 30
0.0
  0
VERTEX
  8
0
 10
-1479.16646000000014
 20
649.183359999999993
 30
0.0
  0
VERTEX
  8
0
 10
-1496.80676000000017
 20
649.742160000000013
 30
0.0
  0
VERTEX
  8
0
 10
-1506.8880200000001
 20
650.021560000000022
 30
0.0
  0
VERTEX
  8
0
 10
-1515.28780000000006
 20
653.102579999999989
 30
0.0
  0
VERTEX
  8
0
 10
-1522.28804000000014
 20
657.583140000000071
 30
0.0
  0
VERTEX
  8
0
 10
-1523.40564000000018
 20
662.901900000000069
 30
0.0
  0
VERTEX
  8
0
 10
-1510.24590000000012
 20
704.342000000000098
 30
0.0
  0
VERTEX
  8
0
 10
-1505.48847999999998
 20
709.381360000000086
 30
0.0
  0
VERTEX
  8
0
 10
-1500.44658000000004
 20
712.462380000000053
 30
0.0
  0
VERTEX
  8
0
 10
-1493.86797999999999
 20
713.816200000000094
 30
0.0
  0
VERTEX
  8
0
 10
-1487.89390000000003
 20
714.189580000000092
 30
0.0
  0
VERTEX
  8
0
 10
-1482.66658000000007
 20
714.375
 30
0.0
  0
VERTEX
  8
0
 10
-1475.19898000000012
 20
714.562960000000089
 30
0.0
  0
VERTEX
  8
0
 10
-1468.66610000000014
 20
714.189580000000092
 30
0.0
  0
VERTEX
  8
0
 10
-1463.06794000000014
 20
713.254860000000008
 30
0.0
  0
VERTEX
  8
0
 10
-1459.33414000000016
 20
711.575919999999996
 30
0.0
  0
VERTEX
  8
0
 10
-1455.78830000000016
 20
709.335640000000012
 30
0.0
  0
VERTEX
  8
0
 10
-1452.61329999999998
 20
707.283320000000003
 30
0.0
  0
VERTEX
  8
0
 10
-1451.49570000000017
 20
705.789800000000014
 30
0.0
  0
SEQEND
  0
POLYLINE
  8
2
  6
LINETYPE_1
 66
     1
 10
0.0
 20
0.0
 30
0.0
  0
VERTEX
  8
2
 10
-1409.58316000000013
 20
894.880100000000084
 30
0.0
  0
VERTEX
  8
2
 10
-1353.73872000000006
 20
894.880100000000084
 30
0.0
  0
SEQEND
  0
POLYLINE
  8
2
  6
LINETYPE_1
 66
     1
 10
0.0
 20
0.0
 30
0.0
  0
VERTEX
  8
2
 10
-1353.82254000000012
 20
894.96392000000003
 30
0.0
  0
VERTEX
  8
2
 10
-1334.0918200000001
 20
837.780900000000088
 30
0.0
  0
SEQEND
  0
POLYLINE
  8
2
  6
LINETYPE_1
 66
     1
 10
0.0
 20
0.0
 30
0.0
  0
VERTEX
  8
2
 10
-1334.0918200000001
 20
837.780900000000088
 30
0.0
  0
VERTEX
  8
2
 10
-1347.57922000000008
 20
834.214740000000006
 30
0.0
  0
SEQEND
  0
POLYLINE
  8
2
  6
LINETYPE_1
 66
     1
 10
0.0
 20
0.0
 30
0.0
  0
VERTEX
  8
2
 10
-1347.57922000000008
 20
834.214740000000006
 30
0.0
  0
VERTEX
  8
2
 10
-1412.74292000000014
 20
834.146160000000009
 30
0.0
  0
SEQEND
  0
POLYLINE
  8
2
  6
LINETYPE_1
 66
     1
 10
0.0
 20
0.0
 30
0.0
  0
VERTEX
  8
2
 10
-1412.74292000000014
 20
834.146160000000009
 30
0.0
  0
VERTEX
  8
2
 10
-1427.27680000000009
 20
837.935840000000098
 30
0.0
  0
SEQEND
  0
POLYLINE
  8
2
  6
LINETYPE_1
 66
     1
 10
0.0
 20
0.0
 30
0.0
  0
VERTEX
  8
2
 10
-1427.27680000000009
 20
837.935840000000098
 30
0.0
  0
VERTEX
  8
2
 10
-1409.24788000000012
 20
894.499099999999999
 30
0.0
  0
SEQEND
  0
POLYLINE
  8
0
  6
LINETYPE_1
 66
     1
 10
0.0
 20
0.0
 30
0.0
  0
VERTEX
  8
0
 10
-1479.91068000000018
 20
1392.00128000000018
 30
0.0
  0
VERTEX
  8
0
 10
-1487.93708000000015
 20
1383.35257999999999
 30
0.0
  0
VERTEX
  8
0
 10
-1493.6698600000002
 20
1376.90352000000007
 30
0.0
  0
VERTEX
  8
0
 10
-1497.49256000000014
 20
1371.40696000000003
 30
0.0
  0
VERTEX
  8
0
 10
-1500.83774000000017
 20
1362.56776000000013
 30
0.0
  0
VERTEX
  8
0
 10
-1502.15092000000004
 20
1357.95004000000017
 30
0.0
  0
VERTEX
  8
0
 10
-1502.62844000000018
 20
1354.44738000000007
 30
0.0
  0
VERTEX
  8
0
 10
-1502.31094000000007
 20
1348.71206000000006
 30
0.0
  0
VERTEX
  8
0
 10
-1500.39832000000001
 20
1341.22667999999999
 30
0.0
  0
VERTEX
  8
0
 10
-1496.41813999999999
 20
1333.10376000000019
 30
0.0
  0
VERTEX
  8
0
 10
-1487.65768000000003
 20
1318.88992000000007
 30
0.0
  0
VERTEX
  8
0
 10
-1479.89290000000005
 20
1309.92880000000014
 30
0.0
  0
SEQEND
  0
POLYLINE
  8
7
  6
LINETYPE_1
 66
     1
 10
0.0
 20
0.0
 30
0.0
  0
VERTEX
  8
7
 10
-701.149220000000014
 20
1351.15553999999997
 30
0.0
  0
VERTEX
  8
7
 10
-845.776820000000043
 20
1351.15553999999997
 30
0.0
  0
SEQEND
  0
POLYLINE
  8
0
  6
LINETYPE_1
 66
     1
 10
0.0
 20
0.0
 30
0.0
  0
VERTEX
  8
0
 10
-762.391160000000014
 20
1351.26222000000007
 30
0.0
  0
VERTEX
  8
0
 10
-762.391160000000014
 20
1358.26246000000015
 30
0.0
  0
SEQEND
  0
POLYLINE
  8
0
  6
LINETYPE_1
 66
     1
 10
0.0
 20
0.0
 30
0.0
  0
VERTEX
  8
0
 10
-762.391160000000014
 20
1358.26246000000015
 30
0.0
  0
VERTEX
  8
0
 10
-762.391160000000014
 20
1343.26122000000009
 30
0.0
  0
SEQEND
  0
POLYLINE
  8
0
  6
LINETYPE_1
 66
     1
 10
0.0
 20
0.0
 30
0.0
  0
VERTEX
  8
0
 10
-1322.29097999999999
 20
1363.36278000000016
 30
0.0
  0
VERTEX
  8
0
 10
-762.41402000000005
 20
1358.13038000000006
 30
0.0
  0
SEQEND
  0
POLYLINE
  8
0
  6
LINETYPE_1
 66
     1
 10
0.0
 20
0.0
 30
0.0
  0
VERTEX
  8
0
 10
-1321.92014000000017
 20
1336.49212000000011
 30
0.0
  0
VERTEX
  8
0
 10
-762.429259999999999
 20
1343.33742000000007
 30
0.0
  0
SEQEND
  0
POLYLINE
  8
0
  6
LINETYPE_1
 66
     1
 10
0.0
 20
0.0
 30
0.0
  0
VERTEX
  8
0
 10
-733.272600000000011
 20
1362.91066000000001
 30
0.0
  0
VERTEX
  8
0
 10
-733.272600000000011
 20
1562.35146000000009
 30
0.0
  0
SEQEND
  0
POLYLINE
  8
2
  6
LINETYPE_4
 66
     1
 10
0.0
 20
0.0
 30
0.0
  0
VERTEX
  8
2
 10
-682.569119999999998
 20
1351.42732000000001
 30
0.0
  0
VERTEX
  8
2
 10
-1676.28062
 20
1351.42732000000001
 30
0.0
  0
SEQEND
  0
POLYLINE
  8
0
  6
LINETYPE_1
 66
     1
 10
0.0
 20
0.0
 30
0.0
  0
VERTEX
  8
0
 10
-1386.54282000000012
 20
1351.27492000000007
 30
0.0
  0
VERTEX
  8
0
 10
-1382.69726000000014
 20
1930.87752000000023
 30
0.0
  0
VERTEX
  8
0
 10
-1382.36706000000004
 20
1938.37306000000012
 30
0.0
  0
VERTEX
  8
0
 10
-1380.63224000000014
 20
1944.57066000000009
 30
0.0
  0
VERTEX
  8
0
 10
-1376.6850800000002
 20
1948.91406000000006
 30
0.0
  0
VERTEX
  8
0
 10
-1372.05466000000001
 20
1952.76470000000018
 30
0.0
  0
VERTEX
  8
0
 10
-1364.79025999999999
 20
1956.03114000000005
 30
0.0
  0
VERTEX
  8
0
 10
-1354.47532000000001
 20
1957.88280000000009
 30
0.0
  0
VERTEX
  8
0
 10
-1336.69785999999999
 20
1958.85308000000009
 30
0.0
  0
VERTEX
  8
0
 10
-1320.6857
 20
1958.28920000000016
 30
0.0
  0
VERTEX
  8
0
 10
-1310.01008000000002
 20
1956.92268000000013
 30
0.0
  0
VERTEX
  8
0
 10
-1299.31922000000009
 20
1954.28870000000006
 30
0.0
  0
VERTEX
  8
0
 10
-1292.10054000000014
 20
1951.3753200000001
 30
0.0
  0
VERTEX
  8
0
 10
-1283.68298000000004
 20
1946.52392000000009
 30
0.0
  0
VERTEX
  8
0
 10
-1277.38124000000016
 20
1942.08400000000006
 30
0.0
  0
VERTEX
  8
0
 10
-1274.30276000000003
 20
1937.69996000000015
 30
0.0
  0
VERTEX
  8
0
 10
-1271.48590000000013
 20
1934.66974000000005
 30
0.0
  0
VERTEX
  8
0
 10
-1267.02819999999997
 20
1926.74240000000009
 30
0.0
  0
VERTEX
  8
0
 10
-1265.47372000000018
 20
1922.43202000000019
 30
0.0
  0
VERTEX
  8
0
 10
-1122.09072000000015
 20
1350.63738000000012
 30
0.0
  0
SEQEND
  0
POLYLINE
  8
7
  6
LINETYPE_2
 66
     1
 10
0.0
 20
0.0
 30
0.0
  0
VERTEX
  8
7
 10
-1382.56010000000015
 20
1940.10280000000012
 30
0.0
  0
VERTEX
  8
7
 10
-1382.56010000000015
 20
1997.59824000000003
 30
0.0
  0
SEQEND
  0
POLYLINE
  8
7
  6
LINETYPE_2
 66
     1
 10
0.0
 20
0.0
 30
0.0
  0
VERTEX
  8
7
 10
-1275.40766000000008
 20
1941.29152000000022
 30
0.0
  0
VERTEX
  8
7
 10
-1275.40766000000008
 20
1997.59824000000003
 30
0.0
  0
SEQEND
  0
POLYLINE
  8
7
  6
LINETYPE_2
 66
     1
 10
0.0
 20
0.0
 30
0.0
  0
VERTEX
  8
7
 10
-1388.91010000000006
 20
1994.42324000000008
 30
0.0
  0
VERTEX
  8
7
 10
-1382.56010000000015
 20
1994.42324000000008
 30
0.0
  0
SEQEND
  0
POLYLINE
  8
7
  6
LINETYPE_2
 66
     1
 10
0.0
 20
0.0
 30
0.0
  0
VERTEX
  8
7
 10
-1382.56010000000015
 20
1994.42324000000008
 30
0.0
  0
VERTEX
  8
7
 10
-1385.7351000000001
 20
1995.05824000000007
 30
0.0
  0
SEQEND
  0
POLYLINE
  8
7
  6
LINETYPE_2
 66
     1
 10
0.0
 20
0.0
 30
0.0
  0
VERTEX
  8
7
 10
-1385.7351000000001
 20
1995.05824000000007
 30
0.0
  0
VERTEX
  8
7
 10
-1385.7351000000001
 20
1993.78824000000009
 30
0.0
  0
SEQEND
  0
POLYLINE
  8
7
  6
LINETYPE_2
 66
     1
 10
0.0
 20
0.0
 30
0.0
  0
VERTEX
  8
7
 10
-1385.7351000000001
 20
1993.78824000000009
 30
0.0
  0
VERTEX
  8
7
 10
-1382.56010000000015
 20
1994.42324000000008
 30
0.0
  0
SEQEND
  0
POLYLINE
  8
7
  6
LINETYPE_2
 66
     1
 10
0.0
 20
0.0
 30
0.0
  0
VERTEX
  8
7
 10
-1269.05766000000017
 20
1994.42324000000008
 30
0.0
  0
VERTEX
  8
7
 10
-1275.40766000000008
 20
1994.42324000000008
 30
0.0
  0
SEQEND
  0
POLYLINE
  8
7
  6
LINETYPE_2
 66
     1
 10
0.0
 20
0.0
 30
0.0
  0
VERTEX
  8
7
 10
-1275.40766000000008
 20
1994.42324000000008
 30
0.0
  0
VERTEX
  8
7
 10
-1272.23266000000012
 20
1993.78824000000009
 30
0.0
  0
SEQEND
  0
POLYLINE
  8
7
  6
LINETYPE_2
 66
     1
 10
0.0
 20
0.0
 30
0.0
  0
VERTEX
  8
7
 10
-1272.23266000000012
 20
1993.78824000000009
 30
0.0
  0
VERTEX
  8
7
 10
-1272.23266000000012
 20
1995.05824000000007
 30
0.0
  0
SEQEND
  0
POLYLINE
  8
7
  6
LINETYPE_2
 66
     1
 10
0.0
 20
0.0
 30
0.0
  0
VERTEX
  8
7
 10
-1272.23266000000012
 20
1995.05824000000007
 30
0.0
  0
VERTEX
  8
7
 10
-1275.40766000000008
 20
1994.42324000000008
 30
0.0
  0
SEQEND
  0
TEXT
999
CadStd_TT=2
  8
7
 10
-1311.76522
 20
1991.92388000000005
 30
0.0
 40
5.0012600000000003
  1
107,152
 50
0.0000000000000000
  0
POLYLINE
  8
7
  6
LINETYPE_2
 66
     1
 10
0.0
 20
0.0
 30
0.0
  0
VERTEX
  8
7
 10
-1292.38756000000012
 20
1352.22234000000003
 30
0.0
  0
VERTEX
  8
7
 10
-1158.36192000000005
 20
1352.22234000000003
 30
0.0
  0
SEQEND
  0
POLYLINE
  8
7
  6
LINETYPE_2
 66
     1
 10
0.0
 20
0.0
 30
0.0
  0
VERTEX
  8
7
 10
-1302.19704000000002
 20
1956.78298000000018
 30
0.0
  0
VERTEX
  8
7
 10
-1158.36192000000005
 20
1956.78298000000018
 30
0.0
  0
SEQEND
  0
POLYLINE
  8
7
  6
LINETYPE_2
 66
     1
 10
0.0
 20
0.0
 30
0.0
  0
VERTEX
  8
7
 10
-1161.53692000000001
 20
1934.63164000000006
 30
0.0
  0
VERTEX
  8
7
 10
-1161.53692000000001
 20
1352.22234000000003
 30
0.0
  0
SEQEND
  0
POLYLINE
  8
7
  6
LINETYPE_2
 66
     1
 10
0.0
 20
0.0
 30
0.0
  0
VERTEX
  8
7
 10
-1161.53692000000001
 20
1352.22234000000003
 30
0.0
  0
VERTEX
  8
7
 10
-1160.90192000000002
 20
1355.39733999999999
 30
0.0
  0
SEQEND
  0
POLYLINE
  8
7
  6
LINETYPE_2
 66
     1
 10
0.0
 20
0.0
 30
0.0
  0
VERTEX
  8
7
 10
-1160.90192000000002
 20
1355.39733999999999
 30
0.0
  0
VERTEX
  8
7
 10
-1162.17192
 20
1355.39733999999999
 30
0.0
  0
SEQEND
  0
POLYLINE
  8
7
  6
LINETYPE_2
 66
     1
 10
0.0
 20
0.0
 30
0.0
  0
VERTEX
  8
7
 10
-1162.17192
 20
1355.39733999999999
 30
0.0
  0
VERTEX
  8
7
 10
-1161.53692000000001
 20
1352.22234000000003
 30
0.0
  0
SEQEND
  0
POLYLINE
  8
7
  6
LINETYPE_2
 66
     1
 10
0.0
 20
0.0
 30
0.0
  0
VERTEX
  8
7
 10
-1161.53692000000001
 20
1942.77996000000007
 30
0.0
  0
VERTEX
  8
7
 10
-1161.53692000000001
 20
1956.78298000000018
 30
0.0
  0
SEQEND
  0
POLYLINE
  8
7
  6
LINETYPE_2
 66
     1
 10
0.0
 20
0.0
 30
0.0
  0
VERTEX
  8
7
 10
-1161.53692000000001
 20
1956.78298000000018
 30
0.0
  0
VERTEX
  8
7
 10
-1162.17192
 20
1953.60798000000023
 30
0.0
  0
SEQEND
  0
POLYLINE
  8
7
  6
LINETYPE_2
 66
     1
 10
0.0
 20
0.0
 30
0.0
  0
VERTEX
  8
7
 10
-1162.17192
 20
1953.60798000000023
 30
0.0
  0
VERTEX
  8
7
 10
-1160.90192000000002
 20
1953.60798000000023
 30
0.0
  0
SEQEND
  0
POLYLINE
  8
7
  6
LINETYPE_2
 66
     1
 10
0.0
 20
0.0
 30
0.0
  0
VERTEX
  8
7
 10
-1160.90192000000002
 20
1953.60798000000023
 30
0.0
  0
VERTEX
  8
7
 10
-1161.53692000000001
 20
1956.78298000000018
 30
0.0
  0
SEQEND
  0
TEXT
999
CadStd_TT=2
  8
7
 10
-1177.43986000000018
 20
1936.20644000000016
 30
0.0
 40
5.0012600000000003
  1
604,561
 50
0.0000000000000000
  0
POLYLINE
  8
7
  6
LINETYPE_2
 66
     1
 10
0.0
 20
0.0
 30
0.0
  0
VERTEX
  8
7
 10
-1386.70792000000006
 20
1349.9846
 30
0.0
  0
VERTEX
  8
7
 10
-1386.70792000000006
 20
1274.63042000000019
 30
0.0
  0
SEQEND
  0
POLYLINE
  8
7
  6
LINETYPE_2
 66
     1
 10
0.0
 20
0.0
 30
0.0
  0
VERTEX
  8
7
 10
-1122.27868000000012
 20
1349.96174000000019
 30
0.0
  0
VERTEX
  8
7
 10
-1122.27868000000012
 20
1274.63042000000019
 30
0.0
  0
SEQEND
  0
POLYLINE
  8
7
  6
LINETYPE_2
 66
     1
 10
0.0
 20
0.0
 30
0.0
  0
VERTEX
  8
7
 10
-1184.16324000000009
 20
1277.80542000000014
 30
0.0
  0
VERTEX
  8
7
 10
-1386.70792000000006
 20
1277.80542000000014
 30
0.0
  0
SEQEND
  0
POLYLINE
  8
7
  6
LINETYPE_2
 66
     1
 10
0.0
 20
0.0
 30
0.0
  0
VERTEX
  8
7
 10
-1386.70792000000006
 20
1277.80542000000014
 30
0.0
  0
VERTEX
  8
7
 10
-1383.5329200000001
 20
1277.17042000000015
 30
0.0
  0
SEQEND
  0
POLYLINE
  8
7
  6
LINETYPE_2
 66
     1
 10
0.0
 20
0.0
 30
0.0
  0
VERTEX
  8
7
 10
-1383.5329200000001
 20
1277.17042000000015
 30
0.0
  0
VERTEX
  8
7
 10
-1383.5329200000001
 20
1278.44042000000013
 30
0.0
  0
SEQEND
  0
POLYLINE
  8
7
  6
LINETYPE_2
 66
     1
 10
0.0
 20
0.0
 30
0.0
  0
VERTEX
  8
7
 10
-1383.5329200000001
 20
1278.44042000000013
 30
0.0
  0
VERTEX
  8
7
 10
-1386.70792000000006
 20
1277.80542000000014
 30
0.0
  0
SEQEND
  0
POLYLINE
  8
7
  6
LINETYPE_2
 66
     1
 10
0.0
 20
0.0
 30
0.0
  0
VERTEX
  8
7
 10
-1149.10616000000005
 20
1277.80542000000014
 30
0.0
  0
VERTEX
  8
7
 10
-1122.27868000000012
 20
1277.80542000000014
 30
0.0
  0
SEQEND
  0
POLYLINE
  8
7
  6
LINETYPE_2
 66
     1
 10
0.0
 20
0.0
 30
0.0
  0
VERTEX
  8
7
 10
-1122.27868000000012
 20
1277.80542000000014
 30
0.0
  0
VERTEX
  8
7
 10
-1125.45368000000008
 20
1278.44042000000013
 30
0.0
  0
SEQEND
  0
POLYLINE
  8
7
  6
LINETYPE_2
 66
     1
 10
0.0
 20
0.0
 30
0.0
  0
VERTEX
  8
7
 10
-1125.45368000000008
 20
1278.44042000000013
 30
0.0
  0
VERTEX
  8
7
 10
-1125.45368000000008
 20
1277.17042000000015
 30
0.0
  0
SEQEND
  0
POLYLINE
  8
7
  6
LINETYPE_2
 66
     1
 10
0.0
 20
0.0
 30
0.0
  0
VERTEX
  8
7
 10
-1125.45368000000008
 20
1277.17042000000015
 30
0.0
  0
VERTEX
  8
7
 10
-1122.27868000000012
 20
1277.80542000000014
 30
0.0
  0
SEQEND
  0
TEXT
999
CadStd_TT=2
  8
7
 10
-1182.58843999999999
 20
1275.30606000000012
 30
0.0
 40
5.0012600000000003
  1
264,429
 50
0.0000000000000000
  0
POLYLINE
  8
0
  6
LINETYPE_4
 66
     1
 10
0.0
 20
0.0
 30
0.0
  0
VERTEX
  8
0
 10
-1432.59810000000016
 20
1373.72090000000003
 30
0.0
  0
VERTEX
  8
0
 10
-1497.36556000000019
 20
1371.81082000000015
 30
0.0
  0
SEQEND
  0
POLYLINE
  8
0
  6
LINETYPE_4
 66
     1
 10
0.0
 20
0.0
 30
0.0
  0
VERTEX
  8
0
 10
-1430.64484000000016
 20
1325.62092000000007
 30
0.0
  0
VERTEX
  8
0
 10
-1493.24060000000009
 20
1327.7469000000001
 30
0.0
  0
SEQEND
  0
POLYLINE
  8
0
  6
LINETYPE_2
 66
     1
 10
0.0
 20
0.0
 30
0.0
  0
VERTEX
  8
0
 10
-1480.40852000000018
 20
1309.92372
 30
0.0
  0
VERTEX
  8
0
 10
-1784.17982000000006
 20
1309.92372
 30
0.0
  0
SEQEND
  0
POLYLINE
  8
0
  6
LINETYPE_2
 66
     1
 10
0.0
 20
0.0
 30
0.0
  0
VERTEX
  8
0
 10
-1480.40852000000018
 20
1391.41962000000012
 30
0.0
  0
VERTEX
  8
0
 10
-1784.17982000000006
 20
1391.41962000000012
 30
0.0
  0
SEQEND
  0
POLYLINE
  8
0
  6
LINETYPE_2
 66
     1
 10
0.0
 20
0.0
 30
0.0
  0
VERTEX
  8
0
 10
-1781.00482000000011
 20
1321.24450000000002
 30
0.0
  0
VERTEX
  8
0
 10
-1781.00482000000011
 20
1309.92372
 30
0.0
  0
SEQEND
  0
POLYLINE
  8
0
  6
LINETYPE_2
 66
     1
 10
0.0
 20
0.0
 30
0.0
  0
VERTEX
  8
0
 10
-1781.00482000000011
 20
1309.92372
 30
0.0
  0
VERTEX
  8
0
 10
-1780.36982000000012
 20
1313.09872000000018
 30
0.0
  0
SEQEND
  0
POLYLINE
  8
0
  6
LINETYPE_2
 66
     1
 10
0.0
 20
0.0
 30
0.0
  0
VERTEX
  8
0
 10
-1780.36982000000012
 20
1313.09872000000018
 30
0.0
  0
VERTEX
  8
0
 10
-1781.6398200000001
 20
1313.09872000000018
 30
0.0
  0
SEQEND
  0
POLYLINE
  8
0
  6
LINETYPE_2
 66
     1
 10
0.0
 20
0.0
 30
0.0
  0
VERTEX
  8
0
 10
-1781.6398200000001
 20
1313.09872000000018
 30
0.0
  0
VERTEX
  8
0
 10
-1781.00482000000011
 20
1309.92372
 30
0.0
  0
SEQEND
  0
POLYLINE
  8
0
  6
LINETYPE_2
 66
     1
 10
0.0
 20
0.0
 30
0.0
  0
VERTEX
  8
0
 10
-1781.00482000000011
 20
1329.39282000000003
 30
0.0
  0
VERTEX
  8
0
 10
-1781.00482000000011
 20
1391.41962000000012
 30
0.0
  0
SEQEND
  0
POLYLINE
  8
0
  6
LINETYPE_2
 66
     1
 10
0.0
 20
0.0
 30
0.0
  0
VERTEX
  8
0
 10
-1781.00482000000011
 20
1391.41962000000012
 30
0.0
  0
VERTEX
  8
0
 10
-1781.6398200000001
 20
1388.24462000000017
 30
0.0
  0
SEQEND
  0
POLYLINE
  8
0
  6
LINETYPE_2
 66
     1
 10
0.0
 20
0.0
 30
0.0
  0
VERTEX
  8
0
 10
-1781.6398200000001
 20
1388.24462000000017
 30
0.0
  0
VERTEX
  8
0
 10
-1780.36982000000012
 20
1388.24462000000017
 30
0.0
  0
SEQEND
  0
POLYLINE
  8
0
  6
LINETYPE_2
 66
     1
 10
0.0
 20
0.0
 30
0.0
  0
VERTEX
  8
0
 10
-1780.36982000000012
 20
1388.24462000000017
 30
0.0
  0
VERTEX
  8
0
 10
-1781.00482000000011
 20
1391.41962000000012
 30
0.0
  0
SEQEND
  0
TEXT
999
CadStd_TT=2
  8
0
 10
-1794.38046000000008
 20
1322.81930000000011
 30
0.0
 40
5.0012600000000003
  1
81,496
 50
0.0000000000000000
  0
POLYLINE
  8
0
  6
LINETYPE_1
 66
     1
 10
0.0
 20
0.0
 30
0.0
  0
VERTEX
  8
0
 10
-1474.55636000000004
 20
1494.67316000000005
 30
0.0
  0
VERTEX
  8
0
 10
-1474.55636000000004
 20
1494.84588000000008
 30
0.0
  0
SEQEND
  0
POLYLINE
  8
0
  6
LINETYPE_1
 66
     1
 10
0.0
 20
0.0
 30
0.0
  0
VERTEX
  8
0
 10
-1385.75034000000005
 20
1494.6528400000002
 30
0.0
  0
VERTEX
  8
0
 10
-1385.75034000000005
 20
1567.65244000000007
 30
0.0
  0
SEQEND
  0
POLYLINE
  8
0
  6
LINETYPE_2
 66
     1
 10
0.0
 20
0.0
 30
0.0
  0
VERTEX
  8
0
 10
-1385.88242000000014
 20
1496.79660000000013
 30
0.0
  0
VERTEX
  8
0
 10
-1385.88242000000014
 20
1550.16962000000012
 30
0.0
  0
SEQEND
  0
POLYLINE
  8
0
  6
LINETYPE_2
 66
     1
 10
0.0
 20
0.0
 30
0.0
  0
VERTEX
  8
0
 10
-1158.13077999999996
 20
1496.79660000000013
 30
0.0
  0
VERTEX
  8
0
 10
-1158.13077999999996
 20
1550.16962000000012
 30
0.0
  0
SEQEND
  0
POLYLINE
  8
0
  6
LINETYPE_2
 66
     1
 10
0.0
 20
0.0
 30
0.0
  0
VERTEX
  8
0
 10
-1392.23242000000005
 20
1546.99462000000017
 30
0.0
  0
VERTEX
  8
0
 10
-1385.88242000000014
 20
1546.99462000000017
 30
0.0
  0
SEQEND
  0
POLYLINE
  8
0
  6
LINETYPE_2
 66
     1
 10
0.0
 20
0.0
 30
0.0
  0
VERTEX
  8
0
 10
-1385.88242000000014
 20
1546.99462000000017
 30
0.0
  0
VERTEX
  8
0
 10
-1389.05742000000009
 20
1547.62962000000016
 30
0.0
  0
SEQEND
  0
POLYLINE
  8
0
  6
LINETYPE_2
 66
     1
 10
0.0
 20
0.0
 30
0.0
  0
VERTEX
  8
0
 10
-1389.05742000000009
 20
1547.62962000000016
 30
0.0
  0
VERTEX
  8
0
 10
-1389.05742000000009
 20
1546.35962000000018
 30
0.0
  0
SEQEND
  0
POLYLINE
  8
0
  6
LINETYPE_2
 66
     1
 10
0.0
 20
0.0
 30
0.0
  0
VERTEX
  8
0
 10
-1389.05742000000009
 20
1546.35962000000018
 30
0.0
  0
VERTEX
  8
0
 10
-1385.88242000000014
 20
1546.99462000000017
 30
0.0
  0
SEQEND
  0
POLYLINE
  8
0
  6
LINETYPE_2
 66
     1
 10
0.0
 20
0.0
 30
0.0
  0
VERTEX
  8
0
 10
-1150.39139999999998
 20
1546.99462000000017
 30
0.0
  0
VERTEX
  8
0
 10
-1158.13077999999996
 20
1546.99462000000017
 30
0.0
  0
SEQEND
  0
POLYLINE
  8
0
  6
LINETYPE_2
 66
     1
 10
0.0
 20
0.0
 30
0.0
  0
VERTEX
  8
0
 10
-1158.13077999999996
 20
1546.99462000000017
 30
0.0
  0
VERTEX
  8
0
 10
-1154.95578
 20
1546.35962000000018
 30
0.0
  0
SEQEND
  0
POLYLINE
  8
0
  6
LINETYPE_2
 66
     1
 10
0.0
 20
0.0
 30
0.0
  0
VERTEX
  8
0
 10
-1154.95578
 20
1546.35962000000018
 30
0.0
  0
VERTEX
  8
0
 10
-1154.95578
 20
1547.62962000000016
 30
0.0
  0
SEQEND
  0
POLYLINE
  8
0
  6
LINETYPE_2
 66
     1
 10
0.0
 20
0.0
 30
0.0
  0
VERTEX
  8
0
 10
-1154.95578
 20
1547.62962000000016
 30
0.0
  0
VERTEX
  8
0
 10
-1158.13077999999996
 20
1546.99462000000017
 30
0.0
  0
SEQEND
  0
TEXT
999
CadStd_TT=2
  8
0
 10
-1148.81660000000011
 20
1544.49526000000014
 30
0.0
 40
5.0012600000000003
  1
227,752
 50
0.0000000000000000
  0
POLYLINE
  8
0
  6
LINETYPE_2
 66
     1
 10
0.0
 20
0.0
 30
0.0
  0
VERTEX
  8
0
 10
-707.227440000000001
 20
1778.92456000000016
 30
0.0
  0
VERTEX
  8
0
 10
-833.010780000000068
 20
1778.92456000000016
 30
0.0
  0
SEQEND
  0
POLYLINE
  8
0
  6
LINETYPE_2
 66
     1
 10
0.0
 20
0.0
 30
0.0
  0
VERTEX
  8
0
 10
-707.329040000000077
 20
1852.47026000000005
 30
0.0
  0
VERTEX
  8
0
 10
-833.010780000000068
 20
1852.47026000000005
 30
0.0
  0
SEQEND
  0
POLYLINE
  8
0
  6
LINETYPE_2
 66
     1
 10
0.0
 20
0.0
 30
0.0
  0
VERTEX
  8
0
 10
-829.83578
 20
1790.04976000000011
 30
0.0
  0
VERTEX
  8
0
 10
-829.83578
 20
1778.92456000000016
 30
0.0
  0
SEQEND
  0
POLYLINE
  8
0
  6
LINETYPE_2
 66
     1
 10
0.0
 20
0.0
 30
0.0
  0
VERTEX
  8
0
 10
-829.83578
 20
1778.92456000000016
 30
0.0
  0
VERTEX
  8
0
 10
-829.200780000000009
 20
1782.09956000000011
 30
0.0
  0
SEQEND
  0
POLYLINE
  8
0
  6
LINETYPE_2
 66
     1
 10
0.0
 20
0.0
 30
0.0
  0
VERTEX
  8
0
 10
-829.200780000000009
 20
1782.09956000000011
 30
0.0
  0
VERTEX
  8
0
 10
-830.470780000000104
 20
1782.09956000000011
 30
0.0
  0
SEQEND
  0
POLYLINE
  8
0
  6
LINETYPE_2
 66
     1
 10
0.0
 20
0.0
 30
0.0
  0
VERTEX
  8
0
 10
-830.470780000000104
 20
1782.09956000000011
 30
0.0
  0
VERTEX
  8
0
 10
-829.83578
 20
1778.92456000000016
 30
0.0
  0
SEQEND
  0
POLYLINE
  8
0
  6
LINETYPE_2
 66
     1
 10
0.0
 20
0.0
 30
0.0
  0
VERTEX
  8
0
 10
-829.83578
 20
1798.19808000000012
 30
0.0
  0
VERTEX
  8
0
 10
-829.83578
 20
1852.47026000000005
 30
0.0
  0
SEQEND
  0
POLYLINE
  8
0
  6
LINETYPE_2
 66
     1
 10
0.0
 20
0.0
 30
0.0
  0
VERTEX
  8
0
 10
-829.83578
 20
1852.47026000000005
 30
0.0
  0
VERTEX
  8
0
 10
-830.470780000000104
 20
1849.2952600000001
 30
0.0
  0
SEQEND
  0
POLYLINE
  8
0
  6
LINETYPE_2
 66
     1
 10
0.0
 20
0.0
 30
0.0
  0
VERTEX
  8
0
 10
-830.470780000000104
 20
1849.2952600000001
 30
0.0
  0
VERTEX
  8
0
 10
-829.200780000000009
 20
1849.2952600000001
 30
0.0
  0
SEQEND
  0
POLYLINE
  8
0
  6
LINETYPE_2
 66
     1
 10
0.0
 20
0.0
 30
0.0
  0
VERTEX
  8
0
 10
-829.200780000000009
 20
1849.2952600000001
 30
0.0
  0
VERTEX
  8
0
 10
-829.83578
 20
1852.47026000000005
 30
0.0
  0
SEQEND
  0
TEXT
999
CadStd_TT=2
  8
0
 10
-843.23682000000008
 20
1791.6245600000002
 30
0.0
 40
5.0012600000000003
  1
73,546
 50
0.0000000000000000
  0
POLYLINE
  8
0
  6
LINETYPE_1
 66
     1
 10
0.0
 20
0.0
 30
0.0
  0
VERTEX
  8
0
 10
-705.619620000000054
 20
1852.12990000000013
 30
0.0
  0
VERTEX
  8
0
 10
-705.619620000000054
 20
1779.01092000000017
 30
0.0
  0
SEQEND
  0
POLYLINE
  8
7
  6
LINETYPE_2
 66
     1
 10
0.0
 20
0.0
 30
0.0
  0
VERTEX
  8
7
 10
-774.73302000000001
 20
1846.09994000000006
 30
0.0
  0
VERTEX
  8
7
 10
-774.73302000000001
 20
1890.4077000000002
 30
0.0
  0
SEQEND
  0
POLYLINE
  8
7
  6
LINETYPE_2
 66
     1
 10
0.0
 20
0.0
 30
0.0
  0
VERTEX
  8
7
 10
-705.672959999999989
 20
1846.08216000000016
 30
0.0
  0
VERTEX
  8
7
 10
-705.672959999999989
 20
1890.4077000000002
 30
0.0
  0
SEQEND
  0
POLYLINE
  8
7
  6
LINETYPE_2
 66
     1
 10
0.0
 20
0.0
 30
0.0
  0
VERTEX
  8
7
 10
-781.083020000000033
 20
1887.23270000000002
 30
0.0
  0
VERTEX
  8
7
 10
-774.73302000000001
 20
1887.23270000000002
 30
0.0
  0
SEQEND
  0
POLYLINE
  8
7
  6
LINETYPE_2
 66
     1
 10
0.0
 20
0.0
 30
0.0
  0
VERTEX
  8
7
 10
-774.73302000000001
 20
1887.23270000000002
 30
0.0
  0
VERTEX
  8
7
 10
-777.908020000000079
 20
1887.86770000000001
 30
0.0
  0
SEQEND
  0
POLYLINE
  8
7
  6
LINETYPE_2
 66
     1
 10
0.0
 20
0.0
 30
0.0
  0
VERTEX
  8
7
 10
-777.908020000000079
 20
1887.86770000000001
 30
0.0
  0
VERTEX
  8
7
 10
-777.908020000000079
 20
1886.59770000000003
 30
0.0
  0
SEQEND
  0
POLYLINE
  8
7
  6
LINETYPE_2
 66
     1
 10
0.0
 20
0.0
 30
0.0
  0
VERTEX
  8
7
 10
-777.908020000000079
 20
1886.59770000000003
 30
0.0
  0
VERTEX
  8
7
 10
-774.73302000000001
 20
1887.23270000000002
 30
0.0
  0
SEQEND
  0
POLYLINE
  8
7
  6
LINETYPE_2
 66
     1
 10
0.0
 20
0.0
 30
0.0
  0
VERTEX
  8
7
 10
-699.32296000000008
 20
1887.23270000000002
 30
0.0
  0
VERTEX
  8
7
 10
-705.672959999999989
 20
1887.23270000000002
 30
0.0
  0
SEQEND
  0
POLYLINE
  8
7
  6
LINETYPE_2
 66
     1
 10
0.0
 20
0.0
 30
0.0
  0
VERTEX
  8
7
 10
-705.672959999999989
 20
1887.23270000000002
 30
0.0
  0
VERTEX
  8
7
 10
-702.497960000000035
 20
1886.59770000000003
 30
0.0
  0
SEQEND
  0
POLYLINE
  8
7
  6
LINETYPE_2
 66
     1
 10
0.0
 20
0.0
 30
0.0
  0
VERTEX
  8
7
 10
-702.497960000000035
 20
1886.59770000000003
 30
0.0
  0
VERTEX
  8
7
 10
-702.497960000000035
 20
1887.86770000000001
 30
0.0
  0
SEQEND
  0
POLYLINE
  8
7
  6
LINETYPE_2
 66
     1
 10
0.0
 20
0.0
 30
0.0
  0
VERTEX
  8
7
 10
-702.497960000000035
 20
1887.86770000000001
 30
0.0
  0
VERTEX
  8
7
 10
-705.672959999999989
 20
1887.23270000000002
 30
0.0
  0
SEQEND
  0
TEXT
999
CadStd_TT=2
  8
7
 10
-697.748160000000098
 20
1884.73334000000023
 30
0.0
 40
5.0012600000000003
  1
69,060
 50
0.0000000000000000
  0
POLYLINE
  8
7
  6
LINETYPE_1
 66
     1
 70
     1
 10
0.0
 20
0.0
 30
0.0
  0
VERTEX
  8
7
 10
-695.985400000000027
 20
1819.34104000000002
 30
0.0
  0
SEQEND
  0
POLYLINE
  8
7
  6
LINETYPE_1
 66
     1
 70
     1
 10
0.0
 20
0.0
 30
0.0
  0
VERTEX
  8
7
 10
-695.985400000000027
 20
1819.34104000000002
 30
0.0
  0
SEQEND
  0
POLYLINE
  8
7
  6
LINETYPE_1
 66
     1
 10
0.0
 20
0.0
 30
0.0
  0
VERTEX
  8
7
 10
-695.985400000000027
 20
1819.34104000000002
 30
0.0
  0
VERTEX
  8
7
 10
-695.985400000000027
 20
1814.3423200000002
 30
0.0
  0
SEQEND
  0
POLYLINE
  8
0
  6
LINETYPE_1
 66
     1
 10
0.0
 20
0.0
 30
0.0
  0
VERTEX
  8
0
 10
-679.952920000000063
 20
1812.90722000000005
 30
0.0
  0
VERTEX
  8
0
 10
-685.850800000000049
 20
1813.79622000000018
 30
0.0
  0
VERTEX
  8
0
 10
-689.32298000000003
 20
1814.60394000000019
 30
0.0
  0
VERTEX
  8
0
 10
-692.876440000000002
 20
1815.73424
 30
0.0
  0
VERTEX
  8
0
 10
-694.735720000000015
 20
1816.78580000000011
 30
0.0
  0
VERTEX
  8
0
 10
-695.947300000000041
 20
1817.91610000000014
 30
0.0
  0
VERTEX
  8
0
 10
-696.028580000000034
 20
1819.53154000000018
 30
0.0
  0
VERTEX
  8
0
 10
-695.380880000000047
 20
1821.3095400000002
 30
0.0
  0
VERTEX
  8
0
 10
-693.68416000000002
 20
1822.76242000000002
 30
0.0
  0
VERTEX
  8
0
 10
-691.423560000000066
 20
1824.29658000000018
 30
0.0
  0
VERTEX
  8
0
 10
-688.192679999999996
 20
1825.75200000000018
 30
0.0
  0
VERTEX
  8
0
 10
-681.972219999999993
 20
1827.85004000000004
 30
0.0
  0
VERTEX
  8
0
 10
-676.158160000000066
 20
1829.38674000000015
 30
0.0
  0
VERTEX
  8
0
 10
-669.856420000000071
 20
1830.75834000000009
 30
0.0
  0
VERTEX
  8
0
 10
-664.12110000000007
 20
1831.72862000000009
 30
0.0
  0
VERTEX
  8
0
 10
-655.782280000000014
 20
1832.61762000000022
 30
0.0
  0
VERTEX
  8
0
 10
-646.008360000000039
 20
1833.74792000000002
 30
0.0
  0
VERTEX
  8
0
 10
-637.123440000000073
 20
1834.23306000000002
 30
0.0
  0
VERTEX
  8
0
 10
-629.127520000000004
 20
1834.31180000000018
 30
0.0
  0
VERTEX
  8
0
 10
-615.09402
 20
1834.57596000000012
 30
0.0
  0
VERTEX
  8
0
 10
-600.478860000000054
 20
1834.3727600000002
 30
0.0
  0
VERTEX
  8
0
 10
-600.941140000000018
 20
1835.29732000000013
 30
0.0
  0
VERTEX
  8
0
 10
-609.775260000000003
 20
1837.48426000000018
 30
0.0
  0
VERTEX
  8
0
 10
-622.269520000000057
 20
1839.80074000000013
 30
0.0
  0
VERTEX
  8
0
 10
-630.346720000000005
 20
1840.72530000000006
 30
0.0
  0
VERTEX
  8
0
 10
-640.359400000000051
 20
1841.90386000000012
 30
0.0
  0
VERTEX
  8
0
 10
-649.698980000000006
 20
1842.99860000000012
 30
0.0
  0
VERTEX
  8
0
 10
-655.589240000000018
 20
1842.91478000000006
 30
0.0
  0
VERTEX
  8
0
 10
-658.703280000000063
 20
1843.08242000000018
 30
0.0
  0
VERTEX
  8
0
 10
-658.870920000000069
 20
1852.2315000000001
 30
0.0
  0
VERTEX
  8
0
 10
-727.621100000000069
 20
1852.2315000000001
 30
0.0
  0
VERTEX
  8
0
 10
-756.699020000000019
 20
1851.60666000000015
 30
0.0
  0
VERTEX
  8
0
 10
-770.128000000000043
 20
1847.4664600000001
 30
0.0
  0
VERTEX
  8
0
 10
-773.257280000000037
 20
1846.15328000000022
 30
0.0
  0
VERTEX
  8
0
 10
-774.468860000000063
 20
1844.94170000000008
 30
0.0
  0
VERTEX
  8
0
 10
-774.468860000000063
 20
1792.8437600000002
 30
0.0
  0
VERTEX
  8
0
 10
-769.924800000000005
 20
1790.2174
 30
0.0
  0
VERTEX
  8
0
 10
-764.575559999999996
 20
1787.79424000000017
 30
0.0
  0
VERTEX
  8
0
 10
-752.762020000000007
 20
1784.96722
 30
0.0
  0
VERTEX
  8
0
 10
-706.249540000000024
 20
1778.9347200000002
 30
0.0
  0
VERTEX
  8
0
 10
-690.600599999999986
 20
1777.50470000000018
 30
0.0
  0
VERTEX
  8
0
 10
-666.53410000000008
 20
1775.48540000000003
 30
0.0
  0
VERTEX
  8
0
 10
-648.195300000000088
 20
1775.29744000000005
 30
0.0
  0
VERTEX
  8
0
 10
-621.90122000000008
 20
1776.39980000000014
 30
0.0
  0
VERTEX
  8
0
 10
-600.077539999999999
 20
1779.03124000000003
 30
0.0
  0
VERTEX
  8
0
 10
-577.202300000000037
 20
1783.76326000000017
 30
0.0
  0
VERTEX
  8
0
 10
-576.991480000000024
 20
1813.8444800000002
 30
0.0
  0
VERTEX
  8
0
 10
-590.664300000000026
 20
1813.31870000000004
 30
0.0
  0
VERTEX
  8
0
 10
-603.70465999999999
 20
1812.89706000000001
 30
0.0
  0
VERTEX
  8
0
 10
-642.096760000000018
 20
1811.79216000000019
 30
0.0
  0
VERTEX
  8
0
 10
-652.350740000000087
 20
1811.6854800000001
 30
0.0
  0
VERTEX
  8
0
 10
-661.657300000000078
 20
1811.92424000000005
 30
0.0
  0
VERTEX
  8
0
 10
-672.386259999999993
 20
1812.23920000000021
 30
0.0
  0
VERTEX
  8
0
 10
-679.958000000000084
 20
1812.92246
 30
0.0
  0
SEQEND
  0
POLYLINE
  8
0
  6
LINETYPE_1
 66
     1
 10
0.0
 20
0.0
 30
0.0
  0
VERTEX
  8
0
 10
-1385.62842000000001
 20
1567.67784000000006
 30
0.0
  0
VERTEX
  8
0
 10
-1385.62842000000001
 20
1531.17804000000001
 30
0.0
  0
SEQEND
  0
POLYLINE
  8
0
  6
LINETYPE_1
 66
     1
 10
0.0
 20
0.0
 30
0.0
  0
VERTEX
  8
0
 10
-1276.35762
 20
1531.17804000000001
 30
0.0
  0
VERTEX
  8
0
 10
-1276.35762
 20
1531.57174000000009
 30
0.0
  0
SEQEND
  0
POLYLINE
  8
0
  6
LINETYPE_1
 66
     1
 10
0.0
 20
0.0
 30
0.0
  0
VERTEX
  8
0
 10
-1385.85448000000019
 20
1494.77476000000001
 30
0.0
  0
VERTEX
  8
0
 10
-1359.1108200000001
 20
1495.97110000000021
 30
0.0
  0
VERTEX
  8
0
 10
-1326.97728000000006
 20
1500.7615400000002
 30
0.0
  0
VERTEX
  8
0
 10
-1306.61918000000014
 20
1507.14964000000009
 30
0.0
  0
VERTEX
  8
0
 10
-1289.25574000000006
 20
1516.32920000000013
 30
0.0
  0
VERTEX
  8
0
 10
-1275.68452000000002
 20
1531.2974200000001
 30
0.0
  0
SEQEND
  0
POLYLINE
  8
0
  6
LINETYPE_1
 66
     1
 10
0.0
 20
0.0
 30
0.0
  0
VERTEX
  8
0
 10
-1385.85448000000019
 20
1567.58132000000001
 30
0.0
  0
VERTEX
  8
0
 10
-1359.1108200000001
 20
1566.38498000000004
 30
0.0
  0
VERTEX
  8
0
 10
-1326.97728000000006
 20
1561.59454000000005
 30
0.0
  0
VERTEX
  8
0
 10
-1306.61918000000014
 20
1555.20644000000016
 30
0.0
  0
VERTEX
  8
0
 10
-1289.25574000000006
 20
1546.02688000000012
 30
0.0
  0
VERTEX
  8
0
 10
-1275.68452000000002
 20
1531.05866000000015
 30
0.0
  0
SEQEND
  0
POLYLINE
  8
0
  6
LINETYPE_1
 66
     1
 10
0.0
 20
0.0
 30
0.0
  0
VERTEX
  8
0
 10
-1391.97842000000014
 20
1567.89120000000003
 30
0.0
  0
VERTEX
  8
0
 10
-1391.97842000000014
 20
1494.77222000000006
 30
0.0
  0
SEQEND
  0
POLYLINE
  8
7
  6
LINETYPE_1
 66
     1
 70
     1
 10
0.0
 20
0.0
 30
0.0
  0
VERTEX
  8
7
 10
-1382.3442
 20
1535.10234000000014
 30
0.0
  0
SEQEND
  0
POLYLINE
  8
7
  6
LINETYPE_1
 66
     1
 70
     1
 10
0.0
 20
0.0
 30
0.0
  0
VERTEX
  8
7
 10
-1382.3442
 20
1535.10234000000014
 30
0.0
  0
SEQEND
  0
POLYLINE
  8
0
  6
LINETYPE_1
 66
     1
 10
0.0
 20
0.0
 30
0.0
  0
VERTEX
  8
0
 10
-1461.30772000000002
 20
1495.07447999999999
 30
0.0
  0
VERTEX
  8
0
 10
-1461.30772000000002
 20
1568.58716000000004
 30
0.0
  0
SEQEND
  0
POLYLINE
  8
0
  6
LINETYPE_1
 66
     1
 10
0.0
 20
0.0
 30
0.0
  0
VERTEX
  8
0
 10
-1461.30772000000002
 20
1568.58716000000004
 30
0.0
  0
VERTEX
  8
0
 10
-1385.46586000000002
 20
1568.58716000000004
 30
0.0
  0
SEQEND
  0
POLYLINE
  8
0
  6
LINETYPE_1
 66
     1
 10
0.0
 20
0.0
 30
0.0
  0
VERTEX
  8
0
 10
-1385.46586000000002
 20
1568.58716000000004
 30
0.0
  0
VERTEX
  8
0
 10
-1385.46586000000002
 20
1494.40900000000011
 30
0.0
  0
SEQEND
  0
POLYLINE
  8
0
  6
LINETYPE_1
 66
     1
 10
0.0
 20
0.0
 30
0.0
  0
VERTEX
  8
0
 10
-1385.46586000000002
 20
1494.40900000000011
 30
0.0
  0
VERTEX
  8
0
 10
-1461.64300000000003
 20
1494.40900000000011
 30
0.0
  0
SEQEND
  0
POLYLINE
  8
2
  6
LINETYPE_1
 66
     1
 10
0.0
 20
0.0
 30
0.0
  0
VERTEX
  8
2
 10
-1276.07060000000001
 20
1531.47014000000013
 30
0.0
  0
VERTEX
  8
2
 10
-1496.85756000000015
 20
1531.47014000000013
 30
0.0
  0
SEQEND
  0
POLYLINE
  8
7
  6
LINETYPE_1
 66
     1
 70
     1
 10
0.0
 20
0.0
 30
0.0
  0
VERTEX
  8
7
 10
-696.033660000000054
 20
1819.11498000000006
 30
0.0
  0
SEQEND
  0
POLYLINE
  8
7
  6
LINETYPE_1
 66
     1
 70
     1
 10
0.0
 20
0.0
 30
0.0
  0
VERTEX
  8
7
 10
-696.033660000000054
 20
1819.11498000000006
 30
0.0
  0
SEQEND
  0
POLYLINE
  8
7
  6
LINETYPE_1
 66
     1
 10
0.0
 20
0.0
 30
0.0
  0
VERTEX
  8
7
 10
-696.033660000000054
 20
1819.11498000000006
 30
0.0
  0
VERTEX
  8
7
 10
-696.033660000000054
 20
1814.11626000000001
 30
0.0
  0
SEQEND
  0
POLYLINE
  8
7
  6
LINETYPE_2
 66
     1
 10
0.0
 20
0.0
 30
0.0
  0
VERTEX
  8
7
 10
-774.009120000000053
 20
1791.40866000000005
 30
0.0
  0
VERTEX
  8
7
 10
-774.009120000000053
 20
1729.06182000000013
 30
0.0
  0
SEQEND
  0
POLYLINE
  8
7
  6
LINETYPE_2
 66
     1
 10
0.0
 20
0.0
 30
0.0
  0
VERTEX
  8
7
 10
-577.151500000000056
 20
1791.40866000000005
 30
0.0
  0
VERTEX
  8
7
 10
-577.151500000000056
 20
1729.06182000000013
 30
0.0
  0
SEQEND
  0
POLYLINE
  8
7
  6
LINETYPE_2
 66
     1
 10
0.0
 20
0.0
 30
0.0
  0
VERTEX
  8
7
 10
-620.509300000000053
 20
1732.23682000000008
 30
0.0
  0
VERTEX
  8
7
 10
-774.009120000000053
 20
1732.23682000000008
 30
0.0
  0
SEQEND
  0
POLYLINE
  8
7
  6
LINETYPE_2
 66
     1
 10
0.0
 20
0.0
 30
0.0
  0
VERTEX
  8
7
 10
-774.009120000000053
 20
1732.23682000000008
 30
0.0
  0
VERTEX
  8
7
 10
-770.834120000000098
 20
1731.60182000000009
 30
0.0
  0
SEQEND
  0
POLYLINE
  8
7
  6
LINETYPE_2
 66
     1
 10
0.0
 20
0.0
 30
0.0
  0
VERTEX
  8
7
 10
-770.834120000000098
 20
1731.60182000000009
 30
0.0
  0
VERTEX
  8
7
 10
-770.834120000000098
 20
1732.87182000000007
 30
0.0
  0
SEQEND
  0
POLYLINE
  8
7
  6
LINETYPE_2
 66
     1
 10
0.0
 20
0.0
 30
0.0
  0
VERTEX
  8
7
 10
-770.834120000000098
 20
1732.87182000000007
 30
0.0
  0
VERTEX
  8
7
 10
-774.009120000000053
 20
1732.23682000000008
 30
0.0
  0
SEQEND
  0
POLYLINE
  8
7
  6
LINETYPE_2
 66
     1
 10
0.0
 20
0.0
 30
0.0
  0
VERTEX
  8
7
 10
-585.767180000000053
 20
1732.23682000000008
 30
0.0
  0
VERTEX
  8
7
 10
-577.151500000000056
 20
1732.23682000000008
 30
0.0
  0
SEQEND
  0
POLYLINE
  8
7
  6
LINETYPE_2
 66
     1
 10
0.0
 20
0.0
 30
0.0
  0
VERTEX
  8
7
 10
-577.151500000000056
 20
1732.23682000000008
 30
0.0
  0
VERTEX
  8
7
 10
-580.32650000000001
 20
1732.87182000000007
 30
0.0
  0
SEQEND
  0
POLYLINE
  8
7
  6
LINETYPE_2
 66
     1
 10
0.0
 20
0.0
 30
0.0
  0
VERTEX
  8
7
 10
-580.32650000000001
 20
1732.87182000000007
 30
0.0
  0
VERTEX
  8
7
 10
-580.32650000000001
 20
1731.60182000000009
 30
0.0
  0
SEQEND
  0
POLYLINE
  8
7
  6
LINETYPE_2
 66
     1
 10
0.0
 20
0.0
 30
0.0
  0
VERTEX
  8
7
 10
-580.32650000000001
 20
1731.60182000000009
 30
0.0
  0
VERTEX
  8
7
 10
-577.151500000000056
 20
1732.23682000000008
 30
0.0
  0
SEQEND
  0
TEXT
999
CadStd_TT=2
  8
7
 10
-618.934500000000071
 20
1729.73746000000006
 30
0.0
 40
5.0012600000000003
  1
196,858
 50
0.0000000000000000
  0
POLYLINE
  8
0
  6
LINETYPE_1
 66
     1
 10
0.0
 20
0.0
 30
0.0
  0
VERTEX
  8
0
 10
-777.516860000000065
 20
2018.15192000000002
 30
0.0
  0
VERTEX
  8
0
 10
-777.910560000000032
 20
1963.4809600000001
 30
0.0
  0
VERTEX
  8
0
 10
-774.105639999999994
 20
1960.72506000000021
 30
0.0
  0
VERTEX
  8
0
 10
-764.349500000000035
 20
1957.75834000000009
 30
0.0
  0
VERTEX
  8
0
 10
-750.295680000000061
 20
1956.24196000000006
 30
0.0
  0
VERTEX
  8
0
 10
-728.245940000000019
 20
1955.73650000000021
 30
0.0
  0
VERTEX
  8
0
 10
-703.285360000000082
 20
1957.21986000000015
 30
0.0
  0
VERTEX
  8
0
 10
-645.180320000000052
 20
1960.31358000000023
 30
0.0
  0
VERTEX
  8
0
 10
-613.133140000000026
 20
1964.70270000000005
 30
0.0
  0
VERTEX
  8
0
 10
-585.988159999999994
 20
1970.32626000000005
 30
0.0
  0
VERTEX
  8
0
 10
-579.915020000000027
 20
1972.31000000000017
 30
0.0
  0
VERTEX
  8
0
 10
-580.598280000000045
 20
2007.23754000000008
 30
0.0
  0
VERTEX
  8
0
 10
-596.267540000000054
 20
2011.85780000000022
 30
0.0
  0
VERTEX
  8
0
 10
-617.466380000000072
 20
2015.72876000000019
 30
0.0
  0
VERTEX
  8
0
 10
-639.483100000000036
 20
2017.98682000000008
 30
0.0
  0
VERTEX
  8
0
 10
-677.870120000000043
 20
2021.66220000000021
 30
0.0
  0
VERTEX
  8
0
 10
-710.968860000000063
 20
2023.82882000000018
 30
0.0
  0
VERTEX
  8
0
 10
-727.240100000000098
 20
2025.05564000000004
 30
0.0
  0
VERTEX
  8
0
 10
-740.107740000000035
 20
2025.21566000000007
 30
0.0
  0
VERTEX
  8
0
 10
-752.307360000000017
 20
2024.54002000000014
 30
0.0
  0
VERTEX
  8
0
 10
-761.77902000000006
 20
2023.62816000000021
 30
0.0
  0
VERTEX
  8
0
 10
-768.799579999999992
 20
2022.10162000000014
 30
0.0
  0
VERTEX
  8
0
 10
-775.44676000000004
 20
2019.52352000000019
 30
0.0
  0
VERTEX
  8
0
 10
-777.63370000000009
 20
2018.26876000000016
 30
0.0
  0
SEQEND
  0
POLYLINE
  8
2
  6
LINETYPE_1
 66
     1
 10
0.0
 20
0.0
 30
0.0
  0
VERTEX
  8
2
 10
-815.197760000000017
 20
1989.71408000000019
 30
0.0
  0
VERTEX
  8
2
 10
-511.284220000000005
 20
1989.71408000000019
 30
0.0
  0
SEQEND
  0
POLYLINE
  8
7
  6
LINETYPE_1
 66
     1
 10
0.0
 20
0.0
 30
0.0
  0
VERTEX
  8
7
 10
-777.560040000000072
 20
1990.17636000000016
 30
0.0
  0
VERTEX
  8
7
 10
-708.560940000000073
 20
1990.17636000000016
 30
0.0
  0
SEQEND
  0
ENDSEC
  0
EOF
