  0
SECTION
  2
HEADER
  9
$ACADVER
  1
AC1024
  9
$ACADMAINTVER
 70
     6
  9
$DWGCODEPAGE
  3
ANSI_1252
  9
$LASTSAVEDBY
  1
Pincue
  9
$INSBASE
 10
0.0
 20
0.0
 30
0.0
  9
$EXTMIN
 10
-22.15614453622594
 20
217.2460999999998
 30
0.0
  9
$EXTMAX
 10
827.6474610520054
 20
479.494303971622
 30
0.0
  9
$LIMMIN
 10
-9.184627
 20
4.296982999999999
  9
$LIMMAX
 10
44.815373
 20
28.296983
  9
$ORTHOMODE
 70
     0
  9
$REGENMODE
 70
     1
  9
$FILLMODE
 70
     1
  9
$QTEXTMODE
 70
     0
  9
$MIRRTEXT
 70
     0
  9
$LTSCALE
 40
0.4400000000000001
  9
$ATTMODE
 70
     1
  9
$TEXTSIZE
 40
0.0
  9
$TRACEWID
 40
0.05
  9
$TEXTSTYLE
  7
STANDARD
  9
$CLAYER
  8
LAYER01
  9
$CELTYPE
  6
CONTINUOUS
  9
$CECOLOR
 62
     7
  9
$CELTSCALE
 40
1.0
  9
$DISPSILH
 70
     0
  9
$DIMSCALE
 40
1.0
  9
$DIMASZ
 40
0.18
  9
$DIMEXO
 40
0.0625
  9
$DIMDLI
 40
0.38
  9
$DIMRND
 40
0.0
  9
$DIMDLE
 40
0.0
  9
$DIMEXE
 40
0.18
  9
$DIMTP
 40
0.0
  9
$DIMTM
 40
0.0
  9
$DIMTXT
 40
0.18
  9
$DIMCEN
 40
0.09
  9
$DIMTSZ
 40
0.0
  9
$DIMTOL
 70
     0
  9
$DIMLIM
 70
     0
  9
$DIMTIH
 70
     1
  9
$DIMTOH
 70
     1
  9
$DIMSE1
 70
     0
  9
$DIMSE2
 70
     0
  9
$DIMTAD
 70
     0
  9
$DIMZIN
 70
     0
  9
$DIMBLK
  1

  9
$DIMASO
 70
     1
  9
$DIMSHO
 70
     1
  9
$DIMPOST
  1

  9
$DIMAPOST
  1

  9
$DIMALT
 70
     0
  9
$DIMALTD
 70
     2
  9
$DIMALTF
 40
25.4
  9
$DIMLFAC
 40
1.0
  9
$DIMTOFL
 70
     0
  9
$DIMTVP
 40
0.0
  9
$DIMTIX
 70
     0
  9
$DIMSOXD
 70
     0
  9
$DIMSAH
 70
     0
  9
$DIMBLK1
  1

  9
$DIMBLK2
  1

  9
$DIMSTYLE
  2
Standard
  9
$DIMCLRD
 70
     0
  9
$DIMCLRE
 70
     0
  9
$DIMCLRT
 70
     0
  9
$DIMTFAC
 40
1.0
  9
$DIMGAP
 40
0.09
  9
$DIMJUST
 70
     0
  9
$DIMSD1
 70
     0
  9
$DIMSD2
 70
     0
  9
$DIMTOLJ
 70
     1
  9
$DIMTZIN
 70
     0
  9
$DIMALTZ
 70
     0
  9
$DIMALTTZ
 70
     0
  9
$DIMUPT
 70
     0
  9
$DIMDEC
 70
     4
  9
$DIMTDEC
 70
     4
  9
$DIMALTU
 70
     2
  9
$DIMALTTD
 70
     2
  9
$DIMTXSTY
  7
STANDARD
  9
$DIMAUNIT
 70
     0
  9
$DIMADEC
 70
     0
  9
$DIMALTRND
 40
0.0
  9
$DIMAZIN
 70
     0
  9
$DIMDSEP
 70
    46
  9
$DIMATFIT
 70
     3
  9
$DIMFRAC
 70
     0
  9
$DIMLDRBLK
  1

  9
$DIMLUNIT
 70
     2
  9
$DIMLWD
 70
    -2
  9
$DIMLWE
 70
    -2
  9
$DIMTMOVE
 70
     0
  9
$DIMFXL
 40
1.0
  9
$DIMFXLON
 70
     0
  9
$DIMJOGANG
 40
0.7853981633974483
  9
$DIMTFILL
 70
     0
  9
$DIMTFILLCLR
 70
     0
  9
$DIMARCSYM
 70
     0
  9
$DIMLTYPE
  6

  9
$DIMLTEX1
  6

  9
$DIMLTEX2
  6

  9
$DIMTXTDIRECTION
 70
     0
  9
$LUNITS
 70
     2
  9
$LUPREC
 70
     4
  9
$SKETCHINC
 40
0.1
  9
$FILLETRAD
 40
0.125
  9
$AUNITS
 70
     0
  9
$AUPREC
 70
     0
  9
$MENU
  1
acad
  9
$ELEVATION
 40
0.0
  9
$PELEVATION
 40
0.0
  9
$THICKNESS
 40
0.0
  9
$LIMCHECK
 70
     0
  9
$CHAMFERA
 40
0.5
  9
$CHAMFERB
 40
0.5
  9
$CHAMFERC
 40
0.0
  9
$CHAMFERD
 40
0.0
  9
$SKPOLY
 70
     0
  9
$TDCREATE
 40
10463472.45119064
  9
$TDUCREATE
 40
6.0000000000
  9
$TDUPDATE
 40
2458031.801210938
  9
$TDUUPDATE
 40
2458031.717877604
  9
$TDINDWG
 40
0.0002979398
  9
$TDUSRTIMER
 40
0.0002977546
  9
$USRTIMER
 70
     1
  9
$ANGBASE
 50
0.0
  9
$ANGDIR
 70
     0
  9
$PDMODE
 70
     0
  9
$PDSIZE
 40
0.0
  9
$PLINEWID
 40
0.008
  9
$SPLFRAME
 70
     0
  9
$SPLINETYPE
 70
     6
  9
$SPLINESEGS
 70
    10
  9
$HANDSEED
  5
953
  9
$SURFTAB1
 70
     6
  9
$SURFTAB2
 70
     6
  9
$SURFTYPE
 70
     6
  9
$SURFU
 70
     6
  9
$SURFV
 70
     6
  9
$UCSBASE
  2

  9
$UCSNAME
  2

  9
$UCSORG
 10
0.0
 20
0.0
 30
0.0
  9
$UCSXDIR
 10
1.0
 20
0.0
 30
0.0
  9
$UCSYDIR
 10
0.0
 20
1.0
 30
0.0
  9
$UCSORTHOREF
  2

  9
$UCSORTHOVIEW
 70
     0
  9
$UCSORGTOP
 10
0.0
 20
0.0
 30
0.0
  9
$UCSORGBOTTOM
 10
0.0
 20
0.0
 30
0.0
  9
$UCSORGLEFT
 10
0.0
 20
0.0
 30
0.0
  9
$UCSORGRIGHT
 10
0.0
 20
0.0
 30
0.0
  9
$UCSORGFRONT
 10
0.0
 20
0.0
 30
0.0
  9
$UCSORGBACK
 10
0.0
 20
0.0
 30
0.0
  9
$PUCSBASE
  2

  9
$PUCSNAME
  2

  9
$PUCSORG
 10
0.0
 20
0.0
 30
0.0
  9
$PUCSXDIR
 10
1.0
 20
0.0
 30
0.0
  9
$PUCSYDIR
 10
0.0
 20
1.0
 30
0.0
  9
$PUCSORTHOREF
  2

  9
$PUCSORTHOVIEW
 70
     0
  9
$PUCSORGTOP
 10
0.0
 20
0.0
 30
0.0
  9
$PUCSORGBOTTOM
 10
0.0
 20
0.0
 30
0.0
  9
$PUCSORGLEFT
 10
0.0
 20
0.0
 30
0.0
  9
$PUCSORGRIGHT
 10
0.0
 20
0.0
 30
0.0
  9
$PUCSORGFRONT
 10
0.0
 20
0.0
 30
0.0
  9
$PUCSORGBACK
 10
0.0
 20
0.0
 30
0.0
  9
$USERI1
 70
     0
  9
$USERI2
 70
     0
  9
$USERI3
 70
     0
  9
$USERI4
 70
     0
  9
$USERI5
 70
     0
  9
$USERR1
 40
0.0
  9
$USERR2
 40
0.0
  9
$USERR3
 40
0.0
  9
$USERR4
 40
0.0
  9
$USERR5
 40
0.0
  9
$WORLDVIEW
 70
     1
  9
$SHADEDGE
 70
     3
  9
$SHADEDIF
 70
    70
  9
$TILEMODE
 70
     1
  9
$MAXACTVP
 70
    64
  9
$PINSBASE
 10
0.0
 20
0.0
 30
0.0
  9
$PLIMCHECK
 70
     0
  9
$PEXTMIN
 10
1.000000000000000E+20
 20
1.000000000000000E+20
 30
1.000000000000000E+20
  9
$PEXTMAX
 10
-1.000000000000000E+20
 20
-1.000000000000000E+20
 30
-1.000000000000000E+20
  9
$PLIMMIN
 10
0.0
 20
0.0
  9
$PLIMMAX
 10
12.0
 20
9.0
  9
$UNITMODE
 70
     0
  9
$VISRETAIN
 70
     1
  9
$PLINEGEN
 70
     0
  9
$PSLTSCALE
 70
     1
  9
$TREEDEPTH
 70
  3020
  9
$CMLSTYLE
  2
Standard
  9
$CMLJUST
 70
     0
  9
$CMLSCALE
 40
1.0
  9
$PROXYGRAPHICS
 70
     1
  9
$MEASUREMENT
 70
     0
  9
$CELWEIGHT
370
    -1
  9
$ENDCAPS
280
     0
  9
$JOINSTYLE
280
     0
  9
$LWDISPLAY
290
     0
  9
$INSUNITS
 70
     0
  9
$HYPERLINKBASE
  1

  9
$STYLESHEET
  1

  9
$XEDIT
290
     1
  9
$CEPSNTYPE
380
     0
  9
$PSTYLEMODE
290
     1
  9
$FINGERPRINTGUID
  2
{FA74FED3-CB4F-4D5A-91FB-D9D62A0D81B4}
  9
$VERSIONGUID
  2
{E25963F8-5C16-4A14-A91D-C64B1DEFCF08}
  9
$EXTNAMES
290
     1
  9
$PSVPSCALE
 40
0.0
  9
$OLESTARTUP
290
     0
  9
$SORTENTS
280
   127
  9
$INDEXCTL
280
     0
  9
$HIDETEXT
280
     0
  9
$XCLIPFRAME
280
     2
  9
$HALOGAP
280
     0
  9
$OBSCOLOR
 70
   257
  9
$OBSLTYPE
280
     0
  9
$INTERSECTIONDISPLAY
280
     0
  9
$INTERSECTIONCOLOR
 70
   257
  9
$DIMASSOC
280
     1
  9
$PROJECTNAME
  1

  9
$CAMERADISPLAY
290
     0
  9
$LENSLENGTH
 40
50.0
  9
$CAMERAHEIGHT
 40
0.0
  9
$STEPSPERSEC
 40
2.0
  9
$STEPSIZE
 40
6.0
  9
$3DDWFPREC
 40
2.0
  9
$PSOLWIDTH
 40
0.25
  9
$PSOLHEIGHT
 40
4.0
  9
$LOFTANG1
 40
1.570796326794896
  9
$LOFTANG2
 40
1.570796326794896
  9
$LOFTMAG1
 40
0.0
  9
$LOFTMAG2
 40
0.0
  9
$LOFTPARAM
 70
     7
  9
$LOFTNORMALS
280
     1
  9
$LATITUDE
 40
37.795
  9
$LONGITUDE
 40
-122.394
  9
$NORTHDIRECTION
 40
0.0
  9
$TIMEZONE
 70
 -8000
  9
$LIGHTGLYPHDISPLAY
280
     1
  9
$TILEMODELIGHTSYNCH
280
     1
  9
$CMATERIAL
347
11
  9
$SOLIDHIST
280
     1
  9
$SHOWHIST
280
     1
  9
$DWFFRAME
280
     2
  9
$DGNFRAME
280
     0
  9
$REALWORLDSCALE
290
     1
  9
$INTERFERECOLOR
 62
     1
  9
$INTERFEREOBJVS
345
33
  9
$INTERFEREVPVS
346
30
  9
$CSHADOW
280
     0
  9
$SHADOWPLANELOCATION
 40
0.0
  0
ENDSEC
  0
SECTION
  2
CLASSES
  0
CLASS
  1
ACDBDICTIONARYWDFLT
  2
AcDbDictionaryWithDefault
  3
ObjectDBX Classes
 90
        0
 91
        1
280
     0
281
     0
  0
CLASS
  1
MATERIAL
  2
AcDbMaterial
  3
ObjectDBX Classes
 90
     1153
 91
        3
280
     0
281
     0
  0
CLASS
  1
VISUALSTYLE
  2
AcDbVisualStyle
  3
ObjectDBX Classes
 90
     4095
 91
       19
280
     0
281
     0
  0
CLASS
  1
SCALE
  2
AcDbScale
  3
ObjectDBX Classes
 90
     1153
 91
       33
280
     0
281
     0
  0
CLASS
  1
TABLESTYLE
  2
AcDbTableStyle
  3
ObjectDBX Classes
 90
     4095
 91
        1
280
     0
281
     0
  0
CLASS
  1
MLEADERSTYLE
  2
AcDbMLeaderStyle
  3
ACDB_MLEADERSTYLE_CLASS
 90
     4095
 91
        1
280
     0
281
     0
  0
CLASS
  1
SORTENTSTABLE
  2
AcDbSortentsTable
  3
ObjectDBX Classes
 90
        0
 91
        1
280
     0
281
     0
  0
CLASS
  1
DICTIONARYVAR
  2
AcDbDictionaryVar
  3
ObjectDBX Classes
 90
        0
 91
        7
280
     0
281
     0
  0
CLASS
  1
CELLSTYLEMAP
  2
AcDbCellStyleMap
  3
ObjectDBX Classes
 90
     1152
 91
        1
280
     0
281
     0
  0
ENDSEC
  0
SECTION
  2
TABLES
  0
TABLE
  2
VPORT
  5
8
330
0
100
AcDbSymbolTable
 70
     1
  0
VPORT
  5
8F
330
8
100
AcDbSymbolTableRecord
100
AcDbViewportTableRecord
  2
*Active
 70
     0
 10
0.0
 20
0.0
 11
1.0
 21
1.0
 12
613.8821769580149
 22
456.4740756121218
 13
0.0
 23
0.0
 14
1.0
 24
1.0
 15
0.0
 25
0.0
 16
0.0
 26
0.0
 36
1.0
 17
0.0
 27
0.0
 37
0.0
 40
1239.45906873742
 41
2.167197452229299
 42
50.0
 43
0.0
 44
0.0
 50
0.0
 51
0.0
 71
     0
 72
   100
 73
     1
 74
     1
 75
     0
 76
     0
 77
     0
 78
     0
281
     0
 65
     1
110
0.0
120
0.0
130
0.0
111
1.0
121
0.0
131
0.0
112
0.0
122
1.0
132
0.0
 79
     0
146
0.0
348
2F
 60
     3
 61
     5
292
     1
282
     1
141
0.0
142
0.0
 63
   250
421
  3355443
  0
ENDTAB
  0
TABLE
  2
LTYPE
  5
5
330
0
100
AcDbSymbolTable
 70
    11
  0
LTYPE
  5
65
330
5
100
AcDbSymbolTableRecord
100
AcDbLinetypeTableRecord
  2
ByBlock
 70
     0
  3

 72
    65
 73
     0
 40
0.0
  0
LTYPE
  5
66
330
5
100
AcDbSymbolTableRecord
100
AcDbLinetypeTableRecord
  2
ByLayer
 70
     0
  3

 72
    65
 73
     0
 40
0.0
  0
LTYPE
  5
67
330
5
100
AcDbSymbolTableRecord
100
AcDbLinetypeTableRecord
  2
CONTINUOUS
 70
     0
  3
Solid line
 72
    65
 73
     0
 40
0.0
  0
LTYPE
  5
7B
330
5
100
AcDbSymbolTableRecord
100
AcDbLinetypeTableRecord
  2
DASHED
 70
     0
  3
__ __ __ __ __ __ __ __ __ __ __ __ __ __ __
 72
    65
 73
     2
 40
0.75
 49
0.5
 74
     0
 49
-0.25
 74
     0
  0
LTYPE
  5
7C
330
5
100
AcDbSymbolTableRecord
100
AcDbLinetypeTableRecord
  2
HIDDEN
 70
     0
  3
_ _ _ _ _ _ _ _ _ _ _ _ _ _ _ _ _ _ _ _ _ _ 
 72
    65
 73
     2
 40
0.25
 49
0.125
 74
     0
 49
-0.125
 74
     0
  0
LTYPE
  5
7D
330
5
100
AcDbSymbolTableRecord
100
AcDbLinetypeTableRecord
  2
CENTER
 70
     0
  3
____ _ ____ _ ____ _ ____ _ ____ _ ____ _ __
 72
    65
 73
     4
 40
2.0
 49
1.25
 74
     0
 49
-0.25
 74
     0
 49
0.25
 74
     0
 49
-0.25
 74
     0
  0
LTYPE
  5
7E
330
5
100
AcDbSymbolTableRecord
100
AcDbLinetypeTableRecord
  2
PHANTOM
 70
     0
  3
_____ _ _ _____ _ _ _____ _ _ _____ _ _ ____
 72
    65
 73
     6
 40
2.5
 49
1.25
 74
     0
 49
-0.25
 74
     0
 49
0.25
 74
     0
 49
-0.25
 74
     0
 49
0.25
 74
     0
 49
-0.25
 74
     0
  0
LTYPE
  5
7F
330
5
100
AcDbSymbolTableRecord
100
AcDbLinetypeTableRecord
  2
DOT
 70
     0
  3
............................................
 72
    65
 73
     2
 40
0.25
 49
0.0
 74
     0
 49
-0.25
 74
     0
  0
LTYPE
  5
80
330
5
100
AcDbSymbolTableRecord
100
AcDbLinetypeTableRecord
  2
DASHDOT
 70
     0
  3
__ . __ . __ . __ . __ . __ . __ . __ . __ .
 72
    65
 73
     4
 40
1.0
 49
0.5
 74
     0
 49
-0.25
 74
     0
 49
0.0
 74
     0
 49
-0.25
 74
     0
  0
LTYPE
  5
81
330
5
100
AcDbSymbolTableRecord
100
AcDbLinetypeTableRecord
  2
BORDER
 70
     0
  3
__ __ . __ __ . __ __ . __ __ . __ __ . __ _
 72
    65
 73
     6
 40
1.75
 49
0.5
 74
     0
 49
-0.25
 74
     0
 49
0.5
 74
     0
 49
-0.25
 74
     0
 49
0.0
 74
     0
 49
-0.25
 74
     0
  0
LTYPE
  5
82
330
5
100
AcDbSymbolTableRecord
100
AcDbLinetypeTableRecord
  2
DIVIDE
 70
     0
  3
__ . . __ . . __ . . __ . . __ . . __ . . __
 72
    65
 73
     6
 40
1.25
 49
0.5
 74
     0
 49
-0.25
 74
     0
 49
0.0
 74
     0
 49
-0.25
 74
     0
 49
0.0
 74
     0
 49
-0.25
 74
     0
  0
LTYPE
  5
83
330
5
100
AcDbSymbolTableRecord
100
AcDbLinetypeTableRecord
  2
DOTS
 70
     0
  3
close                                       
 72
    65
 73
     2
 40
0.1
 49
0.05
 74
     0
 49
-0.05
 74
     0
  0
LTYPE
  5
84
330
5
100
AcDbSymbolTableRecord
100
AcDbLinetypeTableRecord
  2
CLOSE
 70
     0
  3
                                            
 72
    65
 73
     0
 40
0.0
  0
ENDTAB
  0
TABLE
  2
LAYER
  5
2
330
0
100
AcDbSymbolTable
 70
    12
  0
LAYER
  5
5F
102
{ACAD_XDICTIONARY
360
930
102
}
330
2
100
AcDbSymbolTableRecord
100
AcDbLayerTableRecord
  2
0
 70
     0
 62
     7
  6
CONTINUOUS
370
    -3
390
F
347
21
  0
LAYER
  5
7A
102
{ACAD_XDICTIONARY
360
932
102
}
330
2
100
AcDbSymbolTableRecord
100
AcDbLayerTableRecord
  2
LAYER01
 70
     0
 62
     7
  6
CONTINUOUS
370
    -3
390
F
347
21
  0
LAYER
  5
85
102
{ACAD_XDICTIONARY
360
934
102
}
330
2
100
AcDbSymbolTableRecord
100
AcDbLayerTableRecord
  2
LAYER02
 70
     0
 62
     7
  6
CONTINUOUS
370
    -3
390
F
347
21
  0
LAYER
  5
86
102
{ACAD_XDICTIONARY
360
936
102
}
330
2
100
AcDbSymbolTableRecord
100
AcDbLayerTableRecord
  2
LAYER03
 70
     0
 62
     7
  6
CONTINUOUS
370
    -3
390
F
347
21
  0
LAYER
  5
87
102
{ACAD_XDICTIONARY
360
938
102
}
330
2
100
AcDbSymbolTableRecord
100
AcDbLayerTableRecord
  2
LAYER04
 70
     0
 62
     7
  6
CONTINUOUS
370
    -3
390
F
347
21
  0
LAYER
  5
88
102
{ACAD_XDICTIONARY
360
93A
102
}
330
2
100
AcDbSymbolTableRecord
100
AcDbLayerTableRecord
  2
LAYER05
 70
     0
 62
     7
  6
CONTINUOUS
370
    -3
390
F
347
21
  0
LAYER
  5
89
102
{ACAD_XDICTIONARY
360
93C
102
}
330
2
100
AcDbSymbolTableRecord
100
AcDbLayerTableRecord
  2
LAYER06
 70
     0
 62
     7
  6
CONTINUOUS
370
    -3
390
F
347
21
  0
LAYER
  5
8A
102
{ACAD_XDICTIONARY
360
93E
102
}
330
2
100
AcDbSymbolTableRecord
100
AcDbLayerTableRecord
  2
LAYER07
 70
     0
 62
     7
  6
CONTINUOUS
370
    -3
390
F
347
21
  0
LAYER
  5
8B
102
{ACAD_XDICTIONARY
360
940
102
}
330
2
100
AcDbSymbolTableRecord
100
AcDbLayerTableRecord
  2
LAYER08
 70
     0
 62
     7
  6
CONTINUOUS
370
    -3
390
F
347
21
  0
LAYER
  5
8C
102
{ACAD_XDICTIONARY
360
942
102
}
330
2
100
AcDbSymbolTableRecord
100
AcDbLayerTableRecord
  2
LAYER09
 70
     0
 62
     7
  6
CONTINUOUS
370
    -3
390
F
347
21
  0
LAYER
  5
8D
102
{ACAD_XDICTIONARY
360
944
102
}
330
2
100
AcDbSymbolTableRecord
100
AcDbLayerTableRecord
  2
LAYER10
 70
     0
 62
     7
  6
CONTINUOUS
370
    -3
390
F
347
21
  0
LAYER
  5
90
102
{ACAD_XDICTIONARY
360
946
102
}
330
2
100
AcDbSymbolTableRecord
100
AcDbLayerTableRecord
  2
7
 70
     0
 62
     7
  6
CONTINUOUS
370
    -3
390
F
347
21
  0
ENDTAB
  0
TABLE
  2
STYLE
  5
3
330
0
100
AcDbSymbolTable
 70
     2
  0
STYLE
  5
60
330
3
100
AcDbSymbolTableRecord
100
AcDbTextStyleTableRecord
  2
STANDARD
 70
     0
 40
0.0
 41
1.0
 50
0.0
 71
     0
 42
0.0
  3
txt
  4

  0
STYLE
  5
64
330
3
100
AcDbSymbolTableRecord
100
AcDbTextStyleTableRecord
  2
Annotative
 70
     0
 40
0.0
 41
1.0
 50
0.0
 71
     0
 42
0.2
  3
txt
  4

1001
AcadAnnotative
1000
AnnotativeData
1002
{
1070
     1
1070
     1
1002
}
  0
ENDTAB
  0
TABLE
  2
VIEW
  5
6
330
0
100
AcDbSymbolTable
 70
     0
  0
ENDTAB
  0
TABLE
  2
UCS
  5
7
330
0
100
AcDbSymbolTable
 70
     0
  0
ENDTAB
  0
TABLE
  2
APPID
  5
9
330
0
100
AcDbSymbolTable
 70
     2
  0
APPID
  5
61
330
9
100
AcDbSymbolTableRecord
100
AcDbRegAppTableRecord
  2
ACAD
 70
     0
  0
APPID
  5
68
330
9
100
AcDbSymbolTableRecord
100
AcDbRegAppTableRecord
  2
AcadAnnotative
 70
     0
  0
ENDTAB
  0
TABLE
  2
DIMSTYLE
  5
A
330
0
100
AcDbSymbolTable
 70
     2
100
AcDbDimStyleTable
 71
     0
  0
DIMSTYLE
105
62
330
A
100
AcDbSymbolTableRecord
100
AcDbDimStyleTableRecord
  2
Standard
 70
     0
340
60
  0
DIMSTYLE
105
63
330
A
100
AcDbSymbolTableRecord
100
AcDbDimStyleTableRecord
  2
Annotative
 70
     0
340
60
1001
AcadAnnotative
1000
AnnotativeData
1002
{
1070
     1
1070
     1
1002
}
  0
ENDTAB
  0
TABLE
  2
BLOCK_RECORD
  5
1
330
0
100
AcDbSymbolTable
 70
     1
  0
BLOCK_RECORD
  5
76
330
1
100
AcDbSymbolTableRecord
100
AcDbBlockTableRecord
  2
*Model_Space
340
79
 70
     0
280
     1
281
     0
  0
BLOCK_RECORD
  5
72
330
1
100
AcDbSymbolTableRecord
100
AcDbBlockTableRecord
  2
*Paper_Space
340
75
 70
     0
280
     1
281
     0
  0
ENDTAB
  0
ENDSEC
  0
SECTION
  2
BLOCKS
  0
BLOCK
  5
77
330
76
100
AcDbEntity
  8
0
100
AcDbBlockBegin
  2
*Model_Space
 70
     0
 10
0.0
 20
0.0
 30
0.0
  3
*Model_Space
  1

  0
ENDBLK
  5
78
330
76
100
AcDbEntity
  8
0
100
AcDbBlockEnd
  0
BLOCK
  5
73
330
72
100
AcDbEntity
 67
     1
  8
0
100
AcDbBlockBegin
  2
*Paper_Space
 70
     0
 10
0.0
 20
0.0
 30
0.0
  3
*Paper_Space
  1

  0
ENDBLK
  5
74
330
72
100
AcDbEntity
 67
     1
  8
0
100
AcDbBlockEnd
  0
ENDSEC
  0
SECTION
  2
ENTITIES
  0
LWPOLYLINE
  5
91
330
76
100
AcDbEntity
  8
7
  6
Continuous
100
AcDbPolyline
 90
       29
 70
     0
 43
0.0
 10
86.71325999999998
 20
381.27807
 10
87.30067
 20
379.65173
 10
87.5
 20
377.9341
 10
87.49263
 20
377.60171
 10
87.21736999999999
 20
375.8946
 10
86.55846999999999
 20
374.2959
 10
85.55094
 20
372.89059
 10
84.24835999999999
 20
371.75337
 10
82.71995
 20
370.94469
 10
81.04696
 20
370.50753
 10
79.31830999999999
 20
370.4651399999999
 10
77.62591
 20
370.81977
 10
76.05970000000001
 20
371.55256
 10
74.70293999999999
 20
372.62457
 10
73.62774
 20
373.97881
 10
72.89126999999999
 20
375.54329
 10
72.53267
 20
377.23486
 10
72.57099000000001
 20
378.9636
 10
73.00421
 20
380.63761
 10
73.80929999999999
 20
382.1679200000001
 10
74.94345
 20
383.47317
 10
76.34638999999999
 20
384.484
 10
77.94354
 20
385.14666
 10
79.65
 20
385.42593
 10
81.37506
 20
385.30697
 10
83.02704
 20
384.7961
 10
84.5181
 20
383.92048
 10
85.76900999999999
 20
382.72665
 10
86.71325999999998
 20
381.27807
  0
LWPOLYLINE
  5
B0
330
76
100
AcDbEntity
  8
7
  6
Continuous
100
AcDbPolyline
 90
        5
 70
     0
 43
0.0
 10
64.0
 20
372.4341
 10
64.0
 20
382.4341
 10
67.0
 20
382.4341
 10
67.0
 20
372.4341
 10
64.0
 20
372.4341
  0
LWPOLYLINE
  5
B7
330
76
100
AcDbEntity
  8
7
  6
Continuous
100
AcDbPolyline
 90
       39
 70
     0
 43
0.0
 10
13.0
 20
371.9341
 10
13.0
 20
377.11713
 42
0.00035
 10
18.66726
 20
380.65305
 10
21.22246
 20
381.9676
 10
28.02385
 20
384.52792
 10
34.95578
 20
386.71022
 10
40.70917999999999
 20
388.20977
 10
46.24303
 20
389.20202
 10
51.83341
 20
389.79841
 10
56.62393
 20
389.99194
 10
67.0
 20
389.98935
 10
67.0
 20
384.9341
 10
72.0
 20
384.9341
 10
72.0
 20
389.90304
 10
84.09943
 20
389.46505
 10
95.0134
 20
388.8381100000001
 10
105.89713
 20
387.81236
 10
116.73605
 20
386.38915
 10
118.28738
 20
386.15235
 10
132.09261
 20
383.90762
 10
145.828
 20
381.26905
 10
159.48233
 20
378.2388
 10
169.6691
 20
375.70902
 10
179.0
 20
373.29193
 10
179.0
 20
369.03475
 10
84.55481999999999
 20
365.63329
 10
72.0
 20
365.18621
 10
72.0
 20
370.0041
 10
67.0
 20
370.0041
 10
67.0
 20
365.00349
 42
0.00038
 10
53.62903000000001
 20
364.50127
 10
33.71825
 20
363.79874
 10
26.83127
 20
363.47136
 10
24.02172
 20
363.4526
 42
-0.00221
 10
13.0
 20
364.02751
 10
13.0
 20
369.0341
 10
10.0
 20
369.0341
 10
10.0
 20
371.9341
 10
13.0
 20
371.9341
  0
LWPOLYLINE
  5
E0
330
76
100
AcDbEntity
  8
7
  6
Continuous
100
AcDbPolyline
 90
       28
 70
     0
 43
0.0
 10
272.20352
 20
381.97325
 10
272.29956
 20
383.10014
 10
272.77902
 20
384.12446
 10
273.58284
 20
384.9200600000001
 10
274.61204
 20
385.38895
 10
275.73986
 20
385.4734
 10
275.84294
 20
385.46121
 10
288.98817
 20
383.99464
 10
301.0
 20
382.30076
 10
314.5082799999999
 20
380.01543
 10
327.25172
 20
377.48477
 10
328.29864
 20
377.05545
 10
329.1329
 20
376.29101
 10
329.65185
 20
375.2855
 10
329.79164
 20
374.16264
 10
329.53509
 20
373.06058
 10
328.91374
 20
372.1149200000001
 10
328.00405
 20
371.442
 10
327.55962
 20
371.2613
 10
325.92888
 20
371.07855
 10
325.79593
 20
371.08121
 10
275.55586
 20
369.27258
 10
274.43782
 20
369.41936
 10
273.43988
 20
369.94441
 10
272.68567
 20
370.78269
 10
272.2868
 20
371.74712
 10
272.20352
 20
373.52033
 10
272.20352
 20
381.97325
  0
LWPOLYLINE
  5
FE
330
76
100
AcDbEntity
  8
7
  6
Continuous
100
AcDbPolyline
 90
       29
 70
     0
 43
0.0
 10
264.7690100000001
 20
382.72665
 10
263.5181
 20
383.92048
 10
262.02704
 20
384.7961
 10
260.37506
 20
385.30697
 10
258.65
 20
385.42593
 10
256.94354
 20
385.14666
 10
255.34639
 20
384.484
 10
253.94345
 20
383.47317
 10
252.8093
 20
382.1679200000001
 10
252.00421
 20
380.63761
 10
251.57099
 20
378.9636
 10
251.53267
 20
377.23486
 10
251.89127
 20
375.54329
 10
252.62774
 20
373.97881
 10
253.70294
 20
372.62457
 10
255.0597
 20
371.55256
 10
256.62591
 20
370.81977
 10
258.31831
 20
370.4651399999999
 10
260.04696
 20
370.50753
 10
261.71995
 20
370.94469
 10
263.24836
 20
371.75337
 10
264.55094
 20
372.89059
 10
265.55847
 20
374.2959
 10
266.21737
 20
375.8946
 10
266.49263
 20
377.60171
 10
266.5
 20
377.9341
 10
266.30067
 20
379.65173
 10
265.71326
 20
381.27807
 10
264.7690100000001
 20
382.72665
  0
LWPOLYLINE
  5
11D
330
76
100
AcDbEntity
  8
7
  6
Continuous
100
AcDbPolyline
 90
       37
 70
     0
 43
0.0
 10
238.81682
 20
386.1724200000001
 10
240.04929
 20
386.09977
 10
241.19484
 20
385.63935
 10
242.13478
 20
384.83887
 10
242.56819
 20
384.21086
 10
242.98846
 20
382.92328
 10
243.04481
 20
382.4341
 10
246.0
 20
382.4341
 10
246.0
 20
372.4341
 10
243.04602
 20
372.4341
 10
242.87921
 20
371.21507
 10
242.33255
 20
370.11279
 10
241.46308
 20
369.24224
 10
240.36148
 20
368.69421
 10
239.61897
 20
368.54382
 42
-0.00248
 10
215.7329
 20
367.71061
 10
208.82291
 20
367.3027
 10
203.04943
 20
367.2682
 10
201.82331
 20
367.38082
 10
200.69692
 20
367.87811
 10
199.78758
 20
368.70826
 10
199.19001
 20
369.7848
 10
199.10383
 20
370.05635
 10
198.96891
 20
371.85046
 10
198.97136
 20
371.91184
 10
198.97136
 20
374.52599
 10
199.10977
 20
375.74483
 10
199.63052
 20
376.85549
 10
200.47898
 20
377.74141
 10
201.15168
 20
378.14513
 10
206.66663
 20
380.45659
 10
212.32373
 20
382.39427
 10
218.09769
 20
383.94952
 10
221.0
 20
384.57743
 10
226.93817
 20
385.56007
 10
230.97713
 20
385.99937
 10
238.81682
 20
386.1724200000001
  0
LWPOLYLINE
  5
144
330
76
100
AcDbEntity
  8
7
  6
Continuous
100
AcDbPolyline
 90
       39
 70
     0
 43
0.0
 10
192.0
 20
377.11713
 42
0.00035
 10
197.66726
 20
380.65305
 10
200.22246
 20
381.9676
 10
207.02385
 20
384.52792
 10
213.95578
 20
386.71022
 10
219.70918
 20
388.20977
 10
225.24303
 20
389.20202
 10
230.83341
 20
389.79841
 10
235.62393
 20
389.99194
 10
246.0
 20
389.98935
 10
246.0
 20
384.9341
 10
251.0
 20
384.9341
 10
251.0
 20
389.90304
 10
263.09943
 20
389.46505
 10
274.0134
 20
388.8381100000001
 10
284.89713
 20
387.81236
 10
295.73605
 20
386.38915
 10
297.28738
 20
386.15235
 10
311.09261
 20
383.90762
 10
324.828
 20
381.26905
 10
338.48233
 20
378.2388
 10
348.6691
 20
375.70902
 10
358.0
 20
373.29193
 10
358.0
 20
369.03475
 10
263.55482
 20
365.63329
 10
251.0
 20
365.18621
 10
251.0
 20
370.0041
 10
246.0
 20
370.0041
 10
246.0
 20
365.00349
 42
0.00038
 10
232.62903
 20
364.50127
 10
212.71825
 20
363.79874
 10
205.83127
 20
363.47136
 10
203.02172
 20
363.4526
 42
-0.00221
 10
192.0
 20
364.02751
 10
192.0
 20
369.0341
 10
189.0
 20
369.0341
 10
189.0
 20
371.9341
 10
192.0
 20
371.9341
 10
192.0
 20
377.11713
  0
LWPOLYLINE
  5
16D
330
76
100
AcDbEntity
  8
7
  6
Continuous
100
AcDbPolyline
 90
       28
 70
     0
 43
0.0
 10
451.20352
 20
381.97325
 10
451.2995599999999
 20
383.10014
 10
451.77902
 20
384.12446
 10
452.58284
 20
384.9200600000001
 10
453.61204
 20
385.38895
 10
454.73986
 20
385.4734
 10
454.84294
 20
385.46121
 10
467.98817
 20
383.99464
 10
480.0
 20
382.30076
 10
493.5082799999999
 20
380.01543
 10
506.25172
 20
377.48477
 10
507.29864
 20
377.05545
 10
508.1329
 20
376.29101
 10
508.65185
 20
375.2855
 10
508.79164
 20
374.16264
 10
508.53509
 20
373.06058
 10
507.91374
 20
372.1149200000001
 10
507.00405
 20
371.442
 10
506.5596199999999
 20
371.2613
 10
504.92888
 20
371.07855
 10
504.79593
 20
371.08121
 10
454.5558599999999
 20
369.27258
 10
453.43782
 20
369.41936
 10
452.4398799999999
 20
369.94441
 10
451.6856699999999
 20
370.78269
 10
451.2868
 20
371.74712
 10
451.20352
 20
373.52033
 10
451.20352
 20
381.97325
  0
LWPOLYLINE
  5
18B
330
76
100
AcDbEntity
  8
7
  6
Continuous
100
AcDbPolyline
 90
       29
 70
     0
 43
0.0
 10
443.76901
 20
382.72665
 10
442.5181
 20
383.92048
 10
441.02704
 20
384.7961
 10
439.3750599999999
 20
385.30697
 10
437.65
 20
385.42593
 10
435.94354
 20
385.14666
 10
434.34639
 20
384.484
 10
432.9434499999999
 20
383.47317
 10
431.8093
 20
382.1679200000001
 10
431.0042099999999
 20
380.63761
 10
430.57099
 20
378.9636
 10
430.53267
 20
377.23486
 10
430.89127
 20
375.54329
 10
431.62774
 20
373.97881
 10
432.7029399999999
 20
372.62457
 10
434.0597
 20
371.55256
 10
435.6259099999999
 20
370.81977
 10
437.3183099999999
 20
370.4651399999999
 10
439.0469599999999
 20
370.50753
 10
440.7199499999999
 20
370.94469
 10
442.2483599999999
 20
371.75337
 10
443.5509399999999
 20
372.89059
 10
444.55847
 20
374.2959
 10
445.21737
 20
375.8946
 10
445.4926299999999
 20
377.60171
 10
445.5
 20
377.9341
 10
445.30067
 20
379.65173
 10
444.7132599999999
 20
381.27807
 10
443.76901
 20
382.72665
 42
0.00038
  0
LWPOLYLINE
  5
1AA
330
76
100
AcDbEntity
  8
7
  6
Continuous
100
AcDbPolyline
 90
       37
 70
     0
 43
0.0
 10
417.8168199999999
 20
386.1724200000001
 10
419.0492899999999
 20
386.09977
 10
420.19484
 20
385.63935
 10
421.1347799999999
 20
384.83887
 10
421.5681899999999
 20
384.21086
 10
421.9884599999999
 20
382.92328
 10
422.0448099999999
 20
382.4341
 10
425.0
 20
382.4341
 10
425.0
 20
372.4341
 10
422.0460199999999
 20
372.4341
 10
421.8792099999999
 20
371.21507
 10
421.33255
 20
370.11279
 10
420.46308
 20
369.24224
 10
419.3614799999999
 20
368.69421
 10
418.6189699999999
 20
368.54382
 42
-0.00248
 10
394.7329
 20
367.71061
 10
387.82291
 20
367.3027
 10
382.04943
 20
367.2682
 10
380.82331
 20
367.38082
 10
379.69692
 20
367.87811
 10
378.78758
 20
368.70826
 10
378.19001
 20
369.7848
 10
378.10383
 20
370.05635
 10
377.96891
 20
371.85046
 10
377.97136
 20
371.91184
 10
377.97136
 20
374.52599
 10
378.10977
 20
375.74483
 10
378.6305200000001
 20
376.85549
 10
379.47898
 20
377.74141
 10
380.15168
 20
378.14513
 10
385.66663
 20
380.45659
 10
391.32373
 20
382.39427
 10
397.09769
 20
383.94952
 10
400.0
 20
384.57743
 10
405.93817
 20
385.56007
 10
409.9771299999999
 20
385.99937
 10
417.8168199999999
 20
386.1724200000001
  0
LWPOLYLINE
  5
1D1
330
76
100
AcDbEntity
  8
7
  6
Continuous
100
AcDbPolyline
 90
       39
 70
     0
 43
0.0
 10
371.0
 20
377.11713
 42
0.00035
 10
376.66726
 20
380.65305
 10
379.22246
 20
381.9676
 10
386.02385
 20
384.52792
 10
392.95578
 20
386.71022
 10
398.70918
 20
388.20977
 10
404.2430299999999
 20
389.20202
 10
409.83341
 20
389.79841
 10
414.6239299999999
 20
389.99194
 10
425.0
 20
389.98935
 10
425.0
 20
384.9341
 10
430.0
 20
384.9341
 10
430.0
 20
389.90304
 10
442.09943
 20
389.46505
 10
453.0134
 20
388.8381100000001
 10
463.89713
 20
387.81236
 10
474.73605
 20
386.38915
 10
476.28738
 20
386.15235
 10
490.0926099999999
 20
383.90762
 10
503.8279999999999
 20
381.26905
 10
517.4823299999999
 20
378.2388
 10
527.6690999999999
 20
375.70902
 10
537.0
 20
373.29193
 10
537.0
 20
369.03475
 10
442.55482
 20
365.63329
 10
430.0
 20
365.18621
 10
430.0
 20
370.0041
 10
425.0
 20
370.0041
 10
425.0
 20
365.00349
 42
0.00038
 10
411.62903
 20
364.50127
 10
391.71825
 20
363.79874
 10
384.83127
 20
363.47136
 10
382.02172
 20
363.4526
 42
-0.00221
 10
371.0
 20
364.02751
 10
371.0
 20
369.0341
 10
368.0
 20
369.0341
 10
368.0
 20
371.9341
 10
371.0
 20
371.9341
 10
371.0
 20
377.11713
  0
LWPOLYLINE
  5
1FA
330
76
100
AcDbEntity
  8
7
  6
Continuous
100
AcDbPolyline
 90
       28
 70
     0
 43
0.0
 10
93.20351999999999
 20
345.42165
 10
93.29956000000001
 20
346.54854
 10
93.77901999999998
 20
347.57286
 10
94.58284
 20
348.36846
 10
95.61204000000001
 20
348.83735
 10
96.73985999999999
 20
348.9218
 10
96.84294000000001
 20
348.90961
 10
109.98817
 20
347.44304
 10
122.0
 20
345.74916
 10
135.50828
 20
343.46383
 10
148.25172
 20
340.93317
 10
149.2986399999999
 20
340.50385
 10
150.1329
 20
339.73941
 10
150.65185
 20
338.7339
 10
150.79164
 20
337.61104
 10
150.53509
 20
336.50898
 10
149.91374
 20
335.56332
 10
149.00405
 20
334.8904
 10
148.55962
 20
334.7097
 10
146.92888
 20
334.52695
 10
146.79593
 20
334.52961
 10
96.55585999999999
 20
332.72098
 10
95.43782
 20
332.86776
 10
94.43988
 20
333.39281
 10
93.68567
 20
334.23109
 10
93.2868
 20
335.19552
 10
93.20351999999999
 20
336.96873
 10
93.20351999999999
 20
345.42165
  0
LWPOLYLINE
  5
218
330
76
100
AcDbEntity
  8
7
  6
Continuous
100
AcDbPolyline
 90
       29
 70
     0
 43
0.0
 10
85.76900999999999
 20
346.17505
 10
84.5181
 20
347.36888
 10
83.02704
 20
348.2445
 10
81.37506
 20
348.75537
 10
79.65
 20
348.87433
 10
77.94354
 20
348.59506
 10
76.34638999999999
 20
347.9324
 10
74.94345
 20
346.92157
 10
73.80929999999999
 20
345.61632
 10
73.00421
 20
344.08601
 10
72.57099000000001
 20
342.412
 10
72.53267
 20
340.68326
 10
72.89126999999999
 20
338.99169
 10
73.62774
 20
337.42721
 10
74.70293999999999
 20
336.07297
 10
76.05970000000001
 20
335.00096
 10
77.62591
 20
334.26817
 10
79.31830999999999
 20
333.91354
 10
81.04696
 20
333.95593
 10
82.71995
 20
334.39309
 10
84.24835999999999
 20
335.20177
 10
85.55094
 20
336.33899
 10
86.55846999999999
 20
337.7443
 10
87.21736999999999
 20
339.343
 10
87.49263
 20
341.05011
 10
87.5
 20
341.3825
 10
87.30067
 20
343.10013
 10
86.71325999999998
 20
344.72647
 10
85.76900999999999
 20
346.17505
 42
0.00038
  0
LWPOLYLINE
  5
237
330
76
100
AcDbEntity
  8
7
  6
Continuous
100
AcDbPolyline
 90
       37
 70
     0
 43
0.0
 10
59.81681999999999
 20
349.62082
 10
61.04929
 20
349.54817
 10
62.19484
 20
349.08775
 10
63.13478
 20
348.2872700000001
 10
63.56819
 20
347.65926
 10
63.98845999999999
 20
346.37168
 10
64.04481
 20
345.8825
 10
67.0
 20
345.8825
 10
67.0
 20
335.8825
 10
64.04602
 20
335.8825
 10
63.87921
 20
334.66347
 10
63.33255
 20
333.56119
 10
62.46308
 20
332.69064
 10
61.36148000000001
 20
332.14261
 10
60.61897
 20
331.9922200000001
 42
-0.00248
 10
36.7329
 20
331.15901
 10
29.82291
 20
330.7511
 10
24.04943
 20
330.7166
 10
22.82331
 20
330.82922
 10
21.69692
 20
331.32651
 10
20.78758
 20
332.15666
 10
20.19001
 20
333.2332
 10
20.10383
 20
333.50475
 10
19.96891
 20
335.29886
 10
19.97136
 20
335.36024
 10
19.97136
 20
337.97439
 10
20.10977
 20
339.19323
 10
20.63052
 20
340.30389
 10
21.47898
 20
341.18981
 10
22.15168
 20
341.59353
 10
27.66663
 20
343.90499
 10
33.32373
 20
345.84267
 10
39.09769
 20
347.39792
 10
42.0
 20
348.02583
 10
47.93816999999999
 20
349.0084700000001
 10
51.97713
 20
349.44777
 10
59.81681999999999
 20
349.62082
  0
LWPOLYLINE
  5
25E
330
76
100
AcDbEntity
  8
7
  6
Continuous
100
AcDbPolyline
 90
       38
 70
     0
 43
0.0
 10
21.22246
 20
345.416
 10
17.60434
 20
343.48733
 42
-0.00765
 10
13.0
 20
340.56553
 10
13.0
 20
335.3825
 10
10.0
 20
335.3825
 10
10.0
 20
332.4825
 10
13.0
 20
332.4825
 10
13.0
 20
327.47591
 42
0.00221
 10
24.02172
 20
326.901
 10
30.91452
 20
327.06552
 10
33.71825
 20
327.24714
 42
0.00114
 10
67.0
 20
328.45189
 10
67.0
 20
333.4525
 10
72.0
 20
333.4525
 10
72.0
 20
328.63461
 10
84.55481999999999
 20
329.08169
 10
179.0
 20
332.48315
 10
179.0
 20
336.74033
 10
169.6691
 20
339.15742
 10
156.08294
 20
342.47998
 10
142.4073399999999
 20
345.4127
 10
128.65346
 20
347.95317
 10
118.28738
 20
349.60075
 10
107.45609
 20
351.08086
 10
96.57789000000001
 20
352.16376
 10
85.66736999999999
 20
352.84801
 10
84.09943
 20
352.91345
 10
72.0
 20
353.35144
 10
72.0
 20
348.3825
 10
67.0
 20
348.3825
 10
67.0
 20
353.43775
 10
56.62393
 20
353.44034
 10
51.00768
 20
353.18398
 10
45.42385
 20
352.52905
 10
40.70917999999999
 20
351.6581700000001
 10
33.68606
 20
349.79009
 10
26.77632
 20
347.5385
 10
21.22246
 20
345.416
  0
LWPOLYLINE
  5
286
330
76
100
AcDbEntity
  8
7
  6
Continuous
100
AcDbPolyline
 90
       28
 70
     0
 43
0.0
 10
272.20352
 20
345.42165
 10
272.29956
 20
346.54854
 10
272.77902
 20
347.57286
 10
273.58284
 20
348.36846
 10
274.61204
 20
348.83735
 10
275.73986
 20
348.9218
 10
275.84294
 20
348.90961
 10
288.98817
 20
347.44304
 10
301.0
 20
345.74916
 10
314.5082799999999
 20
343.46383
 10
327.25172
 20
340.93317
 10
328.29864
 20
340.50385
 10
329.1329
 20
339.73941
 10
329.65185
 20
338.7339
 10
329.79164
 20
337.61104
 10
329.53509
 20
336.50898
 10
328.91374
 20
335.56332
 10
328.00405
 20
334.8904
 10
327.55962
 20
334.7097
 10
325.92888
 20
334.52695
 10
325.79593
 20
334.52961
 10
275.55586
 20
332.72098
 10
274.43782
 20
332.86776
 10
273.43988
 20
333.39281
 10
272.68567
 20
334.23109
 10
272.2868
 20
335.19552
 10
272.20352
 20
336.96873
 10
272.20352
 20
345.42165
  0
LWPOLYLINE
  5
2A4
330
76
100
AcDbEntity
  8
7
  6
Continuous
100
AcDbPolyline
 90
       29
 70
     0
 43
0.0
 10
264.7690100000001
 20
346.17505
 10
263.5181
 20
347.36888
 10
262.02704
 20
348.2445
 10
260.37506
 20
348.75537
 10
258.65
 20
348.87433
 10
256.94354
 20
348.59506
 10
255.34639
 20
347.9324
 10
253.94345
 20
346.92157
 10
252.8093
 20
345.61632
 10
252.00421
 20
344.08601
 10
251.57099
 20
342.412
 10
251.53267
 20
340.68326
 10
251.89127
 20
338.99169
 10
252.62774
 20
337.42721
 10
253.70294
 20
336.07297
 10
255.0597
 20
335.00096
 10
256.62591
 20
334.26817
 10
258.31831
 20
333.91354
 10
260.04696
 20
333.95593
 10
261.71995
 20
334.39309
 10
263.24836
 20
335.20177
 10
264.55094
 20
336.33899
 10
265.55847
 20
337.7443
 10
266.21737
 20
339.343
 10
266.49263
 20
341.05011
 10
266.5
 20
341.3825
 10
266.30067
 20
343.10013
 10
265.71326
 20
344.72647
 10
264.7690100000001
 20
346.17505
  0
LWPOLYLINE
  5
2C3
330
76
100
AcDbEntity
  8
7
  6
Continuous
100
AcDbPolyline
 90
       37
 70
     0
 43
0.0
 10
246.0
 20
335.8825
 10
246.0
 20
345.8825
 10
243.04481
 20
345.8825
 10
242.76424
 20
347.20755
 10
242.56819
 20
347.65926
 10
241.8053
 20
348.62997
 10
240.77356
 20
349.30803
 10
239.57986
 20
349.62321
 10
238.81682
 20
349.62082
 10
230.97713
 20
349.44777
 10
225.00087
 20
348.73236
 10
221.0
 20
348.02583
 10
215.17758
 20
346.66315
 10
209.45927
 20
344.91438
 10
203.87061
 20
342.78732
 10
201.15168
 20
341.59353
 10
200.13888
 20
340.90146
 10
199.40043
 20
339.92195
 10
199.01383
 20
338.75779
 10
198.97136
 20
337.97439
 10
198.97136
 20
335.36024
 10
199.09269
 20
333.56516
 10
199.10383
 20
333.50475
 10
199.6194
 20
332.38661
 10
200.46426
 20
331.49092
 10
201.5504
 20
330.91097
 10
202.76469
 20
330.70716
 10
203.04943
 20
330.7166
 10
209.97105
 20
330.79115
 10
215.7329
 20
331.15901
 42
0.00248
 10
239.61897
 20
331.9922200000001
 10
240.80722
 20
332.31143
 10
241.83177
 20
332.99272
 10
242.58573
 20
333.96503
 10
242.99047
 20
335.12695
 10
243.04602
 20
335.8825
 10
246.0
 20
335.8825
  0
LWPOLYLINE
  5
2EA
330
76
100
AcDbEntity
  8
7
  6
Continuous
100
AcDbPolyline
 90
       38
 70
     0
 43
0.0
 10
200.22246
 20
345.416
 10
196.60434
 20
343.48733
 42
-0.00765
 10
192.0
 20
340.56553
 10
192.0
 20
335.3825
 10
189.0
 20
335.3825
 10
189.0
 20
332.4825
 10
192.0
 20
332.4825
 10
192.0
 20
327.47591
 42
0.00221
 10
203.02172
 20
326.901
 10
209.91452
 20
327.06552
 10
212.71825
 20
327.24714
 42
0.00114
 10
246.0
 20
328.45189
 10
246.0
 20
333.4525
 10
251.0
 20
333.4525
 10
251.0
 20
328.63461
 10
263.55482
 20
329.08169
 10
358.0
 20
332.48315
 10
358.0
 20
336.74033
 10
348.6691
 20
339.15742
 10
335.08294
 20
342.47998
 10
321.40734
 20
345.4127
 10
307.65346
 20
347.95317
 10
297.28738
 20
349.60075
 10
286.45609
 20
351.08086
 10
275.57789
 20
352.16376
 10
264.66737
 20
352.84801
 10
263.09943
 20
352.91345
 10
251.0
 20
353.35144
 10
251.0
 20
348.3825
 10
246.0
 20
348.3825
 10
246.0
 20
353.43775
 10
235.62393
 20
353.44034
 10
230.00768
 20
353.18398
 10
224.42385
 20
352.52905
 10
219.70918
 20
351.6581700000001
 10
212.68606
 20
349.79009
 10
205.77632
 20
347.5385
 10
200.22246
 20
345.416
  0
LWPOLYLINE
  5
312
330
76
100
AcDbEntity
  8
7
  6
Continuous
100
AcDbPolyline
 90
       30
 70
     0
 43
0.0
 10
437.20352
 20
346.35044
 10
437.32169
 20
347.4742700000001
 10
437.8211499999999
 20
348.48791
 10
438.6403
 20
349.26634
 10
439.6780699999999
 20
349.71352
 10
440.5622499999999
 20
349.79501
 10
453.481
 20
349.0201
 10
454.11707
 20
348.9715799999999
 10
466.67674
 20
347.61195
 10
473.0
 20
346.7746
 10
486.5412
 20
344.69317
 10
500.01587
 20
342.21734
 10
506.1648799999999
 20
340.95166
 10
507.22331
 20
340.55166
 10
508.0784799999999
 20
339.81075
 10
508.62517
 20
338.8201
 10
508.7961299999999
 20
337.7016
 10
508.5702999999999
 20
336.59287
 10
507.9754799999999
 20
335.63034
 10
507.08485
 20
334.93245
 10
506.4158400000001
 20
334.66786
 10
504.7960799999999
 20
334.52961
 10
440.7380599999999
 20
332.22354
 10
439.6117
 20
332.31043
 10
438.5849
 20
332.78152
 10
437.7844
 20
333.57867
 10
437.309
 20
334.60348
 10
437.23857
 20
334.94463
 10
437.20352
 20
336.57255
 10
437.20352
 20
346.35044
  0
LWPOLYLINE
  5
332
330
76
100
AcDbEntity
  8
7
  6
Continuous
100
AcDbPolyline
 90
       37
 70
     0
 43
0.0
 10
417.8168199999999
 20
349.62082
 10
419.0492899999999
 20
349.54817
 10
420.19484
 20
349.08775
 10
421.1347799999999
 20
348.2872700000001
 10
421.5681899999999
 20
347.65926
 10
421.9884599999999
 20
346.37168
 10
422.0448099999999
 20
345.8825
 10
425.0
 20
345.8825
 10
425.0
 20
335.8825
 10
422.0460199999999
 20
335.8825
 10
421.8792099999999
 20
334.66347
 10
421.33255
 20
333.56119
 10
420.46308
 20
332.69064
 10
419.3614799999999
 20
332.14261
 10
418.6189699999999
 20
331.9922200000001
 42
-0.00248
 10
394.7329
 20
331.15901
 10
387.82291
 20
330.7511
 10
382.04943
 20
330.7166
 10
380.82331
 20
330.82922
 10
379.69692
 20
331.32651
 10
378.78758
 20
332.15666
 10
378.19001
 20
333.2332
 10
378.10383
 20
333.50475
 10
377.96891
 20
335.29886
 10
377.97136
 20
335.36024
 10
377.97136
 20
337.97439
 10
378.10977
 20
339.19323
 10
378.6305200000001
 20
340.30389
 10
379.47898
 20
341.18981
 10
380.15168
 20
341.59353
 10
385.66663
 20
343.90499
 10
391.32373
 20
345.84267
 10
397.09769
 20
347.39792
 10
400.0
 20
348.02583
 10
405.93817
 20
349.0084700000001
 10
409.9771299999999
 20
349.44777
 10
417.8168199999999
 20
349.62082
  0
LWPOLYLINE
  5
359
330
76
100
AcDbEntity
  8
7
  6
Continuous
100
AcDbPolyline
 90
       39
 70
     0
 43
0.0
 10
371.0
 20
335.3825
 10
371.0
 20
340.56553
 42
0.00035
 10
376.66726
 20
344.10145
 10
379.22246
 20
345.416
 10
386.02385
 20
347.9763200000001
 10
392.95578
 20
350.1586200000001
 10
398.70918
 20
351.6581700000001
 10
404.2430299999999
 20
352.65042
 10
409.83341
 20
353.24681
 10
414.6239299999999
 20
353.44034
 10
425.0
 20
353.43775
 10
425.0
 20
348.3825
 10
430.0
 20
348.3825
 10
430.0
 20
353.35144
 10
442.09943
 20
352.91345
 10
453.0134
 20
352.28651
 10
463.89713
 20
351.26076
 10
474.73605
 20
349.83755
 10
476.28738
 20
349.60075
 10
490.0926099999999
 20
347.35602
 10
503.8279999999999
 20
344.71745
 10
517.4823299999999
 20
341.6872
 10
527.6690999999999
 20
339.15742
 10
537.0
 20
336.74033
 10
537.0
 20
332.48315
 10
442.55482
 20
329.08169
 10
430.0
 20
328.63461
 10
430.0
 20
333.4525
 10
425.0
 20
333.4525
 10
425.0
 20
328.45189
 42
0.00038
 10
411.62903
 20
327.94967
 10
391.71825
 20
327.24714
 10
384.83127
 20
326.91976
 10
382.02172
 20
326.901
 42
-0.00221
 10
371.0
 20
327.47591
 10
371.0
 20
332.4825
 10
368.0
 20
332.4825
 10
368.0
 20
335.3825
 10
371.0
 20
335.3825
  0
LWPOLYLINE
  5
382
330
76
100
AcDbEntity
  8
7
  6
Continuous
100
AcDbPolyline
 90
       30
 70
     0
 43
0.0
 10
79.20352
 20
309.79874
 10
79.32169
 20
310.92257
 10
79.82115
 20
311.93621
 10
80.6403
 20
312.71464
 10
81.67806999999999
 20
313.1618200000001
 10
82.56225
 20
313.24331
 10
95.48099999999999
 20
312.4684
 10
96.11707
 20
312.41988
 10
108.67674
 20
311.06025
 10
115.0
 20
310.2229
 10
128.5412
 20
308.14147
 10
142.01587
 20
305.66564
 10
148.16488
 20
304.39996
 10
149.22331
 20
303.99996
 10
150.07848
 20
303.25905
 10
150.62517
 20
302.2684
 10
150.79613
 20
301.1499
 10
150.5703
 20
300.04117
 10
149.97548
 20
299.07864
 10
149.08485
 20
298.38075
 10
148.41584
 20
298.11616
 10
146.79608
 20
297.97791
 10
82.73806
 20
295.67184
 10
81.6117
 20
295.75873
 10
80.5849
 20
296.22982
 10
79.7844
 20
297.02697
 10
79.309
 20
298.05178
 10
79.23856999999999
 20
298.39293
 10
79.20352
 20
300.02085
 10
79.20352
 20
309.79874
 42
0.00038
  0
LWPOLYLINE
  5
3A2
330
76
100
AcDbEntity
  8
7
  6
Continuous
100
AcDbPolyline
 90
       37
 70
     0
 43
0.0
 10
59.81681999999999
 20
313.06912
 10
61.04929
 20
312.99647
 10
62.19484
 20
312.53605
 10
63.13478
 20
311.73557
 10
63.56819
 20
311.10756
 10
63.98845999999999
 20
309.81998
 10
64.04481
 20
309.3308
 10
67.0
 20
309.3308
 10
67.0
 20
299.3308
 10
64.04602
 20
299.3308
 10
63.87921
 20
298.11177
 10
63.33255
 20
297.00949
 10
62.46308
 20
296.13894
 10
61.36148000000001
 20
295.59091
 10
60.61897
 20
295.44052
 42
-0.00248
 10
36.7329
 20
294.60731
 10
29.82291
 20
294.1994
 10
24.04943
 20
294.1649
 10
22.82331
 20
294.27752
 10
21.69692
 20
294.77481
 10
20.78758
 20
295.60496
 10
20.19001
 20
296.6815
 10
20.10383
 20
296.95305
 10
19.96891
 20
298.74716
 10
19.97136
 20
298.80854
 10
19.97136
 20
301.42269
 10
20.10977
 20
302.64153
 10
20.63052
 20
303.75219
 10
21.47898
 20
304.63811
 10
22.15168
 20
305.04183
 10
27.66663
 20
307.35329
 10
33.32373
 20
309.29097
 10
39.09769
 20
310.84622
 10
42.0
 20
311.47413
 10
47.93816999999999
 20
312.45677
 10
51.97713
 20
312.89607
 10
59.81681999999999
 20
313.06912
  0
LWPOLYLINE
  5
3C9
330
76
100
AcDbEntity
  8
7
  6
Continuous
100
AcDbPolyline
 90
       38
 70
     0
 43
0.0
 10
13.0
 20
304.01383
 10
13.0
 20
298.8308
 10
10.0
 20
298.8308
 10
10.0
 20
295.9308
 10
13.0
 20
295.9308
 10
13.0
 20
290.92421
 42
0.00221
 10
24.02172
 20
290.3493
 10
30.91452
 20
290.51382
 10
33.71825
 20
290.69544
 42
0.00114
 10
67.0
 20
291.90019
 10
67.0
 20
296.9008
 10
72.0
 20
296.9008
 10
72.0
 20
292.08291
 10
84.55481999999999
 20
292.52999
 10
179.0
 20
295.93145
 10
179.0
 20
300.18863
 10
169.6691
 20
302.60572
 10
156.08294
 20
305.92828
 10
142.4073399999999
 20
308.861
 10
128.65346
 20
311.40147
 10
118.28738
 20
313.04905
 10
107.45609
 20
314.52916
 10
96.57789000000001
 20
315.61206
 10
85.66736999999999
 20
316.29631
 10
84.09943
 20
316.36175
 10
72.0
 20
316.79974
 10
72.0
 20
311.8308
 10
67.0
 20
311.8308
 10
67.0
 20
316.88605
 10
56.62393
 20
316.88864
 10
51.00768
 20
316.63228
 10
45.42385
 20
315.97735
 10
40.70917999999999
 20
315.10647
 10
33.68606
 20
313.23839
 10
26.77632
 20
310.9868
 10
21.22246
 20
308.8643
 10
17.60434
 20
306.93563
 42
-0.00765
 10
13.0
 20
304.01383
  0
LWPOLYLINE
  5
3F1
330
76
100
AcDbEntity
  8
7
  6
Continuous
100
AcDbPolyline
 90
       30
 70
     0
 43
0.0
 10
258.20352
 20
309.79874
 10
258.32169
 20
310.92257
 10
258.82115
 20
311.93621
 10
259.6403
 20
312.71464
 10
260.67807
 20
313.1618200000001
 10
261.56225
 20
313.24331
 10
274.481
 20
312.4684
 10
275.11707
 20
312.41988
 10
287.67674
 20
311.06025
 10
294.0
 20
310.2229
 10
307.5412
 20
308.14147
 10
321.01587
 20
305.66564
 10
327.16488
 20
304.39996
 10
328.22331
 20
303.99996
 10
329.0784799999999
 20
303.25905
 10
329.62517
 20
302.2684
 10
329.79613
 20
301.1499
 10
329.5703
 20
300.04117
 10
328.97548
 20
299.07864
 10
328.08485
 20
298.38075
 10
327.41584
 20
298.11616
 10
325.79608
 20
297.97791
 10
261.73806
 20
295.67184
 10
260.6117
 20
295.75873
 10
259.5849
 20
296.22982
 10
258.7844
 20
297.02697
 10
258.309
 20
298.05178
 10
258.2385700000001
 20
298.39293
 10
258.20352
 20
300.02085
 10
258.20352
 20
309.79874
  0
LWPOLYLINE
  5
411
330
76
100
AcDbEntity
  8
7
  6
Continuous
100
AcDbPolyline
 90
       37
 70
     0
 43
0.0
 10
238.81682
 20
313.06912
 10
240.04929
 20
312.99647
 10
241.19484
 20
312.53605
 10
242.13478
 20
311.73557
 10
242.56819
 20
311.10756
 10
242.98846
 20
309.81998
 10
243.04481
 20
309.3308
 10
246.0
 20
309.3308
 10
246.0
 20
299.3308
 10
243.04602
 20
299.3308
 10
242.87921
 20
298.11177
 10
242.33255
 20
297.00949
 10
241.46308
 20
296.13894
 10
240.36148
 20
295.59091
 10
239.61897
 20
295.44052
 42
-0.00248
 10
215.7329
 20
294.60731
 10
208.82291
 20
294.1994
 10
203.04943
 20
294.1649
 10
201.82331
 20
294.27752
 10
200.69692
 20
294.77481
 10
199.78758
 20
295.60496
 10
199.19001
 20
296.6815
 10
199.10383
 20
296.95305
 10
198.96891
 20
298.74716
 10
198.97136
 20
298.80854
 10
198.97136
 20
301.42269
 10
199.10977
 20
302.64153
 10
199.63052
 20
303.75219
 10
200.47898
 20
304.63811
 10
201.15168
 20
305.04183
 10
206.66663
 20
307.35329
 10
212.32373
 20
309.29097
 10
218.09769
 20
310.84622
 10
221.0
 20
311.47413
 10
226.93817
 20
312.45677
 10
230.97713
 20
312.89607
 10
238.81682
 20
313.06912
  0
LWPOLYLINE
  5
438
330
76
100
AcDbEntity
  8
7
  6
Continuous
100
AcDbPolyline
 90
       39
 70
     0
 43
0.0
 10
192.0
 20
298.8308
 10
192.0
 20
304.01383
 42
0.00035
 10
197.66726
 20
307.54975
 10
200.22246
 20
308.8643
 10
207.02385
 20
311.42462
 10
213.95578
 20
313.60692
 10
219.70918
 20
315.10647
 10
225.24303
 20
316.09872
 10
230.83341
 20
316.69511
 10
235.62393
 20
316.88864
 10
246.0
 20
316.88605
 10
246.0
 20
311.8308
 10
251.0
 20
311.8308
 10
251.0
 20
316.79974
 10
263.09943
 20
316.36175
 10
274.0134
 20
315.73481
 10
284.89713
 20
314.70906
 10
295.73605
 20
313.28585
 10
297.28738
 20
313.04905
 10
311.09261
 20
310.80432
 10
324.828
 20
308.16575
 10
338.48233
 20
305.1355
 10
348.6691
 20
302.60572
 10
358.0
 20
300.18863
 10
358.0
 20
295.93145
 10
263.55482
 20
292.52999
 10
251.0
 20
292.08291
 10
251.0
 20
296.9008
 10
246.0
 20
296.9008
 10
246.0
 20
291.90019
 42
0.00038
 10
232.62903
 20
291.39797
 10
212.71825
 20
290.69544
 10
205.83127
 20
290.36806
 10
203.02172
 20
290.3493
 42
-0.00221
 10
192.0
 20
290.92421
 10
192.0
 20
295.9308
 10
189.0
 20
295.9308
 10
189.0
 20
298.8308
 10
192.0
 20
298.8308
  0
LWPOLYLINE
  5
461
330
76
100
AcDbEntity
  8
7
  6
Continuous
100
AcDbPolyline
 90
       30
 70
     0
 43
0.0
 10
437.20352
 20
309.79874
 10
437.32169
 20
310.92257
 10
437.8211499999999
 20
311.93621
 10
438.6403
 20
312.71464
 10
439.6780699999999
 20
313.1618200000001
 10
440.5622499999999
 20
313.24331
 10
453.481
 20
312.4684
 10
454.11707
 20
312.41988
 10
466.67674
 20
311.06025
 10
473.0
 20
310.2229
 10
486.5412
 20
308.14147
 10
500.01587
 20
305.66564
 10
506.1648799999999
 20
304.39996
 10
507.22331
 20
303.99996
 10
508.0784799999999
 20
303.25905
 10
508.62517
 20
302.2684
 10
508.7961299999999
 20
301.1499
 10
508.5702999999999
 20
300.04117
 10
507.9754799999999
 20
299.07864
 10
507.08485
 20
298.38075
 10
506.4158400000001
 20
298.11616
 10
504.7960799999999
 20
297.97791
 10
440.7380599999999
 20
295.67184
 10
439.6117
 20
295.75873
 10
438.5849
 20
296.22982
 10
437.7844
 20
297.02697
 10
437.309
 20
298.05178
 10
437.23857
 20
298.39293
 10
437.20352
 20
300.02085
 10
437.20352
 20
309.79874
 42
0.00038
  0
LWPOLYLINE
  5
481
330
76
100
AcDbEntity
  8
7
  6
Continuous
100
AcDbPolyline
 90
       37
 70
     0
 43
0.0
 10
417.8168199999999
 20
313.06912
 10
419.0492899999999
 20
312.99647
 10
420.19484
 20
312.53605
 10
421.1347799999999
 20
311.73557
 10
421.5681899999999
 20
311.10756
 10
421.9884599999999
 20
309.81998
 10
422.0448099999999
 20
309.3308
 10
425.0
 20
309.3308
 10
425.0
 20
299.3308
 10
422.0460199999999
 20
299.3308
 10
421.8792099999999
 20
298.11177
 10
421.33255
 20
297.00949
 10
420.46308
 20
296.13894
 10
419.3614799999999
 20
295.59091
 10
418.6189699999999
 20
295.44052
 42
-0.00248
 10
394.7329
 20
294.60731
 10
387.82291
 20
294.1994
 10
382.04943
 20
294.1649
 10
380.82331
 20
294.27752
 10
379.69692
 20
294.77481
 10
378.78758
 20
295.60496
 10
378.19001
 20
296.6815
 10
378.10383
 20
296.95305
 10
377.96891
 20
298.74716
 10
377.97136
 20
298.80854
 10
377.97136
 20
301.42269
 10
378.10977
 20
302.64153
 10
378.6305200000001
 20
303.75219
 10
379.47898
 20
304.63811
 10
380.15168
 20
305.04183
 10
385.66663
 20
307.35329
 10
391.32373
 20
309.29097
 10
397.09769
 20
310.84622
 10
400.0
 20
311.47413
 10
405.93817
 20
312.45677
 10
409.9771299999999
 20
312.89607
 10
417.8168199999999
 20
313.06912
  0
LWPOLYLINE
  5
4A8
330
76
100
AcDbEntity
  8
7
  6
Continuous
100
AcDbPolyline
 90
       39
 70
     0
 43
0.0
 10
371.0
 20
298.8308
 10
371.0
 20
304.01383
 42
0.00035
 10
376.66726
 20
307.54975
 10
379.22246
 20
308.8643
 10
386.02385
 20
311.42462
 10
392.95578
 20
313.60692
 10
398.70918
 20
315.10647
 10
404.2430299999999
 20
316.09872
 10
409.83341
 20
316.69511
 10
414.6239299999999
 20
316.88864
 10
425.0
 20
316.88605
 10
425.0
 20
311.8308
 10
430.0
 20
311.8308
 10
430.0
 20
316.79974
 10
442.09943
 20
316.36175
 10
453.0134
 20
315.73481
 10
463.89713
 20
314.70906
 10
474.73605
 20
313.28585
 10
476.28738
 20
313.04905
 10
490.0926099999999
 20
310.80432
 10
503.8279999999999
 20
308.16575
 10
517.4823299999999
 20
305.1355
 10
527.6690999999999
 20
302.60572
 10
537.0
 20
300.18863
 10
537.0
 20
295.93145
 10
442.55482
 20
292.52999
 10
430.0
 20
292.08291
 10
430.0
 20
296.9008
 10
425.0
 20
296.9008
 10
425.0
 20
291.90019
 42
0.00038
 10
411.62903
 20
291.39797
 10
391.71825
 20
290.69544
 10
384.83127
 20
290.36806
 10
382.02172
 20
290.3493
 42
-0.00221
 10
371.0
 20
290.92421
 10
371.0
 20
295.9308
 10
368.0
 20
295.9308
 10
368.0
 20
298.8308
 10
371.0
 20
298.8308
  0
LWPOLYLINE
  5
4D1
330
76
100
AcDbEntity
  8
7
  6
Continuous
100
AcDbPolyline
 90
       30
 70
     0
 43
0.0
 10
79.20352
 20
273.24714
 10
79.32169
 20
274.37097
 10
79.82115
 20
275.38461
 10
80.6403
 20
276.16304
 10
81.67806999999999
 20
276.61022
 10
82.56225
 20
276.69171
 10
95.48099999999999
 20
275.9168
 10
96.11707
 20
275.86828
 10
108.67674
 20
274.50865
 10
115.0
 20
273.6713
 10
128.5412
 20
271.58987
 10
142.01587
 20
269.11404
 10
148.16488
 20
267.84836
 10
149.22331
 20
267.44836
 10
150.07848
 20
266.70745
 10
150.62517
 20
265.7168
 10
150.79613
 20
264.5983
 10
150.5703
 20
263.48957
 10
149.97548
 20
262.52704
 10
149.08485
 20
261.82915
 10
148.41584
 20
261.56456
 10
146.79608
 20
261.42631
 10
82.73806
 20
259.12024
 10
81.6117
 20
259.20713
 10
80.5849
 20
259.67822
 10
79.7844
 20
260.47537
 10
79.309
 20
261.50018
 10
79.23856999999999
 20
261.84133
 10
79.20352
 20
263.46925
 10
79.20352
 20
273.24714
 42
0.00038
  0
LWPOLYLINE
  5
4F1
330
76
100
AcDbEntity
  8
7
  6
Continuous
100
AcDbPolyline
 90
       37
 70
     0
 43
0.0
 10
67.0
 20
272.7792
 10
67.0
 20
262.7792
 10
64.04602
 20
262.7792
 10
63.87921
 20
261.56017
 10
63.33255
 20
260.4578899999999
 10
62.46308
 20
259.58734
 10
61.36148000000001
 20
259.03931
 10
60.61897
 20
258.8889200000001
 42
-0.00248
 10
36.7329
 20
258.05571
 10
29.82291
 20
257.6478
 10
24.04943
 20
257.6133
 10
22.82331
 20
257.72592
 10
21.69692
 20
258.22321
 10
20.78758
 20
259.05336
 10
20.19001
 20
260.1299
 10
20.10383
 20
260.40145
 10
19.96891
 20
262.19556
 10
19.97136
 20
262.25694
 10
19.97136
 20
264.87109
 10
20.10977
 20
266.08993
 10
20.63052
 20
267.20059
 10
21.47898
 20
268.0865100000001
 10
22.15168
 20
268.49023
 10
27.66663
 20
270.80169
 10
33.32373
 20
272.73937
 10
39.09769
 20
274.29462
 10
42.0
 20
274.92253
 10
47.93816999999999
 20
275.90517
 10
51.97713
 20
276.34447
 10
59.81681999999999
 20
276.51752
 10
61.04929
 20
276.44487
 10
62.19484
 20
275.98445
 10
63.13478
 20
275.18397
 10
63.56819
 20
274.55596
 10
63.98845999999999
 20
273.26838
 10
64.04481
 20
272.7792
 10
67.0
 20
272.7792
  0
LWPOLYLINE
  5
518
330
76
100
AcDbEntity
  8
7
  6
Continuous
100
AcDbPolyline
 90
       39
 70
     0
 43
0.0
 10
13.0
 20
262.2792
 10
13.0
 20
267.46223
 42
0.00035
 10
18.66726
 20
270.99815
 10
21.22246
 20
272.3127
 10
28.02385
 20
274.87302
 10
34.95578
 20
277.05532
 10
40.70917999999999
 20
278.55487
 10
46.24303
 20
279.54712
 10
51.83341
 20
280.14351
 10
56.62393
 20
280.33704
 10
67.0
 20
280.33445
 10
67.0
 20
275.2792
 10
72.0
 20
275.2792
 10
72.0
 20
280.24814
 10
84.09943
 20
279.81015
 10
95.0134
 20
279.18321
 10
105.89713
 20
278.15746
 10
116.73605
 20
276.73425
 10
118.28738
 20
276.49745
 10
132.09261
 20
274.25272
 10
145.828
 20
271.61415
 10
159.48233
 20
268.5839
 10
169.6691
 20
266.05412
 10
179.0
 20
263.63703
 10
179.0
 20
259.37985
 10
84.55481999999999
 20
255.97839
 10
72.0
 20
255.53131
 10
72.0
 20
260.3492
 10
67.0
 20
260.3492
 10
67.0
 20
255.34859
 42
0.00038
 10
53.62903000000001
 20
254.84637
 10
33.71825
 20
254.14384
 10
26.83127
 20
253.81646
 10
24.02172
 20
253.7977
 42
-0.00221
 10
13.0
 20
254.37261
 10
13.0
 20
259.3792
 10
10.0
 20
259.3792
 10
10.0
 20
262.2792
 10
13.0
 20
262.2792
  0
LWPOLYLINE
  5
541
330
76
100
AcDbEntity
  8
7
  6
Continuous
100
AcDbPolyline
 90
       30
 70
     0
 43
0.0
 10
258.20352
 20
273.24714
 10
258.32169
 20
274.37097
 10
258.82115
 20
275.38461
 10
259.6403
 20
276.16304
 10
260.67807
 20
276.61022
 10
261.56225
 20
276.69171
 10
274.481
 20
275.9168
 10
275.11707
 20
275.86828
 10
287.67674
 20
274.50865
 10
294.0
 20
273.6713
 10
307.5412
 20
271.58987
 10
321.01587
 20
269.11404
 10
327.16488
 20
267.84836
 10
328.22331
 20
267.44836
 10
329.0784799999999
 20
266.70745
 10
329.62517
 20
265.7168
 10
329.79613
 20
264.5983
 10
329.5703
 20
263.48957
 10
328.97548
 20
262.52704
 10
328.08485
 20
261.82915
 10
327.41584
 20
261.56456
 10
325.79608
 20
261.42631
 10
261.73806
 20
259.12024
 10
260.6117
 20
259.20713
 10
259.5849
 20
259.67822
 10
258.7844
 20
260.47537
 10
258.309
 20
261.50018
 10
258.2385700000001
 20
261.84133
 10
258.20352
 20
263.46925
 10
258.20352
 20
273.24714
 42
0.00038
  0
LWPOLYLINE
  5
561
330
76
100
AcDbEntity
  8
7
  6
Continuous
100
AcDbPolyline
 90
       37
 70
     0
 43
0.0
 10
238.81682
 20
276.51752
 10
240.04929
 20
276.44487
 10
241.19484
 20
275.98445
 10
242.13478
 20
275.18397
 10
242.56819
 20
274.55596
 10
242.98846
 20
273.26838
 10
243.04481
 20
272.7792
 10
246.0
 20
272.7792
 10
246.0
 20
262.7792
 10
243.04602
 20
262.7792
 10
242.87921
 20
261.56017
 10
242.33255
 20
260.4578899999999
 10
241.46308
 20
259.58734
 10
240.36148
 20
259.03931
 10
239.61897
 20
258.8889200000001
 42
-0.00248
 10
215.7329
 20
258.05571
 10
208.82291
 20
257.6478
 10
203.04943
 20
257.6133
 10
201.82331
 20
257.72592
 10
200.69692
 20
258.22321
 10
199.78758
 20
259.05336
 10
199.19001
 20
260.1299
 10
199.10383
 20
260.40145
 10
198.96891
 20
262.19556
 10
198.97136
 20
262.25694
 10
198.97136
 20
264.87109
 10
199.10977
 20
266.08993
 10
199.63052
 20
267.20059
 10
200.47898
 20
268.0865100000001
 10
201.15168
 20
268.49023
 10
206.66663
 20
270.80169
 10
212.32373
 20
272.73937
 10
218.09769
 20
274.29462
 10
221.0
 20
274.92253
 10
226.93817
 20
275.90517
 10
230.97713
 20
276.34447
 10
238.81682
 20
276.51752
  0
LWPOLYLINE
  5
588
330
76
100
AcDbEntity
  8
7
  6
Continuous
100
AcDbPolyline
 90
       40
 70
     0
 43
0.0
 10
194.1893
 20
268.82689
 10
197.66726
 20
270.99815
 10
200.22246
 20
272.3127
 10
207.02385
 20
274.87302
 10
213.95578
 20
277.05532
 10
219.70918
 20
278.55487
 10
225.24303
 20
279.54712
 10
230.83341
 20
280.14351
 10
235.62393
 20
280.33704
 10
246.0
 20
280.33445
 10
246.0
 20
275.2792
 10
251.0
 20
275.2792
 10
251.0
 20
280.24814
 10
263.09943
 20
279.81015
 10
274.0134
 20
279.18321
 10
284.89713
 20
278.15746
 10
295.73605
 20
276.73425
 10
297.28738
 20
276.49745
 10
311.09261
 20
274.25272
 10
324.828
 20
271.61415
 10
338.48233
 20
268.5839
 10
348.6691
 20
266.05412
 10
358.0
 20
263.63703
 10
358.0
 20
259.37985
 10
263.55482
 20
255.97839
 10
251.0
 20
255.53131
 10
251.0
 20
260.3492
 10
246.0
 20
260.3492
 10
246.0
 20
255.34859
 42
0.00038
 10
232.62903
 20
254.84637
 10
212.71825
 20
254.14384
 10
205.83127
 20
253.81646
 10
203.02172
 20
253.7977
 42
-0.00221
 10
192.0
 20
254.37261
 10
192.0
 20
259.3792
 10
189.0
 20
259.3792
 10
189.0
 20
262.2792
 10
192.0
 20
262.2792
 10
192.0
 20
267.46223
 10
194.1893
 20
268.82689
  0
LWPOLYLINE
  5
5B2
330
76
100
AcDbEntity
  8
7
  6
Continuous
100
AcDbPolyline
 90
       30
 70
     0
 43
0.0
 10
437.20352
 20
273.24714
 10
437.32169
 20
274.37097
 10
437.8211499999999
 20
275.38461
 10
438.6403
 20
276.16304
 10
439.6780699999999
 20
276.61022
 10
440.5622499999999
 20
276.69171
 10
453.481
 20
275.9168
 10
454.11707
 20
275.86828
 10
466.67674
 20
274.50865
 10
473.0
 20
273.6713
 10
486.5412
 20
271.58987
 10
500.01587
 20
269.11404
 10
506.1648799999999
 20
267.84836
 10
507.22331
 20
267.44836
 10
508.0784799999999
 20
266.70745
 10
508.62517
 20
265.7168
 10
508.7961299999999
 20
264.5983
 10
508.5702999999999
 20
263.48957
 10
507.9754799999999
 20
262.52704
 10
507.08485
 20
261.82915
 10
506.4158400000001
 20
261.56456
 10
504.7960799999999
 20
261.42631
 10
440.7380599999999
 20
259.12024
 10
439.6117
 20
259.20713
 10
438.5849
 20
259.67822
 10
437.7844
 20
260.47537
 10
437.309
 20
261.50018
 10
437.23857
 20
261.84133
 10
437.20352
 20
263.46925
 10
437.20352
 20
273.24714
  0
LWPOLYLINE
  5
5D2
330
76
100
AcDbEntity
  8
7
  6
Continuous
100
AcDbPolyline
 90
       37
 70
     0
 43
0.0
 10
417.8168199999999
 20
276.51752
 10
419.0492899999999
 20
276.44487
 10
420.19484
 20
275.98445
 10
421.1347799999999
 20
275.18397
 10
421.5681899999999
 20
274.55596
 10
421.9884599999999
 20
273.26838
 10
422.0448099999999
 20
272.7792
 10
425.0
 20
272.7792
 10
425.0
 20
262.7792
 10
422.0460199999999
 20
262.7792
 10
421.8792099999999
 20
261.56017
 10
421.33255
 20
260.4578899999999
 10
420.46308
 20
259.58734
 10
419.3614799999999
 20
259.03931
 10
418.6189699999999
 20
258.8889200000001
 42
-0.00248
 10
394.7329
 20
258.05571
 10
387.82291
 20
257.6478
 10
382.04943
 20
257.6133
 10
380.82331
 20
257.72592
 10
379.69692
 20
258.22321
 10
378.78758
 20
259.05336
 10
378.19001
 20
260.1299
 10
378.10383
 20
260.40145
 10
377.96891
 20
262.19556
 10
377.97136
 20
262.25694
 10
377.97136
 20
264.87109
 10
378.10977
 20
266.08993
 10
378.6305200000001
 20
267.20059
 10
379.47898
 20
268.0865100000001
 10
380.15168
 20
268.49023
 10
385.66663
 20
270.80169
 10
391.32373
 20
272.73937
 10
397.09769
 20
274.29462
 10
400.0
 20
274.92253
 10
405.93817
 20
275.90517
 10
409.9771299999999
 20
276.34447
 10
417.8168199999999
 20
276.51752
  0
LWPOLYLINE
  5
5F9
330
76
100
AcDbEntity
  8
7
  6
Continuous
100
AcDbPolyline
 90
       39
 70
     0
 43
0.0
 10
371.0
 20
262.2792
 10
371.0
 20
267.46223
 42
0.00035
 10
376.66726
 20
270.99815
 10
379.22246
 20
272.3127
 10
386.02385
 20
274.87302
 10
392.95578
 20
277.05532
 10
398.70918
 20
278.55487
 10
404.2430299999999
 20
279.54712
 10
409.83341
 20
280.14351
 10
414.6239299999999
 20
280.33704
 10
425.0
 20
280.33445
 10
425.0
 20
275.2792
 10
430.0
 20
275.2792
 10
430.0
 20
280.24814
 10
442.09943
 20
279.81015
 10
453.0134
 20
279.18321
 10
463.89713
 20
278.15746
 10
474.73605
 20
276.73425
 10
476.28738
 20
276.49745
 10
490.0926099999999
 20
274.25272
 10
503.8279999999999
 20
271.61415
 10
517.4823299999999
 20
268.5839
 10
527.6690999999999
 20
266.05412
 10
537.0
 20
263.63703
 10
537.0
 20
259.37985
 10
442.55482
 20
255.97839
 10
430.0
 20
255.53131
 10
430.0
 20
260.3492
 10
425.0
 20
260.3492
 10
425.0
 20
255.34859
 42
0.00038
 10
411.62903
 20
254.84637
 10
391.71825
 20
254.14384
 10
384.83127
 20
253.81646
 10
382.02172
 20
253.7977
 42
-0.00221
 10
371.0
 20
254.37261
 10
371.0
 20
259.3792
 10
368.0
 20
259.3792
 10
368.0
 20
262.2792
 10
371.0
 20
262.2792
  0
LWPOLYLINE
  5
622
330
76
100
AcDbEntity
  8
7
  6
Continuous
100
AcDbPolyline
 90
       30
 70
     0
 43
0.0
 10
79.20352
 20
236.69554
 10
79.32169
 20
237.81937
 10
79.82115
 20
238.83301
 10
80.6403
 20
239.61144
 10
81.67806999999999
 20
240.05862
 10
82.56225
 20
240.14011
 10
95.48099999999999
 20
239.3652
 10
96.11707
 20
239.31668
 10
108.67674
 20
237.95705
 10
115.0
 20
237.1197
 10
128.5412
 20
235.03827
 10
142.01587
 20
232.56244
 10
148.16488
 20
231.29676
 10
149.22331
 20
230.89676
 10
150.07848
 20
230.15585
 10
150.62517
 20
229.1652
 10
150.79613
 20
228.0467
 10
150.5703
 20
226.93797
 10
149.97548
 20
225.97544
 10
149.08485
 20
225.27755
 10
148.41584
 20
225.01296
 10
146.79608
 20
224.87471
 10
82.73806
 20
222.56864
 10
81.6117
 20
222.65553
 10
80.5849
 20
223.12662
 10
79.7844
 20
223.92377
 10
79.309
 20
224.94858
 10
79.23856999999999
 20
225.28973
 10
79.20352
 20
226.91765
 10
79.20352
 20
236.69554
 42
0.00038
  0
LWPOLYLINE
  5
642
330
76
100
AcDbEntity
  8
7
  6
Continuous
100
AcDbPolyline
 90
       37
 70
     0
 43
0.0
 10
67.0
 20
236.2276
 10
67.0
 20
226.2276
 10
64.04602
 20
226.2276
 10
63.87921
 20
225.00857
 10
63.33255
 20
223.90629
 10
62.46308
 20
223.03574
 10
61.36148000000001
 20
222.48771
 10
60.61897
 20
222.33732
 42
-0.00248
 10
36.7329
 20
221.50411
 10
29.82291
 20
221.0962
 10
24.04943
 20
221.0617
 10
22.82331
 20
221.17432
 10
21.69692
 20
221.67161
 10
20.78758
 20
222.50176
 10
20.19001
 20
223.5783
 10
20.10383
 20
223.84985
 10
19.96891
 20
225.64396
 10
19.97136
 20
225.70534
 10
19.97136
 20
228.31949
 10
20.10977
 20
229.53833
 10
20.63052
 20
230.64899
 10
21.47898
 20
231.53491
 10
22.15168
 20
231.93863
 10
27.66663
 20
234.25009
 10
33.32373
 20
236.18777
 10
39.09769
 20
237.74302
 10
42.0
 20
238.37093
 10
47.93816999999999
 20
239.35357
 10
51.97713
 20
239.79287
 10
59.81681999999999
 20
239.96592
 10
61.04929
 20
239.89327
 10
62.19484
 20
239.43285
 10
63.13478
 20
238.63237
 10
63.56819
 20
238.00436
 10
63.98845999999999
 20
236.71678
 10
64.04481
 20
236.2276
 10
67.0
 20
236.2276
  0
LWPOLYLINE
  5
669
330
76
100
AcDbEntity
  8
7
  6
Continuous
100
AcDbPolyline
 90
       39
 70
     0
 43
0.0
 10
13.0
 20
225.7276
 10
13.0
 20
230.91063
 42
0.00035
 10
18.66726
 20
234.44655
 10
21.22246
 20
235.7611
 10
28.02385
 20
238.32142
 10
34.95578
 20
240.50372
 10
40.70917999999999
 20
242.00327
 10
46.24303
 20
242.99552
 10
51.83341
 20
243.59191
 10
56.62393
 20
243.78544
 10
67.0
 20
243.78285
 10
67.0
 20
238.7276
 10
72.0
 20
238.7276
 10
72.0
 20
243.69654
 10
84.09943
 20
243.25855
 10
95.0134
 20
242.63161
 10
105.89713
 20
241.60586
 10
116.73605
 20
240.18265
 10
118.28738
 20
239.94585
 10
132.09261
 20
237.70112
 10
145.828
 20
235.06255
 10
159.48233
 20
232.0323
 10
169.6691
 20
229.50252
 10
179.0
 20
227.08543
 10
179.0
 20
222.82825
 10
84.55481999999999
 20
219.42679
 10
72.0
 20
218.97971
 10
72.0
 20
223.7976
 10
67.0
 20
223.7976
 10
67.0
 20
218.79699
 42
0.00038
 10
53.62903000000001
 20
218.29477
 10
33.71825
 20
217.59224
 10
26.83127
 20
217.26486
 10
24.02172
 20
217.2461
 42
-0.00221
 10
13.0
 20
217.82101
 10
13.0
 20
222.8276
 10
10.0
 20
222.8276
 10
10.0
 20
225.7276
 10
13.0
 20
225.7276
  0
LWPOLYLINE
  5
692
330
76
100
AcDbEntity
  8
7
  6
Continuous
100
AcDbPolyline
 90
       30
 70
     0
 43
0.0
 10
258.20352
 20
236.69554
 10
258.32169
 20
237.81937
 10
258.82115
 20
238.83301
 10
259.6403
 20
239.61144
 10
260.67807
 20
240.05862
 10
261.56225
 20
240.14011
 10
274.481
 20
239.3652
 10
275.11707
 20
239.31668
 10
287.67674
 20
237.95705
 10
294.0
 20
237.1197
 10
307.5412
 20
235.03827
 10
321.01587
 20
232.56244
 10
327.16488
 20
231.29676
 10
328.22331
 20
230.89676
 10
329.0784799999999
 20
230.15585
 10
329.62517
 20
229.1652
 10
329.79613
 20
228.0467
 10
329.5703
 20
226.93797
 10
328.97548
 20
225.97544
 10
328.08485
 20
225.27755
 10
327.41584
 20
225.01296
 10
325.79608
 20
224.87471
 10
261.73806
 20
222.56864
 10
260.6117
 20
222.65553
 10
259.5849
 20
223.12662
 10
258.7844
 20
223.92377
 10
258.309
 20
224.94858
 10
258.2385700000001
 20
225.28973
 10
258.20352
 20
226.91765
 10
258.20352
 20
236.69554
 42
0.00038
  0
LWPOLYLINE
  5
6B2
330
76
100
AcDbEntity
  8
7
  6
Continuous
100
AcDbPolyline
 90
       37
 70
     0
 43
0.0
 10
238.81682
 20
239.96592
 10
240.04929
 20
239.89327
 10
241.19484
 20
239.43285
 10
242.13478
 20
238.63237
 10
242.56819
 20
238.00436
 10
242.98846
 20
236.71678
 10
243.04481
 20
236.2276
 10
246.0
 20
236.2276
 10
246.0
 20
226.2276
 10
243.04602
 20
226.2276
 10
242.87921
 20
225.00857
 10
242.33255
 20
223.90629
 10
241.46308
 20
223.03574
 10
240.36148
 20
222.48771
 10
239.61897
 20
222.33732
 42
-0.00248
 10
215.7329
 20
221.50411
 10
208.82291
 20
221.0962
 10
203.04943
 20
221.0617
 10
201.82331
 20
221.17432
 10
200.69692
 20
221.67161
 10
199.78758
 20
222.50176
 10
199.19001
 20
223.5783
 10
199.10383
 20
223.84985
 10
198.96891
 20
225.64396
 10
198.97136
 20
225.70534
 10
198.97136
 20
228.31949
 10
199.10977
 20
229.53833
 10
199.63052
 20
230.64899
 10
200.47898
 20
231.53491
 10
201.15168
 20
231.93863
 10
206.66663
 20
234.25009
 10
212.32373
 20
236.18777
 10
218.09769
 20
237.74302
 10
221.0
 20
238.37093
 10
226.93817
 20
239.35357
 10
230.97713
 20
239.79287
 10
238.81682
 20
239.96592
  0
LWPOLYLINE
  5
6D9
330
76
100
AcDbEntity
  8
7
  6
Continuous
100
AcDbPolyline
 90
       38
 70
     0
 43
0.0
 10
200.22246
 20
235.7611
 10
196.60434
 20
233.83243
 42
-0.00765
 10
192.0
 20
230.91063
 10
192.0
 20
225.7276
 10
189.0
 20
225.7276
 10
189.0
 20
222.8276
 10
192.0
 20
222.8276
 10
192.0
 20
217.82101
 42
0.00221
 10
203.02172
 20
217.2461
 10
209.91452
 20
217.41062
 10
212.71825
 20
217.59224
 42
0.00114
 10
246.0
 20
218.79699
 10
246.0
 20
223.7976
 10
251.0
 20
223.7976
 10
251.0
 20
218.97971
 10
263.55482
 20
219.42679
 10
358.0
 20
222.82825
 10
358.0
 20
227.08543
 10
348.6691
 20
229.50252
 10
335.08294
 20
232.82508
 10
321.40734
 20
235.7578
 10
307.65346
 20
238.29827
 10
297.28738
 20
239.94585
 10
286.45609
 20
241.42596
 10
275.57789
 20
242.50886
 10
264.66737
 20
243.19311
 10
263.09943
 20
243.25855
 10
251.0
 20
243.69654
 10
251.0
 20
238.7276
 10
246.0
 20
238.7276
 10
246.0
 20
243.78285
 10
235.62393
 20
243.78544
 10
230.00768
 20
243.52908
 10
224.42385
 20
242.87415
 10
219.70918
 20
242.00327
 10
212.68606
 20
240.13519
 10
205.77632
 20
237.8836
 10
200.22246
 20
235.7611
  0
LWPOLYLINE
  5
701
330
76
100
AcDbEntity
  8
7
  6
Continuous
100
AcDbPolyline
 90
       30
 70
     0
 43
0.0
 10
437.20352
 20
236.69554
 10
437.32169
 20
237.81937
 10
437.8211499999999
 20
238.83301
 10
438.6403
 20
239.61144
 10
439.6780699999999
 20
240.05862
 10
440.5622499999999
 20
240.14011
 10
453.481
 20
239.3652
 10
454.11707
 20
239.31668
 10
466.67674
 20
237.95705
 10
473.0
 20
237.1197
 10
486.5412
 20
235.03827
 10
500.01587
 20
232.56244
 10
506.1648799999999
 20
231.29676
 10
507.22331
 20
230.89676
 10
508.0784799999999
 20
230.15585
 10
508.62517
 20
229.1652
 10
508.7961299999999
 20
228.0467
 10
508.5702999999999
 20
226.93797
 10
507.9754799999999
 20
225.97544
 10
507.08485
 20
225.27755
 10
506.4158400000001
 20
225.01296
 10
504.7960799999999
 20
224.87471
 10
440.7380599999999
 20
222.56864
 10
439.6117
 20
222.65553
 10
438.5849
 20
223.12662
 10
437.7844
 20
223.92377
 10
437.309
 20
224.94858
 10
437.23857
 20
225.28973
 10
437.20352
 20
226.91765
 10
437.20352
 20
236.69554
  0
LWPOLYLINE
  5
721
330
76
100
AcDbEntity
  8
7
  6
Continuous
100
AcDbPolyline
 90
       37
 70
     0
 43
0.0
 10
425.0
 20
236.2276
 10
425.0
 20
226.2276
 10
422.0460199999999
 20
226.2276
 10
421.8792099999999
 20
225.00857
 10
421.33255
 20
223.90629
 10
420.46308
 20
223.03574
 10
419.3614799999999
 20
222.48771
 10
418.6189699999999
 20
222.33732
 42
-0.00248
 10
394.7329
 20
221.50411
 10
387.82291
 20
221.0962
 10
382.04943
 20
221.0617
 10
380.82331
 20
221.17432
 10
379.69692
 20
221.67161
 10
378.78758
 20
222.50176
 10
378.19001
 20
223.5783
 10
378.10383
 20
223.84985
 10
377.96891
 20
225.64396
 10
377.97136
 20
225.70534
 10
377.97136
 20
228.31949
 10
378.10977
 20
229.53833
 10
378.6305200000001
 20
230.64899
 10
379.47898
 20
231.53491
 10
380.15168
 20
231.93863
 10
385.66663
 20
234.25009
 10
391.32373
 20
236.18777
 10
397.09769
 20
237.74302
 10
400.0
 20
238.37093
 10
405.93817
 20
239.35357
 10
409.9771299999999
 20
239.79287
 10
417.8168199999999
 20
239.96592
 10
419.0492899999999
 20
239.89327
 10
420.19484
 20
239.43285
 10
421.1347799999999
 20
238.63237
 10
421.5681899999999
 20
238.00436
 10
421.9884599999999
 20
236.71678
 10
422.0448099999999
 20
236.2276
 10
425.0
 20
236.2276
  0
LWPOLYLINE
  5
748
330
76
100
AcDbEntity
  8
7
  6
Continuous
100
AcDbPolyline
 90
       39
 70
     0
 43
0.0
 10
371.0
 20
225.7276
 10
371.0
 20
230.91063
 42
0.00035
 10
376.66726
 20
234.44655
 10
379.22246
 20
235.7611
 10
386.02385
 20
238.32142
 10
392.95578
 20
240.50372
 10
398.70918
 20
242.00327
 10
404.2430299999999
 20
242.99552
 10
409.83341
 20
243.59191
 10
414.6239299999999
 20
243.78544
 10
425.0
 20
243.78285
 10
425.0
 20
238.7276
 10
430.0
 20
238.7276
 10
430.0
 20
243.69654
 10
442.09943
 20
243.25855
 10
453.0134
 20
242.63161
 10
463.89713
 20
241.60586
 10
474.73605
 20
240.18265
 10
476.28738
 20
239.94585
 10
490.0926099999999
 20
237.70112
 10
503.8279999999999
 20
235.06255
 10
517.4823299999999
 20
232.0323
 10
527.6690999999999
 20
229.50252
 10
537.0
 20
227.08543
 10
537.0
 20
222.82825
 10
442.55482
 20
219.42679
 10
430.0
 20
218.97971
 10
430.0
 20
223.7976
 10
425.0
 20
223.7976
 10
425.0
 20
218.79699
 42
0.00038
 10
411.62903
 20
218.29477
 10
391.71825
 20
217.59224
 10
384.83127
 20
217.26486
 10
382.02172
 20
217.2461
 42
-0.00221
 10
371.0
 20
217.82101
 10
371.0
 20
222.8276
 10
368.0
 20
222.8276
 10
368.0
 20
225.7276
 10
371.0
 20
225.7276
  0
LINE
  5
854
330
76
100
AcDbEntity
  8
LAYER01
  6
Continuous
 62
     7
100
AcDbLine
 10
-19.35151057052224
 20
454.4799879156005
 30
0.0
 11
824.6474610520055
 21
454.4799879156005
 31
0.0
  0
LINE
  5
855
330
76
100
AcDbEntity
  8
LAYER01
  6
Continuous
 62
     7
100
AcDbLine
 10
824.6474610520053
 20
479.1799879156002
 30
0.0
 11
764.1474610520049
 21
479.1799879156005
 31
0.0
  0
LINE
  5
856
330
76
100
AcDbEntity
  8
LAYER01
  6
Continuous
 62
     7
100
AcDbLine
 10
761.1474610520048
 20
479.1799879156004
 30
0.0
 11
699.1474610520049
 21
479.1799879156001
 31
0.0
  0
LINE
  5
857
330
76
100
AcDbEntity
  8
LAYER01
  6
Continuous
 62
     7
100
AcDbLine
 10
696.1474610520049
 20
479.1799879156002
 30
0.0
 11
634.147461052005
 21
479.1799879156002
 31
0.0
  0
LINE
  5
858
330
76
100
AcDbEntity
  8
LAYER01
  6
Continuous
 62
     7
100
AcDbLine
 10
631.147461052005
 20
479.1799879156004
 30
0.0
 11
569.1474610520048
 21
479.1799879156004
 31
0.0
  0
LINE
  5
859
330
76
100
AcDbEntity
  8
LAYER01
  6
Continuous
 62
     7
100
AcDbLine
 10
566.1474610520047
 20
479.1799879156004
 30
0.0
 11
503.966602897098
 21
479.1799879156004
 31
0.0
  0
LINE
  5
85A
330
76
100
AcDbEntity
  8
LAYER01
  6
Continuous
 62
     7
100
AcDbLine
 10
500.966602897098
 20
479.1799879156004
 30
0.0
 11
438.5206271642775
 21
479.1799879156004
 31
0.0
  0
LINE
  5
85B
330
76
100
AcDbEntity
  8
LAYER01
  6
Continuous
 62
     7
100
AcDbLine
 10
437.0206271642776
 20
479.1799879156004
 30
0.0
 11
374.1474610520051
 21
479.1799879156006
 31
0.0
  0
LINE
  5
85C
330
76
100
AcDbEntity
  8
LAYER01
  6
Continuous
 62
     7
100
AcDbLine
 10
371.147461052005
 20
479.1799879156006
 30
0.0
 11
309.1474610520053
 21
479.1799879156006
 31
0.0
  0
LINE
  5
85D
330
76
100
AcDbEntity
  8
LAYER01
  6
Continuous
 62
     7
100
AcDbLine
 10
306.1474610520051
 20
479.1799879156006
 30
0.0
 11
244.1474610520052
 21
479.1799879156005
 31
0.0
  0
LINE
  5
85E
330
76
100
AcDbEntity
  8
LAYER01
  6
Continuous
 62
     7
100
AcDbLine
 10
241.1474610520051
 20
479.1799879156006
 30
0.0
 11
179.1474610520051
 21
479.1799879156004
 31
0.0
  0
LINE
  5
85F
330
76
100
AcDbEntity
  8
LAYER01
  6
Continuous
 62
     7
100
AcDbLine
 10
176.1474610520051
 20
479.1799879156005
 30
0.0
 11
129.1474610520051
 21
479.1799879156004
 31
0.0
  0
LINE
  5
860
330
76
100
AcDbEntity
  8
LAYER01
  6
Continuous
 62
     7
100
AcDbLine
 10
126.1474610520051
 20
479.1799879156004
 30
0.0
 11
79.14746105200511
 21
479.1799879156005
 31
0.0
  0
LINE
  5
861
330
76
100
AcDbEntity
  8
LAYER01
  6
Continuous
 62
     7
100
AcDbLine
 10
76.14746105200511
 20
479.1799879156005
 30
0.0
 11
29.14746105200515
 21
479.1799879156004
 31
0.0
  0
LINE
  5
862
330
76
100
AcDbEntity
  8
LAYER01
  6
Continuous
 62
     7
100
AcDbLine
 10
26.14746105200515
 20
479.1799879156005
 30
0.0
 11
-18.70471830776332
 21
479.1799879156002
 31
0.0
  0
LINE
  5
863
330
76
100
AcDbEntity
  8
LAYER01
  6
Continuous
 62
     7
100
AcDbLine
 10
-21.89428532053407
 20
471.9799879156005
 30
0.0
 11
-22.15614453622594
 21
461.9799879156005
 31
0.0
  0
LINE
  5
864
330
76
100
AcDbEntity
  8
LAYER01
  6
Continuous
 62
     7
100
AcDbLine
 10
-18.70471830776331
 20
479.1799879156003
 30
0.0
 11
-18.89325694306146
 21
471.9799879156004
 31
0.0
  0
LINE
  5
865
330
76
100
AcDbEntity
  8
LAYER01
  6
Continuous
 62
     7
100
AcDbLine
 10
-19.15511615875334
 20
461.9799879156006
 30
0.0
 11
-19.35151057052224
 21
454.4799879156006
 31
0.0
  0
LINE
  5
866
330
76
100
AcDbEntity
  8
LAYER01
  6
Continuous
 62
     7
100
AcDbLine
 10
26.14746105200513
 20
454.4799879156005
 30
0.0
 11
26.14746105200513
 21
461.9799879156005
 31
0.0
  0
LINE
  5
867
330
76
100
AcDbEntity
  8
LAYER01
  6
Continuous
 62
     7
100
AcDbLine
 10
29.14746105200514
 20
454.4799879156005
 30
0.0
 11
29.14746105200514
 21
461.9799879156005
 31
0.0
  0
LINE
  5
868
330
76
100
AcDbEntity
  8
LAYER01
  6
Continuous
 62
     7
100
AcDbLine
 10
26.14746105200513
 20
461.9799879156005
 30
0.0
 11
29.14746105200514
 21
461.9799879156005
 31
0.0
  0
LINE
  5
869
330
76
100
AcDbEntity
  8
LAYER01
  6
Continuous
 62
     7
100
AcDbLine
 10
76.14746105200509
 20
454.4799879156006
 30
0.0
 11
76.14746105200509
 21
461.9799879156006
 31
0.0
  0
LINE
  5
86A
330
76
100
AcDbEntity
  8
LAYER01
  6
Continuous
 62
     7
100
AcDbLine
 10
79.1474610520051
 20
454.4799879156006
 30
0.0
 11
79.1474610520051
 21
461.9799879156006
 31
0.0
  0
LINE
  5
86B
330
76
100
AcDbEntity
  8
LAYER01
  6
Continuous
 62
     7
100
AcDbLine
 10
76.14746105200509
 20
461.9799879156006
 30
0.0
 11
79.1474610520051
 21
461.9799879156006
 31
0.0
  0
LINE
  5
86C
330
76
100
AcDbEntity
  8
LAYER01
  6
Continuous
 62
     7
100
AcDbLine
 10
126.1474610520051
 20
454.465671859579
 30
0.0
 11
126.1474610520051
 21
461.965671859579
 31
0.0
  0
LINE
  5
86D
330
76
100
AcDbEntity
  8
LAYER01
  6
Continuous
 62
     7
100
AcDbLine
 10
129.1474610520051
 20
454.465671859579
 30
0.0
 11
129.1474610520051
 21
461.965671859579
 31
0.0
  0
LINE
  5
86E
330
76
100
AcDbEntity
  8
LAYER01
  6
Continuous
 62
     7
100
AcDbLine
 10
126.1474610520051
 20
461.965671859579
 30
0.0
 11
129.1474610520051
 21
461.965671859579
 31
0.0
  0
LINE
  5
86F
330
76
100
AcDbEntity
  8
LAYER01
  6
Continuous
 62
     7
100
AcDbLine
 10
176.1474610520051
 20
454.4659944367678
 30
0.0
 11
176.1474610520051
 21
461.9659944367677
 31
0.0
  0
LINE
  5
870
330
76
100
AcDbEntity
  8
LAYER01
  6
Continuous
 62
     7
100
AcDbLine
 10
179.1474610520051
 20
454.4659944367678
 30
0.0
 11
179.1474610520051
 21
461.9659944367677
 31
0.0
  0
LINE
  5
871
330
76
100
AcDbEntity
  8
LAYER01
  6
Continuous
 62
     7
100
AcDbLine
 10
176.1474610520051
 20
461.9659944367677
 30
0.0
 11
179.1474610520051
 21
461.9659944367677
 31
0.0
  0
LINE
  5
872
330
76
100
AcDbEntity
  8
LAYER01
  6
Continuous
 62
     7
100
AcDbLine
 10
241.1474610520051
 20
454.465671859579
 30
0.0
 11
241.1474610520051
 21
461.965671859579
 31
0.0
  0
LINE
  5
873
330
76
100
AcDbEntity
  8
LAYER01
  6
Continuous
 62
     7
100
AcDbLine
 10
244.1474610520052
 20
454.465671859579
 30
0.0
 11
244.1474610520052
 21
461.965671859579
 31
0.0
  0
LINE
  5
874
330
76
100
AcDbEntity
  8
LAYER01
  6
Continuous
 62
     7
100
AcDbLine
 10
241.1474610520051
 20
461.965671859579
 30
0.0
 11
244.1474610520052
 21
461.965671859579
 31
0.0
  0
LINE
  5
875
330
76
100
AcDbEntity
  8
LAYER01
  6
Continuous
 62
     7
100
AcDbLine
 10
306.1474610520053
 20
454.465671859579
 30
0.0
 11
306.1474610520053
 21
461.965671859579
 31
0.0
  0
LINE
  5
876
330
76
100
AcDbEntity
  8
LAYER01
  6
Continuous
 62
     7
100
AcDbLine
 10
309.1474610520053
 20
454.465671859579
 30
0.0
 11
309.1474610520053
 21
461.965671859579
 31
0.0
  0
LINE
  5
877
330
76
100
AcDbEntity
  8
LAYER01
  6
Continuous
 62
     7
100
AcDbLine
 10
306.1474610520053
 20
461.965671859579
 30
0.0
 11
309.1474610520053
 21
461.965671859579
 31
0.0
  0
LINE
  5
878
330
76
100
AcDbEntity
  8
LAYER01
  6
Continuous
 62
     7
100
AcDbLine
 10
371.147461052005
 20
454.465671859579
 30
0.0
 11
371.147461052005
 21
461.965671859579
 31
0.0
  0
LINE
  5
879
330
76
100
AcDbEntity
  8
LAYER01
  6
Continuous
 62
     7
100
AcDbLine
 10
374.1474610520051
 20
454.465671859579
 30
0.0
 11
374.1474610520051
 21
461.965671859579
 31
0.0
  0
LINE
  5
87A
330
76
100
AcDbEntity
  8
LAYER01
  6
Continuous
 62
     7
100
AcDbLine
 10
371.147461052005
 20
461.965671859579
 30
0.0
 11
374.1474610520051
 21
461.965671859579
 31
0.0
  0
LINE
  5
87B
330
76
100
AcDbEntity
  8
LAYER01
  6
Continuous
 62
     7
100
AcDbLine
 10
436.2706271642776
 20
454.465671859579
 30
0.0
 11
436.2706271642776
 21
461.965671859579
 31
0.0
  0
LINE
  5
87C
330
76
100
AcDbEntity
  8
LAYER01
  6
Continuous
 62
     7
100
AcDbLine
 10
439.2706271642776
 20
454.465671859579
 30
0.0
 11
439.2706271642776
 21
461.965671859579
 31
0.0
  0
LINE
  5
87D
330
76
100
AcDbEntity
  8
LAYER01
  6
Continuous
 62
     7
100
AcDbLine
 10
436.2706271642776
 20
461.965671859579
 30
0.0
 11
439.2706271642776
 21
461.965671859579
 31
0.0
  0
LINE
  5
87E
330
76
100
AcDbEntity
  8
LAYER01
  6
Continuous
 62
     7
100
AcDbLine
 10
500.966602897098
 20
454.4799879156006
 30
0.0
 11
500.966602897098
 21
461.9799879156006
 31
0.0
  0
LINE
  5
87F
330
76
100
AcDbEntity
  8
LAYER01
  6
Continuous
 62
     7
100
AcDbLine
 10
503.966602897098
 20
454.4799879156006
 30
0.0
 11
503.966602897098
 21
461.9799879156006
 31
0.0
  0
LINE
  5
880
330
76
100
AcDbEntity
  8
LAYER01
  6
Continuous
 62
     7
100
AcDbLine
 10
500.966602897098
 20
461.9799879156006
 30
0.0
 11
503.966602897098
 21
461.9799879156006
 31
0.0
  0
LINE
  5
881
330
76
100
AcDbEntity
  8
LAYER01
  6
Continuous
 62
     7
100
AcDbLine
 10
566.1474610520047
 20
454.465671859579
 30
0.0
 11
566.1474610520047
 21
461.965671859579
 31
0.0
  0
LINE
  5
882
330
76
100
AcDbEntity
  8
LAYER01
  6
Continuous
 62
     7
100
AcDbLine
 10
569.1474610520048
 20
454.465671859579
 30
0.0
 11
569.1474610520048
 21
461.965671859579
 31
0.0
  0
LINE
  5
883
330
76
100
AcDbEntity
  8
LAYER01
  6
Continuous
 62
     7
100
AcDbLine
 10
566.1474610520047
 20
461.965671859579
 30
0.0
 11
569.1474610520048
 21
461.965671859579
 31
0.0
  0
LINE
  5
884
330
76
100
AcDbEntity
  8
LAYER01
  6
Continuous
 62
     7
100
AcDbLine
 10
631.147461052005
 20
454.465671859579
 30
0.0
 11
631.147461052005
 21
461.965671859579
 31
0.0
  0
LINE
  5
885
330
76
100
AcDbEntity
  8
LAYER01
  6
Continuous
 62
     7
100
AcDbLine
 10
634.147461052005
 20
454.465671859579
 30
0.0
 11
634.147461052005
 21
461.965671859579
 31
0.0
  0
LINE
  5
886
330
76
100
AcDbEntity
  8
LAYER01
  6
Continuous
 62
     7
100
AcDbLine
 10
631.147461052005
 20
461.965671859579
 30
0.0
 11
634.147461052005
 21
461.965671859579
 31
0.0
  0
LINE
  5
887
330
76
100
AcDbEntity
  8
LAYER01
  6
Continuous
 62
     7
100
AcDbLine
 10
696.147461052005
 20
454.465671859579
 30
0.0
 11
696.147461052005
 21
461.965671859579
 31
0.0
  0
LINE
  5
888
330
76
100
AcDbEntity
  8
LAYER01
  6
Continuous
 62
     7
100
AcDbLine
 10
699.147461052005
 20
454.465671859579
 30
0.0
 11
699.147461052005
 21
461.965671859579
 31
0.0
  0
LINE
  5
889
330
76
100
AcDbEntity
  8
LAYER01
  6
Continuous
 62
     7
100
AcDbLine
 10
696.147461052005
 20
461.965671859579
 30
0.0
 11
699.147461052005
 21
461.965671859579
 31
0.0
  0
LINE
  5
88A
330
76
100
AcDbEntity
  8
LAYER01
  6
Continuous
 62
     7
100
AcDbLine
 10
696.147461052005
 20
454.465671859579
 30
0.0
 11
696.147461052005
 21
461.965671859579
 31
0.0
  0
LINE
  5
88B
330
76
100
AcDbEntity
  8
LAYER01
  6
Continuous
 62
     7
100
AcDbLine
 10
699.147461052005
 20
454.465671859579
 30
0.0
 11
699.147461052005
 21
461.965671859579
 31
0.0
  0
LINE
  5
88C
330
76
100
AcDbEntity
  8
LAYER01
  6
Continuous
 62
     7
100
AcDbLine
 10
696.147461052005
 20
461.965671859579
 30
0.0
 11
699.147461052005
 21
461.965671859579
 31
0.0
  0
LINE
  5
88D
330
76
100
AcDbEntity
  8
LAYER01
  6
Continuous
 62
     7
100
AcDbLine
 10
761.1474610520049
 20
454.465671859579
 30
0.0
 11
761.1474610520049
 21
461.965671859579
 31
0.0
  0
LINE
  5
88E
330
76
100
AcDbEntity
  8
LAYER01
  6
Continuous
 62
     7
100
AcDbLine
 10
764.1474610520049
 20
454.465671859579
 30
0.0
 11
764.1474610520049
 21
461.965671859579
 31
0.0
  0
LINE
  5
88F
330
76
100
AcDbEntity
  8
LAYER01
  6
Continuous
 62
     7
100
AcDbLine
 10
761.1474610520049
 20
461.965671859579
 30
0.0
 11
764.1474610520049
 21
461.965671859579
 31
0.0
  0
LINE
  5
890
330
76
100
AcDbEntity
  8
LAYER01
  6
Continuous
 62
     7
100
AcDbLine
 10
824.6474610520053
 20
454.4799879156005
 30
0.0
 11
824.6474610520053
 21
461.9799879156005
 31
0.0
  0
LINE
  5
891
330
76
100
AcDbEntity
  8
LAYER01
  6
Continuous
 62
     7
100
AcDbLine
 10
824.6474610520053
 20
461.9799879156005
 30
0.0
 11
827.6474610520054
 21
461.9799879156005
 31
0.0
  0
LINE
  5
892
330
76
100
AcDbEntity
  8
LAYER01
  6
Continuous
 62
     7
100
AcDbLine
 10
-22.15614453622594
 20
461.9799879156005
 30
0.0
 11
-19.15511615875334
 21
461.9799879156005
 31
0.0
  0
LINE
  5
893
330
76
100
AcDbEntity
  8
LAYER01
  6
Continuous
 62
     7
100
AcDbLine
 10
827.6474610520054
 20
461.9799879156005
 30
0.0
 11
827.6474610520054
 21
466.9799879156005
 31
0.0
  0
LINE
  5
894
330
76
100
AcDbEntity
  8
LAYER01
  6
Continuous
 62
     7
100
AcDbLine
 10
26.14746105200513
 20
479.4799879156005
 30
0.0
 11
26.14746105200513
 21
471.9799879156005
 31
0.0
  0
LINE
  5
895
330
76
100
AcDbEntity
  8
LAYER01
  6
Continuous
 62
     7
100
AcDbLine
 10
29.14746105200514
 20
479.4799879156005
 30
0.0
 11
29.14746105200514
 21
471.9799879156005
 31
0.0
  0
LINE
  5
896
330
76
100
AcDbEntity
  8
LAYER01
  6
Continuous
 62
     7
100
AcDbLine
 10
26.14746105200513
 20
471.9799879156005
 30
0.0
 11
29.14746105200514
 21
471.9799879156005
 31
0.0
  0
LINE
  5
897
330
76
100
AcDbEntity
  8
LAYER01
  6
Continuous
 62
     7
100
AcDbLine
 10
76.14746105200509
 20
479.4799879156004
 30
0.0
 11
76.14746105200509
 21
471.9799879156004
 31
0.0
  0
LINE
  5
898
330
76
100
AcDbEntity
  8
LAYER01
  6
Continuous
 62
     7
100
AcDbLine
 10
79.1474610520051
 20
479.4799879156004
 30
0.0
 11
79.1474610520051
 21
471.9799879156004
 31
0.0
  0
LINE
  5
899
330
76
100
AcDbEntity
  8
LAYER01
  6
Continuous
 62
     7
100
AcDbLine
 10
76.14746105200509
 20
471.9799879156004
 30
0.0
 11
79.1474610520051
 21
471.9799879156004
 31
0.0
  0
LINE
  5
89A
330
76
100
AcDbEntity
  8
LAYER01
  6
Continuous
 62
     7
100
AcDbLine
 10
126.1474610520051
 20
479.494303971622
 30
0.0
 11
126.1474610520051
 21
471.994303971622
 31
0.0
  0
LINE
  5
89B
330
76
100
AcDbEntity
  8
LAYER01
  6
Continuous
 62
     7
100
AcDbLine
 10
129.1474610520051
 20
479.494303971622
 30
0.0
 11
129.1474610520051
 21
471.994303971622
 31
0.0
  0
LINE
  5
89C
330
76
100
AcDbEntity
  8
LAYER01
  6
Continuous
 62
     7
100
AcDbLine
 10
126.1474610520051
 20
471.994303971622
 30
0.0
 11
129.1474610520051
 21
471.994303971622
 31
0.0
  0
LINE
  5
89D
330
76
100
AcDbEntity
  8
LAYER01
  6
Continuous
 62
     7
100
AcDbLine
 10
176.1474610520051
 20
479.4939813944332
 30
0.0
 11
176.1474610520051
 21
471.9939813944332
 31
0.0
  0
LINE
  5
89E
330
76
100
AcDbEntity
  8
LAYER01
  6
Continuous
 62
     7
100
AcDbLine
 10
179.1474610520051
 20
479.4939813944332
 30
0.0
 11
179.1474610520051
 21
471.9939813944332
 31
0.0
  0
LINE
  5
89F
330
76
100
AcDbEntity
  8
LAYER01
  6
Continuous
 62
     7
100
AcDbLine
 10
176.1474610520051
 20
471.9939813944332
 30
0.0
 11
179.1474610520051
 21
471.9939813944332
 31
0.0
  0
LINE
  5
8A0
330
76
100
AcDbEntity
  8
LAYER01
  6
Continuous
 62
     7
100
AcDbLine
 10
241.1474610520051
 20
479.494303971622
 30
0.0
 11
241.1474610520051
 21
471.994303971622
 31
0.0
  0
LINE
  5
8A1
330
76
100
AcDbEntity
  8
LAYER01
  6
Continuous
 62
     7
100
AcDbLine
 10
244.1474610520052
 20
479.494303971622
 30
0.0
 11
244.1474610520052
 21
471.994303971622
 31
0.0
  0
LINE
  5
8A2
330
76
100
AcDbEntity
  8
LAYER01
  6
Continuous
 62
     7
100
AcDbLine
 10
241.1474610520051
 20
471.994303971622
 30
0.0
 11
244.1474610520052
 21
471.994303971622
 31
0.0
  0
LINE
  5
8A3
330
76
100
AcDbEntity
  8
LAYER01
  6
Continuous
 62
     7
100
AcDbLine
 10
306.1474610520053
 20
479.494303971622
 30
0.0
 11
306.1474610520053
 21
471.994303971622
 31
0.0
  0
LINE
  5
8A4
330
76
100
AcDbEntity
  8
LAYER01
  6
Continuous
 62
     7
100
AcDbLine
 10
309.1474610520053
 20
479.494303971622
 30
0.0
 11
309.1474610520053
 21
471.994303971622
 31
0.0
  0
LINE
  5
8A5
330
76
100
AcDbEntity
  8
LAYER01
  6
Continuous
 62
     7
100
AcDbLine
 10
306.1474610520053
 20
471.994303971622
 30
0.0
 11
309.1474610520053
 21
471.994303971622
 31
0.0
  0
LINE
  5
8A6
330
76
100
AcDbEntity
  8
LAYER01
  6
Continuous
 62
     7
100
AcDbLine
 10
371.147461052005
 20
479.494303971622
 30
0.0
 11
371.147461052005
 21
471.994303971622
 31
0.0
  0
LINE
  5
8A7
330
76
100
AcDbEntity
  8
LAYER01
  6
Continuous
 62
     7
100
AcDbLine
 10
374.1474610520051
 20
479.494303971622
 30
0.0
 11
374.1474610520051
 21
471.994303971622
 31
0.0
  0
LINE
  5
8A8
330
76
100
AcDbEntity
  8
LAYER01
  6
Continuous
 62
     7
100
AcDbLine
 10
371.147461052005
 20
471.994303971622
 30
0.0
 11
374.1474610520051
 21
471.994303971622
 31
0.0
  0
LINE
  5
8A9
330
76
100
AcDbEntity
  8
LAYER01
  6
Continuous
 62
     7
100
AcDbLine
 10
436.2706271642776
 20
479.494303971622
 30
0.0
 11
436.2706271642776
 21
471.994303971622
 31
0.0
  0
LINE
  5
8AA
330
76
100
AcDbEntity
  8
LAYER01
  6
Continuous
 62
     7
100
AcDbLine
 10
439.2706271642776
 20
479.494303971622
 30
0.0
 11
439.2706271642776
 21
471.994303971622
 31
0.0
  0
LINE
  5
8AB
330
76
100
AcDbEntity
  8
LAYER01
  6
Continuous
 62
     7
100
AcDbLine
 10
436.2706271642776
 20
471.994303971622
 30
0.0
 11
439.2706271642776
 21
471.994303971622
 31
0.0
  0
LINE
  5
8AC
330
76
100
AcDbEntity
  8
LAYER01
  6
Continuous
 62
     7
100
AcDbLine
 10
500.966602897098
 20
479.4799879156004
 30
0.0
 11
500.966602897098
 21
471.9799879156004
 31
0.0
  0
LINE
  5
8AD
330
76
100
AcDbEntity
  8
LAYER01
  6
Continuous
 62
     7
100
AcDbLine
 10
503.966602897098
 20
479.4799879156004
 30
0.0
 11
503.966602897098
 21
471.9799879156004
 31
0.0
  0
LINE
  5
8AE
330
76
100
AcDbEntity
  8
LAYER01
  6
Continuous
 62
     7
100
AcDbLine
 10
500.966602897098
 20
471.9799879156004
 30
0.0
 11
503.966602897098
 21
471.9799879156004
 31
0.0
  0
LINE
  5
8AF
330
76
100
AcDbEntity
  8
LAYER01
  6
Continuous
 62
     7
100
AcDbLine
 10
566.1474610520047
 20
479.494303971622
 30
0.0
 11
566.1474610520047
 21
471.994303971622
 31
0.0
  0
LINE
  5
8B0
330
76
100
AcDbEntity
  8
LAYER01
  6
Continuous
 62
     7
100
AcDbLine
 10
569.1474610520048
 20
479.494303971622
 30
0.0
 11
569.1474610520048
 21
471.994303971622
 31
0.0
  0
LINE
  5
8B1
330
76
100
AcDbEntity
  8
LAYER01
  6
Continuous
 62
     7
100
AcDbLine
 10
566.1474610520047
 20
471.994303971622
 30
0.0
 11
569.1474610520048
 21
471.994303971622
 31
0.0
  0
LINE
  5
8B2
330
76
100
AcDbEntity
  8
LAYER01
  6
Continuous
 62
     7
100
AcDbLine
 10
631.147461052005
 20
479.494303971622
 30
0.0
 11
631.147461052005
 21
471.994303971622
 31
0.0
  0
LINE
  5
8B3
330
76
100
AcDbEntity
  8
LAYER01
  6
Continuous
 62
     7
100
AcDbLine
 10
634.147461052005
 20
479.494303971622
 30
0.0
 11
634.147461052005
 21
471.994303971622
 31
0.0
  0
LINE
  5
8B4
330
76
100
AcDbEntity
  8
LAYER01
  6
Continuous
 62
     7
100
AcDbLine
 10
631.147461052005
 20
471.994303971622
 30
0.0
 11
634.147461052005
 21
471.994303971622
 31
0.0
  0
LINE
  5
8B5
330
76
100
AcDbEntity
  8
LAYER01
  6
Continuous
 62
     7
100
AcDbLine
 10
696.147461052005
 20
479.494303971622
 30
0.0
 11
696.147461052005
 21
471.994303971622
 31
0.0
  0
LINE
  5
8B6
330
76
100
AcDbEntity
  8
LAYER01
  6
Continuous
 62
     7
100
AcDbLine
 10
699.147461052005
 20
479.494303971622
 30
0.0
 11
699.147461052005
 21
471.994303971622
 31
0.0
  0
LINE
  5
8B7
330
76
100
AcDbEntity
  8
LAYER01
  6
Continuous
 62
     7
100
AcDbLine
 10
696.147461052005
 20
471.994303971622
 30
0.0
 11
699.147461052005
 21
471.994303971622
 31
0.0
  0
LINE
  5
8B8
330
76
100
AcDbEntity
  8
LAYER01
  6
Continuous
 62
     7
100
AcDbLine
 10
696.147461052005
 20
479.494303971622
 30
0.0
 11
696.147461052005
 21
471.994303971622
 31
0.0
  0
LINE
  5
8B9
330
76
100
AcDbEntity
  8
LAYER01
  6
Continuous
 62
     7
100
AcDbLine
 10
699.147461052005
 20
479.494303971622
 30
0.0
 11
699.147461052005
 21
471.994303971622
 31
0.0
  0
LINE
  5
8BA
330
76
100
AcDbEntity
  8
LAYER01
  6
Continuous
 62
     7
100
AcDbLine
 10
696.147461052005
 20
471.994303971622
 30
0.0
 11
699.147461052005
 21
471.994303971622
 31
0.0
  0
LINE
  5
8BB
330
76
100
AcDbEntity
  8
LAYER01
  6
Continuous
 62
     7
100
AcDbLine
 10
761.1474610520049
 20
479.494303971622
 30
0.0
 11
761.1474610520049
 21
471.994303971622
 31
0.0
  0
LINE
  5
8BC
330
76
100
AcDbEntity
  8
LAYER01
  6
Continuous
 62
     7
100
AcDbLine
 10
764.1474610520049
 20
479.494303971622
 30
0.0
 11
764.1474610520049
 21
471.994303971622
 31
0.0
  0
LINE
  5
8BD
330
76
100
AcDbEntity
  8
LAYER01
  6
Continuous
 62
     7
100
AcDbLine
 10
761.1474610520049
 20
471.994303971622
 30
0.0
 11
764.1474610520049
 21
471.994303971622
 31
0.0
  0
LINE
  5
8BE
330
76
100
AcDbEntity
  8
LAYER01
  6
Continuous
 62
     7
100
AcDbLine
 10
824.6474610520053
 20
479.4799879156005
 30
0.0
 11
824.6474610520053
 21
471.9799879156005
 31
0.0
  0
LINE
  5
8BF
330
76
100
AcDbEntity
  8
LAYER01
  6
Continuous
 62
     7
100
AcDbLine
 10
824.6474610520053
 20
471.9799879156005
 30
0.0
 11
827.6474610520054
 21
471.9799879156005
 31
0.0
  0
LINE
  5
8C0
330
76
100
AcDbEntity
  8
LAYER01
  6
Continuous
 62
     7
100
AcDbLine
 10
-21.89428532053407
 20
471.9799879156005
 30
0.0
 11
-18.89325694306146
 21
471.9799879156005
 31
0.0
  0
LINE
  5
8C1
330
76
100
AcDbEntity
  8
LAYER01
  6
Continuous
 62
     7
100
AcDbLine
 10
827.6474610520054
 20
471.9799879156005
 30
0.0
 11
827.6474610520054
 21
466.9799879156005
 31
0.0
  0
LINE
  5
8C2
330
76
100
AcDbEntity
  8
LAYER01
  6
Continuous
 62
     7
100
AcDbLine
 10
-19.35151057052224
 20
411.16635965387
 30
0.0
 11
824.6474610520055
 21
411.16635965387
 31
0.0
  0
LINE
  5
8C3
330
76
100
AcDbEntity
  8
LAYER01
  6
Continuous
 62
     7
100
AcDbLine
 10
824.6474610520053
 20
435.8663596538697
 30
0.0
 11
764.1474610520049
 21
435.8663596538699
 31
0.0
  0
LINE
  5
8C4
330
76
100
AcDbEntity
  8
LAYER01
  6
Continuous
 62
     7
100
AcDbLine
 10
761.1474610520048
 20
435.8663596538699
 30
0.0
 11
699.1474610520049
 21
435.8663596538696
 31
0.0
  0
LINE
  5
8C5
330
76
100
AcDbEntity
  8
LAYER01
  6
Continuous
 62
     7
100
AcDbLine
 10
696.1474610520049
 20
435.8663596538697
 30
0.0
 11
634.147461052005
 21
435.8663596538697
 31
0.0
  0
LINE
  5
8C6
330
76
100
AcDbEntity
  8
LAYER01
  6
Continuous
 62
     7
100
AcDbLine
 10
631.147461052005
 20
435.8663596538699
 30
0.0
 11
569.1474610520048
 21
435.8663596538699
 31
0.0
  0
LINE
  5
8C7
330
76
100
AcDbEntity
  8
LAYER01
  6
Continuous
 62
     7
100
AcDbLine
 10
566.1474610520047
 20
435.8663596538699
 30
0.0
 11
503.966602897098
 21
435.8663596538699
 31
0.0
  0
LINE
  5
8C8
330
76
100
AcDbEntity
  8
LAYER01
  6
Continuous
 62
     7
100
AcDbLine
 10
500.966602897098
 20
435.8663596538699
 30
0.0
 11
438.5206271642775
 21
435.8663596538699
 31
0.0
  0
LINE
  5
8C9
330
76
100
AcDbEntity
  8
LAYER01
  6
Continuous
 62
     7
100
AcDbLine
 10
437.0206271642776
 20
435.8663596538699
 30
0.0
 11
374.1474610520051
 21
435.8663596538701
 31
0.0
  0
LINE
  5
8CA
330
76
100
AcDbEntity
  8
LAYER01
  6
Continuous
 62
     7
100
AcDbLine
 10
371.147461052005
 20
435.8663596538701
 30
0.0
 11
309.1474610520053
 21
435.8663596538701
 31
0.0
  0
LINE
  5
8CB
330
76
100
AcDbEntity
  8
LAYER01
  6
Continuous
 62
     7
100
AcDbLine
 10
306.1474610520051
 20
435.8663596538701
 30
0.0
 11
244.1474610520052
 21
435.86635965387
 31
0.0
  0
LINE
  5
8CC
330
76
100
AcDbEntity
  8
LAYER01
  6
Continuous
 62
     7
100
AcDbLine
 10
241.1474610520051
 20
435.8663596538701
 30
0.0
 11
179.1474610520051
 21
435.8663596538699
 31
0.0
  0
LINE
  5
8CD
330
76
100
AcDbEntity
  8
LAYER01
  6
Continuous
 62
     7
100
AcDbLine
 10
176.1474610520051
 20
435.8663596538699
 30
0.0
 11
129.1474610520051
 21
435.8663596538699
 31
0.0
  0
LINE
  5
8CE
330
76
100
AcDbEntity
  8
LAYER01
  6
Continuous
 62
     7
100
AcDbLine
 10
126.1474610520051
 20
435.8663596538699
 30
0.0
 11
79.14746105200511
 21
435.8663596538699
 31
0.0
  0
LINE
  5
8CF
330
76
100
AcDbEntity
  8
LAYER01
  6
Continuous
 62
     7
100
AcDbLine
 10
76.14746105200511
 20
435.8663596538699
 30
0.0
 11
29.14746105200515
 21
435.8663596538699
 31
0.0
  0
LINE
  5
8D0
330
76
100
AcDbEntity
  8
LAYER01
  6
Continuous
 62
     7
100
AcDbLine
 10
26.14746105200515
 20
435.8663596538699
 30
0.0
 11
-18.70471830776332
 21
435.8663596538697
 31
0.0
  0
LINE
  5
8D1
330
76
100
AcDbEntity
  8
LAYER01
  6
Continuous
 62
     7
100
AcDbLine
 10
-21.89428532053407
 20
428.66635965387
 30
0.0
 11
-22.15614453622594
 21
418.66635965387
 31
0.0
  0
LINE
  5
8D2
330
76
100
AcDbEntity
  8
LAYER01
  6
Continuous
 62
     7
100
AcDbLine
 10
-18.70471830776331
 20
435.8663596538697
 30
0.0
 11
-18.89325694306146
 21
428.66635965387
 31
0.0
  0
LINE
  5
8D3
330
76
100
AcDbEntity
  8
LAYER01
  6
Continuous
 62
     7
100
AcDbLine
 10
-19.15511615875334
 20
418.66635965387
 30
0.0
 11
-19.35151057052224
 21
411.1663596538701
 31
0.0
  0
LINE
  5
8D4
330
76
100
AcDbEntity
  8
LAYER01
  6
Continuous
 62
     7
100
AcDbLine
 10
26.14746105200513
 20
411.16635965387
 30
0.0
 11
26.14746105200513
 21
418.66635965387
 31
0.0
  0
LINE
  5
8D5
330
76
100
AcDbEntity
  8
LAYER01
  6
Continuous
 62
     7
100
AcDbLine
 10
29.14746105200514
 20
411.16635965387
 30
0.0
 11
29.14746105200514
 21
418.66635965387
 31
0.0
  0
LINE
  5
8D6
330
76
100
AcDbEntity
  8
LAYER01
  6
Continuous
 62
     7
100
AcDbLine
 10
26.14746105200513
 20
418.66635965387
 30
0.0
 11
29.14746105200514
 21
418.66635965387
 31
0.0
  0
LINE
  5
8D7
330
76
100
AcDbEntity
  8
LAYER01
  6
Continuous
 62
     7
100
AcDbLine
 10
76.14746105200509
 20
411.1663596538701
 30
0.0
 11
76.14746105200509
 21
418.6663596538701
 31
0.0
  0
LINE
  5
8D8
330
76
100
AcDbEntity
  8
LAYER01
  6
Continuous
 62
     7
100
AcDbLine
 10
79.1474610520051
 20
411.1663596538701
 30
0.0
 11
79.1474610520051
 21
418.6663596538701
 31
0.0
  0
LINE
  5
8D9
330
76
100
AcDbEntity
  8
LAYER01
  6
Continuous
 62
     7
100
AcDbLine
 10
76.14746105200509
 20
418.6663596538701
 30
0.0
 11
79.1474610520051
 21
418.6663596538701
 31
0.0
  0
LINE
  5
8DA
330
76
100
AcDbEntity
  8
LAYER01
  6
Continuous
 62
     7
100
AcDbLine
 10
126.1474610520051
 20
411.1520435978485
 30
0.0
 11
126.1474610520051
 21
418.6520435978485
 31
0.0
  0
LINE
  5
8DB
330
76
100
AcDbEntity
  8
LAYER01
  6
Continuous
 62
     7
100
AcDbLine
 10
129.1474610520051
 20
411.1520435978485
 30
0.0
 11
129.1474610520051
 21
418.6520435978485
 31
0.0
  0
LINE
  5
8DC
330
76
100
AcDbEntity
  8
LAYER01
  6
Continuous
 62
     7
100
AcDbLine
 10
126.1474610520051
 20
418.6520435978485
 30
0.0
 11
129.1474610520051
 21
418.6520435978485
 31
0.0
  0
LINE
  5
8DD
330
76
100
AcDbEntity
  8
LAYER01
  6
Continuous
 62
     7
100
AcDbLine
 10
176.1474610520051
 20
411.1523661750372
 30
0.0
 11
176.1474610520051
 21
418.6523661750372
 31
0.0
  0
LINE
  5
8DE
330
76
100
AcDbEntity
  8
LAYER01
  6
Continuous
 62
     7
100
AcDbLine
 10
179.1474610520051
 20
411.1523661750372
 30
0.0
 11
179.1474610520051
 21
418.6523661750372
 31
0.0
  0
LINE
  5
8DF
330
76
100
AcDbEntity
  8
LAYER01
  6
Continuous
 62
     7
100
AcDbLine
 10
176.1474610520051
 20
418.6523661750372
 30
0.0
 11
179.1474610520051
 21
418.6523661750372
 31
0.0
  0
LINE
  5
8E0
330
76
100
AcDbEntity
  8
LAYER01
  6
Continuous
 62
     7
100
AcDbLine
 10
241.1474610520051
 20
411.1520435978485
 30
0.0
 11
241.1474610520051
 21
418.6520435978485
 31
0.0
  0
LINE
  5
8E1
330
76
100
AcDbEntity
  8
LAYER01
  6
Continuous
 62
     7
100
AcDbLine
 10
244.1474610520052
 20
411.1520435978485
 30
0.0
 11
244.1474610520052
 21
418.6520435978485
 31
0.0
  0
LINE
  5
8E2
330
76
100
AcDbEntity
  8
LAYER01
  6
Continuous
 62
     7
100
AcDbLine
 10
241.1474610520051
 20
418.6520435978485
 30
0.0
 11
244.1474610520052
 21
418.6520435978485
 31
0.0
  0
LINE
  5
8E3
330
76
100
AcDbEntity
  8
LAYER01
  6
Continuous
 62
     7
100
AcDbLine
 10
306.1474610520053
 20
411.1520435978485
 30
0.0
 11
306.1474610520053
 21
418.6520435978485
 31
0.0
  0
LINE
  5
8E4
330
76
100
AcDbEntity
  8
LAYER01
  6
Continuous
 62
     7
100
AcDbLine
 10
309.1474610520053
 20
411.1520435978485
 30
0.0
 11
309.1474610520053
 21
418.6520435978485
 31
0.0
  0
LINE
  5
8E5
330
76
100
AcDbEntity
  8
LAYER01
  6
Continuous
 62
     7
100
AcDbLine
 10
306.1474610520053
 20
418.6520435978485
 30
0.0
 11
309.1474610520053
 21
418.6520435978485
 31
0.0
  0
LINE
  5
8E6
330
76
100
AcDbEntity
  8
LAYER01
  6
Continuous
 62
     7
100
AcDbLine
 10
371.147461052005
 20
411.1520435978485
 30
0.0
 11
371.147461052005
 21
418.6520435978485
 31
0.0
  0
LINE
  5
8E7
330
76
100
AcDbEntity
  8
LAYER01
  6
Continuous
 62
     7
100
AcDbLine
 10
374.1474610520051
 20
411.1520435978485
 30
0.0
 11
374.1474610520051
 21
418.6520435978485
 31
0.0
  0
LINE
  5
8E8
330
76
100
AcDbEntity
  8
LAYER01
  6
Continuous
 62
     7
100
AcDbLine
 10
371.147461052005
 20
418.6520435978485
 30
0.0
 11
374.1474610520051
 21
418.6520435978485
 31
0.0
  0
LINE
  5
8E9
330
76
100
AcDbEntity
  8
LAYER01
  6
Continuous
 62
     7
100
AcDbLine
 10
436.2706271642776
 20
411.1520435978485
 30
0.0
 11
436.2706271642776
 21
418.6520435978485
 31
0.0
  0
LINE
  5
8EA
330
76
100
AcDbEntity
  8
LAYER01
  6
Continuous
 62
     7
100
AcDbLine
 10
439.2706271642776
 20
411.1520435978485
 30
0.0
 11
439.2706271642776
 21
418.6520435978485
 31
0.0
  0
LINE
  5
8EB
330
76
100
AcDbEntity
  8
LAYER01
  6
Continuous
 62
     7
100
AcDbLine
 10
436.2706271642776
 20
418.6520435978485
 30
0.0
 11
439.2706271642776
 21
418.6520435978485
 31
0.0
  0
LINE
  5
8EC
330
76
100
AcDbEntity
  8
LAYER01
  6
Continuous
 62
     7
100
AcDbLine
 10
500.966602897098
 20
411.1663596538701
 30
0.0
 11
500.966602897098
 21
418.6663596538701
 31
0.0
  0
LINE
  5
8ED
330
76
100
AcDbEntity
  8
LAYER01
  6
Continuous
 62
     7
100
AcDbLine
 10
503.966602897098
 20
411.1663596538701
 30
0.0
 11
503.966602897098
 21
418.6663596538701
 31
0.0
  0
LINE
  5
8EE
330
76
100
AcDbEntity
  8
LAYER01
  6
Continuous
 62
     7
100
AcDbLine
 10
500.966602897098
 20
418.6663596538701
 30
0.0
 11
503.966602897098
 21
418.6663596538701
 31
0.0
  0
LINE
  5
8EF
330
76
100
AcDbEntity
  8
LAYER01
  6
Continuous
 62
     7
100
AcDbLine
 10
566.1474610520047
 20
411.1520435978485
 30
0.0
 11
566.1474610520047
 21
418.6520435978485
 31
0.0
  0
LINE
  5
8F0
330
76
100
AcDbEntity
  8
LAYER01
  6
Continuous
 62
     7
100
AcDbLine
 10
569.1474610520048
 20
411.1520435978485
 30
0.0
 11
569.1474610520048
 21
418.6520435978485
 31
0.0
  0
LINE
  5
8F1
330
76
100
AcDbEntity
  8
LAYER01
  6
Continuous
 62
     7
100
AcDbLine
 10
566.1474610520047
 20
418.6520435978485
 30
0.0
 11
569.1474610520048
 21
418.6520435978485
 31
0.0
  0
LINE
  5
8F2
330
76
100
AcDbEntity
  8
LAYER01
  6
Continuous
 62
     7
100
AcDbLine
 10
631.147461052005
 20
411.1520435978485
 30
0.0
 11
631.147461052005
 21
418.6520435978485
 31
0.0
  0
LINE
  5
8F3
330
76
100
AcDbEntity
  8
LAYER01
  6
Continuous
 62
     7
100
AcDbLine
 10
634.147461052005
 20
411.1520435978485
 30
0.0
 11
634.147461052005
 21
418.6520435978485
 31
0.0
  0
LINE
  5
8F4
330
76
100
AcDbEntity
  8
LAYER01
  6
Continuous
 62
     7
100
AcDbLine
 10
631.147461052005
 20
418.6520435978485
 30
0.0
 11
634.147461052005
 21
418.6520435978485
 31
0.0
  0
LINE
  5
8F5
330
76
100
AcDbEntity
  8
LAYER01
  6
Continuous
 62
     7
100
AcDbLine
 10
696.147461052005
 20
411.1520435978485
 30
0.0
 11
696.147461052005
 21
418.6520435978485
 31
0.0
  0
LINE
  5
8F6
330
76
100
AcDbEntity
  8
LAYER01
  6
Continuous
 62
     7
100
AcDbLine
 10
699.147461052005
 20
411.1520435978485
 30
0.0
 11
699.147461052005
 21
418.6520435978485
 31
0.0
  0
LINE
  5
8F7
330
76
100
AcDbEntity
  8
LAYER01
  6
Continuous
 62
     7
100
AcDbLine
 10
696.147461052005
 20
418.6520435978485
 30
0.0
 11
699.147461052005
 21
418.6520435978485
 31
0.0
  0
LINE
  5
8F8
330
76
100
AcDbEntity
  8
LAYER01
  6
Continuous
 62
     7
100
AcDbLine
 10
696.147461052005
 20
411.1520435978485
 30
0.0
 11
696.147461052005
 21
418.6520435978485
 31
0.0
  0
LINE
  5
8F9
330
76
100
AcDbEntity
  8
LAYER01
  6
Continuous
 62
     7
100
AcDbLine
 10
699.147461052005
 20
411.1520435978485
 30
0.0
 11
699.147461052005
 21
418.6520435978485
 31
0.0
  0
LINE
  5
8FA
330
76
100
AcDbEntity
  8
LAYER01
  6
Continuous
 62
     7
100
AcDbLine
 10
696.147461052005
 20
418.6520435978485
 30
0.0
 11
699.147461052005
 21
418.6520435978485
 31
0.0
  0
LINE
  5
8FB
330
76
100
AcDbEntity
  8
LAYER01
  6
Continuous
 62
     7
100
AcDbLine
 10
761.1474610520049
 20
411.1520435978485
 30
0.0
 11
761.1474610520049
 21
418.6520435978485
 31
0.0
  0
LINE
  5
8FC
330
76
100
AcDbEntity
  8
LAYER01
  6
Continuous
 62
     7
100
AcDbLine
 10
764.1474610520049
 20
411.1520435978485
 30
0.0
 11
764.1474610520049
 21
418.6520435978485
 31
0.0
  0
LINE
  5
8FD
330
76
100
AcDbEntity
  8
LAYER01
  6
Continuous
 62
     7
100
AcDbLine
 10
761.1474610520049
 20
418.6520435978485
 30
0.0
 11
764.1474610520049
 21
418.6520435978485
 31
0.0
  0
LINE
  5
8FE
330
76
100
AcDbEntity
  8
LAYER01
  6
Continuous
 62
     7
100
AcDbLine
 10
824.6474610520053
 20
411.16635965387
 30
0.0
 11
824.6474610520053
 21
418.66635965387
 31
0.0
  0
LINE
  5
8FF
330
76
100
AcDbEntity
  8
LAYER01
  6
Continuous
 62
     7
100
AcDbLine
 10
824.6474610520053
 20
418.66635965387
 30
0.0
 11
827.6474610520054
 21
418.66635965387
 31
0.0
  0
LINE
  5
900
330
76
100
AcDbEntity
  8
LAYER01
  6
Continuous
 62
     7
100
AcDbLine
 10
-22.15614453622594
 20
418.66635965387
 30
0.0
 11
-19.15511615875334
 21
418.66635965387
 31
0.0
  0
LINE
  5
901
330
76
100
AcDbEntity
  8
LAYER01
  6
Continuous
 62
     7
100
AcDbLine
 10
827.6474610520054
 20
418.66635965387
 30
0.0
 11
827.6474610520054
 21
423.66635965387
 31
0.0
  0
LINE
  5
902
330
76
100
AcDbEntity
  8
LAYER01
  6
Continuous
 62
     7
100
AcDbLine
 10
26.14746105200513
 20
436.16635965387
 30
0.0
 11
26.14746105200513
 21
428.66635965387
 31
0.0
  0
LINE
  5
903
330
76
100
AcDbEntity
  8
LAYER01
  6
Continuous
 62
     7
100
AcDbLine
 10
29.14746105200514
 20
436.16635965387
 30
0.0
 11
29.14746105200514
 21
428.66635965387
 31
0.0
  0
LINE
  5
904
330
76
100
AcDbEntity
  8
LAYER01
  6
Continuous
 62
     7
100
AcDbLine
 10
26.14746105200513
 20
428.66635965387
 30
0.0
 11
29.14746105200514
 21
428.66635965387
 31
0.0
  0
LINE
  5
905
330
76
100
AcDbEntity
  8
LAYER01
  6
Continuous
 62
     7
100
AcDbLine
 10
76.14746105200509
 20
436.1663596538699
 30
0.0
 11
76.14746105200509
 21
428.6663596538699
 31
0.0
  0
LINE
  5
906
330
76
100
AcDbEntity
  8
LAYER01
  6
Continuous
 62
     7
100
AcDbLine
 10
79.1474610520051
 20
436.1663596538699
 30
0.0
 11
79.1474610520051
 21
428.6663596538699
 31
0.0
  0
LINE
  5
907
330
76
100
AcDbEntity
  8
LAYER01
  6
Continuous
 62
     7
100
AcDbLine
 10
76.14746105200509
 20
428.6663596538699
 30
0.0
 11
79.1474610520051
 21
428.6663596538699
 31
0.0
  0
LINE
  5
908
330
76
100
AcDbEntity
  8
LAYER01
  6
Continuous
 62
     7
100
AcDbLine
 10
126.1474610520051
 20
436.1806757098914
 30
0.0
 11
126.1474610520051
 21
428.6806757098914
 31
0.0
  0
LINE
  5
909
330
76
100
AcDbEntity
  8
LAYER01
  6
Continuous
 62
     7
100
AcDbLine
 10
129.1474610520051
 20
436.1806757098914
 30
0.0
 11
129.1474610520051
 21
428.6806757098914
 31
0.0
  0
LINE
  5
90A
330
76
100
AcDbEntity
  8
LAYER01
  6
Continuous
 62
     7
100
AcDbLine
 10
126.1474610520051
 20
428.6806757098914
 30
0.0
 11
129.1474610520051
 21
428.6806757098914
 31
0.0
  0
LINE
  5
90B
330
76
100
AcDbEntity
  8
LAYER01
  6
Continuous
 62
     7
100
AcDbLine
 10
176.1474610520051
 20
436.1803531327027
 30
0.0
 11
176.1474610520051
 21
428.6803531327027
 31
0.0
  0
LINE
  5
90C
330
76
100
AcDbEntity
  8
LAYER01
  6
Continuous
 62
     7
100
AcDbLine
 10
179.1474610520051
 20
436.1803531327027
 30
0.0
 11
179.1474610520051
 21
428.6803531327027
 31
0.0
  0
LINE
  5
90D
330
76
100
AcDbEntity
  8
LAYER01
  6
Continuous
 62
     7
100
AcDbLine
 10
176.1474610520051
 20
428.6803531327027
 30
0.0
 11
179.1474610520051
 21
428.6803531327027
 31
0.0
  0
LINE
  5
90E
330
76
100
AcDbEntity
  8
LAYER01
  6
Continuous
 62
     7
100
AcDbLine
 10
241.1474610520051
 20
436.1806757098914
 30
0.0
 11
241.1474610520051
 21
428.6806757098914
 31
0.0
  0
LINE
  5
90F
330
76
100
AcDbEntity
  8
LAYER01
  6
Continuous
 62
     7
100
AcDbLine
 10
244.1474610520052
 20
436.1806757098914
 30
0.0
 11
244.1474610520052
 21
428.6806757098914
 31
0.0
  0
LINE
  5
910
330
76
100
AcDbEntity
  8
LAYER01
  6
Continuous
 62
     7
100
AcDbLine
 10
241.1474610520051
 20
428.6806757098914
 30
0.0
 11
244.1474610520052
 21
428.6806757098914
 31
0.0
  0
LINE
  5
911
330
76
100
AcDbEntity
  8
LAYER01
  6
Continuous
 62
     7
100
AcDbLine
 10
306.1474610520053
 20
436.1806757098914
 30
0.0
 11
306.1474610520053
 21
428.6806757098914
 31
0.0
  0
LINE
  5
912
330
76
100
AcDbEntity
  8
LAYER01
  6
Continuous
 62
     7
100
AcDbLine
 10
309.1474610520053
 20
436.1806757098914
 30
0.0
 11
309.1474610520053
 21
428.6806757098914
 31
0.0
  0
LINE
  5
913
330
76
100
AcDbEntity
  8
LAYER01
  6
Continuous
 62
     7
100
AcDbLine
 10
306.1474610520053
 20
428.6806757098914
 30
0.0
 11
309.1474610520053
 21
428.6806757098914
 31
0.0
  0
LINE
  5
914
330
76
100
AcDbEntity
  8
LAYER01
  6
Continuous
 62
     7
100
AcDbLine
 10
371.147461052005
 20
436.1806757098914
 30
0.0
 11
371.147461052005
 21
428.6806757098914
 31
0.0
  0
LINE
  5
915
330
76
100
AcDbEntity
  8
LAYER01
  6
Continuous
 62
     7
100
AcDbLine
 10
374.1474610520051
 20
436.1806757098914
 30
0.0
 11
374.1474610520051
 21
428.6806757098914
 31
0.0
  0
LINE
  5
916
330
76
100
AcDbEntity
  8
LAYER01
  6
Continuous
 62
     7
100
AcDbLine
 10
371.147461052005
 20
428.6806757098914
 30
0.0
 11
374.1474610520051
 21
428.6806757098914
 31
0.0
  0
LINE
  5
917
330
76
100
AcDbEntity
  8
LAYER01
  6
Continuous
 62
     7
100
AcDbLine
 10
436.2706271642776
 20
436.1806757098914
 30
0.0
 11
436.2706271642776
 21
428.6806757098914
 31
0.0
  0
LINE
  5
918
330
76
100
AcDbEntity
  8
LAYER01
  6
Continuous
 62
     7
100
AcDbLine
 10
439.2706271642776
 20
436.1806757098914
 30
0.0
 11
439.2706271642776
 21
428.6806757098914
 31
0.0
  0
LINE
  5
919
330
76
100
AcDbEntity
  8
LAYER01
  6
Continuous
 62
     7
100
AcDbLine
 10
436.2706271642776
 20
428.6806757098914
 30
0.0
 11
439.2706271642776
 21
428.6806757098914
 31
0.0
  0
LINE
  5
91A
330
76
100
AcDbEntity
  8
LAYER01
  6
Continuous
 62
     7
100
AcDbLine
 10
500.966602897098
 20
436.1663596538699
 30
0.0
 11
500.966602897098
 21
428.6663596538699
 31
0.0
  0
LINE
  5
91B
330
76
100
AcDbEntity
  8
LAYER01
  6
Continuous
 62
     7
100
AcDbLine
 10
503.966602897098
 20
436.1663596538699
 30
0.0
 11
503.966602897098
 21
428.6663596538699
 31
0.0
  0
LINE
  5
91C
330
76
100
AcDbEntity
  8
LAYER01
  6
Continuous
 62
     7
100
AcDbLine
 10
500.966602897098
 20
428.6663596538699
 30
0.0
 11
503.966602897098
 21
428.6663596538699
 31
0.0
  0
LINE
  5
91D
330
76
100
AcDbEntity
  8
LAYER01
  6
Continuous
 62
     7
100
AcDbLine
 10
566.1474610520047
 20
436.1806757098914
 30
0.0
 11
566.1474610520047
 21
428.6806757098914
 31
0.0
  0
LINE
  5
91E
330
76
100
AcDbEntity
  8
LAYER01
  6
Continuous
 62
     7
100
AcDbLine
 10
569.1474610520048
 20
436.1806757098914
 30
0.0
 11
569.1474610520048
 21
428.6806757098914
 31
0.0
  0
LINE
  5
91F
330
76
100
AcDbEntity
  8
LAYER01
  6
Continuous
 62
     7
100
AcDbLine
 10
566.1474610520047
 20
428.6806757098914
 30
0.0
 11
569.1474610520048
 21
428.6806757098914
 31
0.0
  0
LINE
  5
920
330
76
100
AcDbEntity
  8
LAYER01
  6
Continuous
 62
     7
100
AcDbLine
 10
631.147461052005
 20
436.1806757098914
 30
0.0
 11
631.147461052005
 21
428.6806757098914
 31
0.0
  0
LINE
  5
921
330
76
100
AcDbEntity
  8
LAYER01
  6
Continuous
 62
     7
100
AcDbLine
 10
634.147461052005
 20
436.1806757098914
 30
0.0
 11
634.147461052005
 21
428.6806757098914
 31
0.0
  0
LINE
  5
922
330
76
100
AcDbEntity
  8
LAYER01
  6
Continuous
 62
     7
100
AcDbLine
 10
631.147461052005
 20
428.6806757098914
 30
0.0
 11
634.147461052005
 21
428.6806757098914
 31
0.0
  0
LINE
  5
923
330
76
100
AcDbEntity
  8
LAYER01
  6
Continuous
 62
     7
100
AcDbLine
 10
696.147461052005
 20
436.1806757098914
 30
0.0
 11
696.147461052005
 21
428.6806757098914
 31
0.0
  0
LINE
  5
924
330
76
100
AcDbEntity
  8
LAYER01
  6
Continuous
 62
     7
100
AcDbLine
 10
699.147461052005
 20
436.1806757098914
 30
0.0
 11
699.147461052005
 21
428.6806757098914
 31
0.0
  0
LINE
  5
925
330
76
100
AcDbEntity
  8
LAYER01
  6
Continuous
 62
     7
100
AcDbLine
 10
696.147461052005
 20
428.6806757098914
 30
0.0
 11
699.147461052005
 21
428.6806757098914
 31
0.0
  0
LINE
  5
926
330
76
100
AcDbEntity
  8
LAYER01
  6
Continuous
 62
     7
100
AcDbLine
 10
696.147461052005
 20
436.1806757098914
 30
0.0
 11
696.147461052005
 21
428.6806757098914
 31
0.0
  0
LINE
  5
927
330
76
100
AcDbEntity
  8
LAYER01
  6
Continuous
 62
     7
100
AcDbLine
 10
699.147461052005
 20
436.1806757098914
 30
0.0
 11
699.147461052005
 21
428.6806757098914
 31
0.0
  0
LINE
  5
928
330
76
100
AcDbEntity
  8
LAYER01
  6
Continuous
 62
     7
100
AcDbLine
 10
696.147461052005
 20
428.6806757098914
 30
0.0
 11
699.147461052005
 21
428.6806757098914
 31
0.0
  0
LINE
  5
929
330
76
100
AcDbEntity
  8
LAYER01
  6
Continuous
 62
     7
100
AcDbLine
 10
761.1474610520049
 20
436.1806757098914
 30
0.0
 11
761.1474610520049
 21
428.6806757098914
 31
0.0
  0
LINE
  5
92A
330
76
100
AcDbEntity
  8
LAYER01
  6
Continuous
 62
     7
100
AcDbLine
 10
764.1474610520049
 20
436.1806757098914
 30
0.0
 11
764.1474610520049
 21
428.6806757098914
 31
0.0
  0
LINE
  5
92B
330
76
100
AcDbEntity
  8
LAYER01
  6
Continuous
 62
     7
100
AcDbLine
 10
761.1474610520049
 20
428.6806757098914
 30
0.0
 11
764.1474610520049
 21
428.6806757098914
 31
0.0
  0
LINE
  5
92C
330
76
100
AcDbEntity
  8
LAYER01
  6
Continuous
 62
     7
100
AcDbLine
 10
824.6474610520053
 20
436.16635965387
 30
0.0
 11
824.6474610520053
 21
428.66635965387
 31
0.0
  0
LINE
  5
92D
330
76
100
AcDbEntity
  8
LAYER01
  6
Continuous
 62
     7
100
AcDbLine
 10
824.6474610520053
 20
428.66635965387
 30
0.0
 11
827.6474610520054
 21
428.66635965387
 31
0.0
  0
LINE
  5
92E
330
76
100
AcDbEntity
  8
LAYER01
  6
Continuous
 62
     7
100
AcDbLine
 10
-21.89428532053407
 20
428.66635965387
 30
0.0
 11
-18.89325694306146
 21
428.66635965387
 31
0.0
  0
LINE
  5
92F
330
76
100
AcDbEntity
  8
LAYER01
  6
Continuous
 62
     7
100
AcDbLine
 10
827.6474610520054
 20
428.66635965387
 30
0.0
 11
827.6474610520054
 21
423.66635965387
 31
0.0
  0
ENDSEC
  0
SECTION
  2
OBJECTS
  0
DICTIONARY
  5
C
330
0
100
AcDbDictionary
281
     1
  3
ACAD_COLOR
350
6D
  3
ACAD_GROUP
350
D
  3
ACAD_LAYOUT
350
6C
  3
ACAD_MATERIAL
350
10
  3
ACAD_MLEADERSTYLE
350
70
  3
ACAD_MLINESTYLE
350
69
  3
ACAD_PLOTSETTINGS
350
6B
  3
ACAD_PLOTSTYLENAME
350
E
  3
ACAD_SCALELIST
350
3D
  3
ACAD_TABLESTYLE
350
6E
  3
ACAD_VISUALSTYLE
350
29
  3
ACDB_RECOMPOSE_DATA
350
952
  3
AcDbVariableDictionary
350
948
  0
DICTIONARY
  5
930
330
5F
100
AcDbDictionary
280
     1
281
     1
  3
ADSK_XREC_LAYER_RECONCILED
360
931
  0
DICTIONARY
  5
932
330
7A
100
AcDbDictionary
280
     1
281
     1
  3
ADSK_XREC_LAYER_RECONCILED
360
933
  0
DICTIONARY
  5
934
330
85
100
AcDbDictionary
280
     1
281
     1
  3
ADSK_XREC_LAYER_RECONCILED
360
935
  0
DICTIONARY
  5
936
330
86
100
AcDbDictionary
280
     1
281
     1
  3
ADSK_XREC_LAYER_RECONCILED
360
937
  0
DICTIONARY
  5
938
330
87
100
AcDbDictionary
280
     1
281
     1
  3
ADSK_XREC_LAYER_RECONCILED
360
939
  0
DICTIONARY
  5
93A
330
88
100
AcDbDictionary
280
     1
281
     1
  3
ADSK_XREC_LAYER_RECONCILED
360
93B
  0
DICTIONARY
  5
93C
330
89
100
AcDbDictionary
280
     1
281
     1
  3
ADSK_XREC_LAYER_RECONCILED
360
93D
  0
DICTIONARY
  5
93E
330
8A
100
AcDbDictionary
280
     1
281
     1
  3
ADSK_XREC_LAYER_RECONCILED
360
93F
  0
DICTIONARY
  5
940
330
8B
100
AcDbDictionary
280
     1
281
     1
  3
ADSK_XREC_LAYER_RECONCILED
360
941
  0
DICTIONARY
  5
942
330
8C
100
AcDbDictionary
280
     1
281
     1
  3
ADSK_XREC_LAYER_RECONCILED
360
943
  0
DICTIONARY
  5
944
330
8D
100
AcDbDictionary
280
     1
281
     1
  3
ADSK_XREC_LAYER_RECONCILED
360
945
  0
DICTIONARY
  5
946
330
90
100
AcDbDictionary
280
     1
281
     1
  3
ADSK_XREC_LAYER_RECONCILED
360
947
  0
DICTIONARY
  5
6D
102
{ACAD_REACTORS
330
C
102
}
330
C
100
AcDbDictionary
281
     1
  0
DICTIONARY
  5
D
102
{ACAD_REACTORS
330
C
102
}
330
C
100
AcDbDictionary
281
     1
  0
DICTIONARY
  5
6C
102
{ACAD_REACTORS
330
C
102
}
330
C
100
AcDbDictionary
281
     1
  3
Layout1
350
75
  3
Model
350
79
  0
DICTIONARY
  5
10
102
{ACAD_REACTORS
330
C
102
}
330
C
100
AcDbDictionary
281
     1
  3
ByBlock
350
19
  3
ByLayer
350
11
  3
Global
350
21
  0
DICTIONARY
  5
70
102
{ACAD_REACTORS
330
C
102
}
330
C
100
AcDbDictionary
281
     1
  3
Standard
350
71
  0
DICTIONARY
  5
69
102
{ACAD_REACTORS
330
C
102
}
330
C
100
AcDbDictionary
281
     1
  3
Standard
350
6A
  0
DICTIONARY
  5
6B
102
{ACAD_REACTORS
330
C
102
}
330
C
100
AcDbDictionary
281
     1
  0
ACDBDICTIONARYWDFLT
  5
E
102
{ACAD_REACTORS
330
C
102
}
330
C
100
AcDbDictionary
281
     1
  3
Normal
350
F
100
AcDbDictionaryWithDefault
340
F
  0
DICTIONARY
  5
3D
102
{ACAD_REACTORS
330
C
102
}
330
C
100
AcDbDictionary
281
     1
  3
A0
350
3E
  3
A1
350
3F
  3
A2
350
40
  3
A3
350
41
  3
A4
350
42
  3
A5
350
43
  3
A6
350
44
  3
A7
350
45
  3
A8
350
46
  3
A9
350
47
  3
B0
350
48
  3
B1
350
49
  3
B2
350
4A
  3
B3
350
4B
  3
B4
350
4C
  3
B5
350
4D
  3
B6
350
4E
  3
B7
350
4F
  3
B8
350
50
  3
B9
350
51
  3
C0
350
52
  3
C1
350
53
  3
C2
350
54
  3
C3
350
55
  3
C4
350
56
  3
C5
350
57
  3
C6
350
58
  3
C7
350
59
  3
C8
350
5A
  3
C9
350
5B
  3
D0
350
5C
  3
D1
350
5D
  3
D2
350
5E
  0
DICTIONARY
  5
6E
102
{ACAD_REACTORS
330
C
102
}
330
C
100
AcDbDictionary
281
     1
  3
Standard
350
6F
  0
DICTIONARY
  5
29
102
{ACAD_REACTORS
330
C
102
}
330
C
100
AcDbDictionary
281
     1
  3
2dWireframe
350
2F
  3
3D Hidden
350
31
  3
3dWireframe
350
30
  3
Basic
350
2E
  3
Brighten
350
35
  3
ColorChange
350
39
  3
Conceptual
350
32
  3
Dim
350
34
  3
EdgeColorOff
350
3C
  3
Facepattern
350
38
  3
Flat
350
2A
  3
FlatWithEdges
350
2B
  3
Gouraud
350
2C
  3
GouraudWithEdges
350
2D
  3
JitterOff
350
3A
  3
Linepattern
350
37
  3
OverhangOff
350
3B
  3
Realistic
350
33
  3
Thicken
350
36
  0
XRECORD
  5
952
102
{ACAD_REACTORS
330
C
102
}
330
C
100
AcDbXrecord
280
     1
 90
        1
330
6F
  0
DICTIONARY
  5
948
102
{ACAD_REACTORS
330
C
102
}
330
C
100
AcDbDictionary
281
     1
  3
CANNOSCALE
350
94C
  3
CMLEADERSTYLE
350
94A
  3
CTABLESTYLE
350
949
  3
LAYEREVAL
350
94E
  3
LAYERNOTIFY
350
94F
  3
LIGHTINGUNITS
350
94D
  3
MSLTSCALE
350
94B
  0
XRECORD
  5
931
102
{ACAD_REACTORS
330
930
102
}
330
930
100
AcDbXrecord
280
     1
290
     1
  0
XRECORD
  5
933
102
{ACAD_REACTORS
330
932
102
}
330
932
100
AcDbXrecord
280
     1
290
     1
  0
XRECORD
  5
935
102
{ACAD_REACTORS
330
934
102
}
330
934
100
AcDbXrecord
280
     1
290
     1
  0
XRECORD
  5
937
102
{ACAD_REACTORS
330
936
102
}
330
936
100
AcDbXrecord
280
     1
290
     1
  0
XRECORD
  5
939
102
{ACAD_REACTORS
330
938
102
}
330
938
100
AcDbXrecord
280
     1
290
     1
  0
XRECORD
  5
93B
102
{ACAD_REACTORS
330
93A
102
}
330
93A
100
AcDbXrecord
280
     1
290
     1
  0
XRECORD
  5
93D
102
{ACAD_REACTORS
330
93C
102
}
330
93C
100
AcDbXrecord
280
     1
290
     1
  0
XRECORD
  5
93F
102
{ACAD_REACTORS
330
93E
102
}
330
93E
100
AcDbXrecord
280
     1
290
     1
  0
XRECORD
  5
941
102
{ACAD_REACTORS
330
940
102
}
330
940
100
AcDbXrecord
280
     1
290
     1
  0
XRECORD
  5
943
102
{ACAD_REACTORS
330
942
102
}
330
942
100
AcDbXrecord
280
     1
290
     1
  0
XRECORD
  5
945
102
{ACAD_REACTORS
330
944
102
}
330
944
100
AcDbXrecord
280
     1
290
     1
  0
XRECORD
  5
947
102
{ACAD_REACTORS
330
946
102
}
330
946
100
AcDbXrecord
280
     1
290
     1
  0
LAYOUT
  5
75
102
{ACAD_REACTORS
330
6C
102
}
330
6C
100
AcDbPlotSettings
  1

  2
EPSON SX100 Series
  4

  6

 40
0.0
 41
0.0
 42
0.0
 43
0.0
 44
0.0
 45
0.0
 46
0.0
 47
0.0
 48
0.0
 49
0.0
140
0.0
141
0.0
142
1.0
143
1.0
 70
   688
 72
     0
 73
     0
 74
     5
  7

 75
    16
147
1.0
 76
     0
 77
     2
 78
   300
148
0.0
149
0.0
100
AcDbLayout
  1
Layout1
 70
     1
 71
     1
 10
0.0
 20
0.0
 11
12.0
 21
9.0
 12
0.0
 22
0.0
 32
0.0
 14
1.000000000000000E+20
 24
1.000000000000000E+20
 34
1.000000000000000E+20
 15
-1.000000000000000E+20
 25
-1.000000000000000E+20
 35
-1.000000000000000E+20
146
0.0
 13
0.0
 23
0.0
 33
0.0
 16
1.0
 26
0.0
 36
0.0
 17
0.0
 27
1.0
 37
0.0
 76
     0
330
72
  0
LAYOUT
  5
79
102
{ACAD_REACTORS
330
6C
102
}
330
6C
100
AcDbPlotSettings
  1

  2
EPSON SX100 Series
  4

  6

 40
0.0
 41
0.0
 42
0.0
 43
0.0
 44
0.0
 45
0.0
 46
0.0
 47
0.0
 48
0.0
 49
0.0
140
0.0
141
0.0
142
1.0
143
1.0
 70
  1712
 72
     0
 73
     0
 74
     0
  7

 75
     0
147
1.0
 76
     0
 77
     2
 78
   300
148
0.0
149
0.0
100
AcDbLayout
  1
Model
 70
     1
 71
     0
 10
0.0
 20
0.0
 11
12.0
 21
9.0
 12
0.0
 22
0.0
 32
0.0
 14
0.0
 24
0.0
 34
0.0
 15
0.0
 25
0.0
 35
0.0
146
0.0
 13
0.0
 23
0.0
 33
0.0
 16
1.0
 26
0.0
 36
0.0
 17
0.0
 27
1.0
 37
0.0
 76
     0
330
76
331
8F
  0
MATERIAL
  5
19
102
{ACAD_XDICTIONARY
360
1A
102
}
102
{ACAD_REACTORS
330
10
102
}
330
10
100
AcDbMaterial
  1
ByBlock
 72
     0
 43
0.0208333333333333
 43
0.0
 43
0.0
 43
0.0
 43
0.0
 43
0.0208333333333333
 43
0.0
 43
0.0
 43
0.0
 43
0.0
 43
1.0
 43
0.0
 43
0.0
 43
0.0
 43
0.0
 43
1.0
 77
     0
 47
0.0208333333333333
 47
0.0
 47
0.0
 47
0.0
 47
0.0
 47
0.0208333333333333
 47
0.0
 47
0.0
 47
0.0
 47
0.0
 47
1.0
 47
0.0
 47
0.0
 47
0.0
 47
0.0
 47
1.0
171
     0
 49
0.0208333333333333
 49
0.0
 49
0.0
 49
0.0
 49
0.0
 49
0.0208333333333333
 49
0.0
 49
0.0
 49
0.0
 49
0.0
 49
1.0
 49
0.0
 49
0.0
 49
0.0
 49
0.0
 49
1.0
175
     0
142
0.0208333333333333
142
0.0
142
0.0
142
0.0
142
0.0
142
0.0208333333333333
142
0.0
142
0.0
142
0.0
142
0.0
142
1.0
142
0.0
142
0.0
142
0.0
142
0.0
142
1.0
179
     0
144
0.0208333333333333
144
0.0
144
0.0
144
0.0
144
0.0
144
0.0208333333333333
144
0.0
144
0.0
144
0.0
144
0.0
144
1.0
144
0.0
144
0.0
144
0.0
144
0.0
144
1.0
147
0.0208333333333333
147
0.0
147
0.0
147
0.0
147
0.0
147
0.0208333333333333
147
0.0
147
0.0
147
0.0
147
0.0
147
1.0
147
0.0
147
0.0
147
0.0
147
0.0
147
1.0
  0
MATERIAL
  5
11
102
{ACAD_XDICTIONARY
360
12
102
}
102
{ACAD_REACTORS
330
10
102
}
330
10
100
AcDbMaterial
  1
ByLayer
 72
     0
 43
0.0208333333333333
 43
0.0
 43
0.0
 43
0.0
 43
0.0
 43
0.0208333333333333
 43
0.0
 43
0.0
 43
0.0
 43
0.0
 43
1.0
 43
0.0
 43
0.0
 43
0.0
 43
0.0
 43
1.0
 77
     0
 47
0.0208333333333333
 47
0.0
 47
0.0
 47
0.0
 47
0.0
 47
0.0208333333333333
 47
0.0
 47
0.0
 47
0.0
 47
0.0
 47
1.0
 47
0.0
 47
0.0
 47
0.0
 47
0.0
 47
1.0
171
     0
 49
0.0208333333333333
 49
0.0
 49
0.0
 49
0.0
 49
0.0
 49
0.0208333333333333
 49
0.0
 49
0.0
 49
0.0
 49
0.0
 49
1.0
 49
0.0
 49
0.0
 49
0.0
 49
0.0
 49
1.0
175
     0
142
0.0208333333333333
142
0.0
142
0.0
142
0.0
142
0.0
142
0.0208333333333333
142
0.0
142
0.0
142
0.0
142
0.0
142
1.0
142
0.0
142
0.0
142
0.0
142
0.0
142
1.0
179
     0
144
0.0208333333333333
144
0.0
144
0.0
144
0.0
144
0.0
144
0.0208333333333333
144
0.0
144
0.0
144
0.0
144
0.0
144
1.0
144
0.0
144
0.0
144
0.0
144
0.0
144
1.0
147
0.0208333333333333
147
0.0
147
0.0
147
0.0
147
0.0
147
0.0208333333333333
147
0.0
147
0.0
147
0.0
147
0.0
147
1.0
147
0.0
147
0.0
147
0.0
147
0.0
147
1.0
  0
MATERIAL
  5
21
102
{ACAD_XDICTIONARY
360
22
102
}
102
{ACAD_REACTORS
330
10
102
}
330
10
100
AcDbMaterial
  1
Global
 72
     0
 43
0.0208333333333333
 43
0.0
 43
0.0
 43
0.0
 43
0.0
 43
0.0208333333333333
 43
0.0
 43
0.0
 43
0.0
 43
0.0
 43
1.0
 43
0.0
 43
0.0
 43
0.0
 43
0.0
 43
1.0
 77
     0
 47
0.0208333333333333
 47
0.0
 47
0.0
 47
0.0
 47
0.0
 47
0.0208333333333333
 47
0.0
 47
0.0
 47
0.0
 47
0.0
 47
1.0
 47
0.0
 47
0.0
 47
0.0
 47
0.0
 47
1.0
171
     0
 49
0.0208333333333333
 49
0.0
 49
0.0
 49
0.0
 49
0.0
 49
0.0208333333333333
 49
0.0
 49
0.0
 49
0.0
 49
0.0
 49
1.0
 49
0.0
 49
0.0
 49
0.0
 49
0.0
 49
1.0
175
     0
142
0.0208333333333333
142
0.0
142
0.0
142
0.0
142
0.0
142
0.0208333333333333
142
0.0
142
0.0
142
0.0
142
0.0
142
1.0
142
0.0
142
0.0
142
0.0
142
0.0
142
1.0
179
     0
144
0.0208333333333333
144
0.0
144
0.0
144
0.0
144
0.0
144
0.0208333333333333
144
0.0
144
0.0
144
0.0
144
0.0
144
1.0
144
0.0
144
0.0
144
0.0
144
0.0
144
1.0
147
0.0208333333333333
147
0.0
147
0.0
147
0.0
147
0.0
147
0.0208333333333333
147
0.0
147
0.0
147
0.0
147
0.0
147
1.0
147
0.0
147
0.0
147
0.0
147
0.0
147
1.0
  0
MLEADERSTYLE
  5
71
102
{ACAD_REACTORS
330
70
102
}
330
70
100
AcDbMLeaderStyle
179
     2
170
     2
171
     1
172
     0
 90
        2
 40
0.0
 41
0.0
173
     1
 91
-1056964608
340
65
 92
       -2
290
     1
 42
0.09
291
     1
 43
0.36
  3
Standard
 44
0.18
300

342
60
174
     1
178
     6
175
     1
176
     0
 93
-1056964608
 45
0.18
292
     0
297
     0
 46
0.18
 94
-1056964608
 47
1.0
 49
1.0
140
1.0
293
     1
141
0.0
294
     1
177
     0
142
1.0
295
     0
296
     0
143
0.125
271
     0
272
     9
273
     9
  0
MLINESTYLE
  5
6A
102
{ACAD_REACTORS
330
69
102
}
330
69
100
AcDbMlineStyle
  2
STANDARD
 70
     0
  3

 62
   256
 51
90.0
 52
90.0
 71
     2
 49
0.5
 62
   256
  6
BYLAYER
 49
-0.5
 62
   256
  6
BYLAYER
  0
ACDBPLACEHOLDER
  5
F
102
{ACAD_REACTORS
330
E
102
}
330
E
  0
SCALE
  5
3E
102
{ACAD_REACTORS
330
3D
102
}
330
3D
100
AcDbScale
 70
     0
300
1:1
140
1.0
141
1.0
290
     1
  0
SCALE
  5
3F
102
{ACAD_REACTORS
330
3D
102
}
330
3D
100
AcDbScale
 70
     0
300
1:2
140
1.0
141
2.0
290
     0
  0
SCALE
  5
40
102
{ACAD_REACTORS
330
3D
102
}
330
3D
100
AcDbScale
 70
     0
300
1:4
140
1.0
141
4.0
290
     0
  0
SCALE
  5
41
102
{ACAD_REACTORS
330
3D
102
}
330
3D
100
AcDbScale
 70
     0
300
1:5
140
1.0
141
5.0
290
     0
  0
SCALE
  5
42
102
{ACAD_REACTORS
330
3D
102
}
330
3D
100
AcDbScale
 70
     0
300
1:8
140
1.0
141
8.0
290
     0
  0
SCALE
  5
43
102
{ACAD_REACTORS
330
3D
102
}
330
3D
100
AcDbScale
 70
     0
300
1:10
140
1.0
141
10.0
290
     0
  0
SCALE
  5
44
102
{ACAD_REACTORS
330
3D
102
}
330
3D
100
AcDbScale
 70
     0
300
1:16
140
1.0
141
16.0
290
     0
  0
SCALE
  5
45
102
{ACAD_REACTORS
330
3D
102
}
330
3D
100
AcDbScale
 70
     0
300
1:20
140
1.0
141
20.0
290
     0
  0
SCALE
  5
46
102
{ACAD_REACTORS
330
3D
102
}
330
3D
100
AcDbScale
 70
     0
300
1:30
140
1.0
141
30.0
290
     0
  0
SCALE
  5
47
102
{ACAD_REACTORS
330
3D
102
}
330
3D
100
AcDbScale
 70
     0
300
1:40
140
1.0
141
40.0
290
     0
  0
SCALE
  5
48
102
{ACAD_REACTORS
330
3D
102
}
330
3D
100
AcDbScale
 70
     0
300
1:50
140
1.0
141
50.0
290
     0
  0
SCALE
  5
49
102
{ACAD_REACTORS
330
3D
102
}
330
3D
100
AcDbScale
 70
     0
300
1:100
140
1.0
141
100.0
290
     0
  0
SCALE
  5
4A
102
{ACAD_REACTORS
330
3D
102
}
330
3D
100
AcDbScale
 70
     0
300
2:1
140
2.0
141
1.0
290
     0
  0
SCALE
  5
4B
102
{ACAD_REACTORS
330
3D
102
}
330
3D
100
AcDbScale
 70
     0
300
4:1
140
4.0
141
1.0
290
     0
  0
SCALE
  5
4C
102
{ACAD_REACTORS
330
3D
102
}
330
3D
100
AcDbScale
 70
     0
300
8:1
140
8.0
141
1.0
290
     0
  0
SCALE
  5
4D
102
{ACAD_REACTORS
330
3D
102
}
330
3D
100
AcDbScale
 70
     0
300
10:1
140
10.0
141
1.0
290
     0
  0
SCALE
  5
4E
102
{ACAD_REACTORS
330
3D
102
}
330
3D
100
AcDbScale
 70
     0
300
100:1
140
100.0
141
1.0
290
     0
  0
SCALE
  5
4F
102
{ACAD_REACTORS
330
3D
102
}
330
3D
100
AcDbScale
 70
     0
300
1/128" = 1'-0"
140
0.0078125
141
12.0
290
     0
  0
SCALE
  5
50
102
{ACAD_REACTORS
330
3D
102
}
330
3D
100
AcDbScale
 70
     0
300
1/64" = 1'-0"
140
0.015625
141
12.0
290
     0
  0
SCALE
  5
51
102
{ACAD_REACTORS
330
3D
102
}
330
3D
100
AcDbScale
 70
     0
300
1/32" = 1'-0"
140
0.03125
141
12.0
290
     0
  0
SCALE
  5
52
102
{ACAD_REACTORS
330
3D
102
}
330
3D
100
AcDbScale
 70
     0
300
1/16" = 1'-0"
140
0.0625
141
12.0
290
     0
  0
SCALE
  5
53
102
{ACAD_REACTORS
330
3D
102
}
330
3D
100
AcDbScale
 70
     0
300
3/32" = 1'-0"
140
0.09375
141
12.0
290
     0
  0
SCALE
  5
54
102
{ACAD_REACTORS
330
3D
102
}
330
3D
100
AcDbScale
 70
     0
300
1/8" = 1'-0"
140
0.125
141
12.0
290
     0
  0
SCALE
  5
55
102
{ACAD_REACTORS
330
3D
102
}
330
3D
100
AcDbScale
 70
     0
300
3/16" = 1'-0"
140
0.1875
141
12.0
290
     0
  0
SCALE
  5
56
102
{ACAD_REACTORS
330
3D
102
}
330
3D
100
AcDbScale
 70
     0
300
1/4" = 1'-0"
140
0.25
141
12.0
290
     0
  0
SCALE
  5
57
102
{ACAD_REACTORS
330
3D
102
}
330
3D
100
AcDbScale
 70
     0
300
3/8" = 1'-0"
140
0.375
141
12.0
290
     0
  0
SCALE
  5
58
102
{ACAD_REACTORS
330
3D
102
}
330
3D
100
AcDbScale
 70
     0
300
1/2" = 1'-0"
140
0.5
141
12.0
290
     0
  0
SCALE
  5
59
102
{ACAD_REACTORS
330
3D
102
}
330
3D
100
AcDbScale
 70
     0
300
3/4" = 1'-0"
140
0.75
141
12.0
290
     0
  0
SCALE
  5
5A
102
{ACAD_REACTORS
330
3D
102
}
330
3D
100
AcDbScale
 70
     0
300
1" = 1'-0"
140
1.0
141
12.0
290
     0
  0
SCALE
  5
5B
102
{ACAD_REACTORS
330
3D
102
}
330
3D
100
AcDbScale
 70
     0
300
1-1/2" = 1'-0"
140
1.5
141
12.0
290
     0
  0
SCALE
  5
5C
102
{ACAD_REACTORS
330
3D
102
}
330
3D
100
AcDbScale
 70
     0
300
3" = 1'-0"
140
3.0
141
12.0
290
     0
  0
SCALE
  5
5D
102
{ACAD_REACTORS
330
3D
102
}
330
3D
100
AcDbScale
 70
     0
300
6" = 1'-0"
140
6.0
141
12.0
290
     0
  0
SCALE
  5
5E
102
{ACAD_REACTORS
330
3D
102
}
330
3D
100
AcDbScale
 70
     0
300
1'-0" = 1'-0"
140
12.0
141
12.0
290
     0
  0
TABLESTYLE
  5
6F
102
{ACAD_XDICTIONARY
360
950
102
}
102
{ACAD_REACTORS
330
6E
102
}
330
6E
100
AcDbTableStyle
280
     0
  3
Standard
 70
     0
 71
     0
 40
0.06
 41
0.06
280
     0
281
     0
  7
STANDARD
140
0.18
170
     2
 62
     0
 63
     7
283
     0
 90
      512
 91
        0
  1

274
    -2
284
     1
 64
     0
275
    -2
285
     1
 65
     0
276
    -2
286
     1
 66
     0
277
    -2
287
     1
 67
     0
278
    -2
288
     1
 68
     0
279
    -2
289
     1
 69
     0
  7
STANDARD
140
0.25
170
     5
 62
     0
 63
     7
283
     0
 90
      512
 91
        0
  1

274
    -2
284
     1
 64
     0
275
    -2
285
     1
 65
     0
276
    -2
286
     1
 66
     0
277
    -2
287
     1
 67
     0
278
    -2
288
     1
 68
     0
279
    -2
289
     1
 69
     0
  7
STANDARD
140
0.18
170
     5
 62
     0
 63
     7
283
     0
 90
      512
 91
        0
  1

274
    -2
284
     1
 64
     0
275
    -2
285
     1
 65
     0
276
    -2
286
     1
 66
     0
277
    -2
287
     1
 67
     0
278
    -2
288
     1
 68
     0
279
    -2
289
     1
 69
     0
  0
VISUALSTYLE
  5
2F
102
{ACAD_REACTORS
330
29
102
}
330
29
100
AcDbVisualStyle
  2
2dWireframe
 70
     4
177
     2
291
     0
 71
     0
176
     1
 72
     2
176
     1
 73
     0
176
     1
 90
        0
176
     1
 40
0.6
176
     1
 41
30.0
176
     1
 63
     7
421
 16777215
176
     1
 74
     1
176
     1
 91
        4
176
     1
 64
     7
176
     1
 65
   257
176
     1
 75
     1
176
     1
175
     1
176
     1
 42
1.0
176
     1
 92
        0
176
     1
 66
   257
176
     1
 43
1.0
176
     1
 76
     1
176
     1
 77
     6
176
     1
 78
     2
176
     1
 67
     7
176
     1
 79
     5
176
     1
170
     0
176
     1
171
     0
176
     1
290
     0
176
     1
 93
        1
176
     1
 44
0.0
176
     1
173
     0
176
     1
  0
VISUALSTYLE
  5
31
102
{ACAD_REACTORS
330
29
102
}
330
29
100
AcDbVisualStyle
  2
3D Hidden
 70
     6
177
     2
291
     0
 71
     1
176
     1
 72
     2
176
     1
 73
     2
176
     1
 90
        0
176
     1
 40
0.6
176
     1
 41
30.0
176
     1
 63
     7
421
 16777215
176
     1
 74
     2
176
     1
 91
        2
176
     1
 64
     7
176
     1
 65
   257
176
     1
 75
     2
176
     1
175
     1
176
     1
 42
179.0
176
     1
 92
        0
176
     1
 66
   257
176
     1
 43
1.0
176
     1
 76
     1
176
     1
 77
     6
176
     1
 78
     2
176
     1
 67
     7
176
     1
 79
     3
176
     1
170
     0
176
     1
171
     0
176
     1
290
     0
176
     1
 93
        1
176
     1
 44
0.0
176
     1
173
     0
176
     1
  0
VISUALSTYLE
  5
30
102
{ACAD_REACTORS
330
29
102
}
330
29
100
AcDbVisualStyle
  2
3dWireframe
 70
     5
177
     2
291
     0
 71
     0
176
     1
 72
     2
176
     1
 73
     0
176
     1
 90
        0
176
     1
 40
0.6
176
     1
 41
30.0
176
     1
 63
     7
421
 16777215
176
     1
 74
     1
176
     1
 91
        4
176
     1
 64
     7
176
     1
 65
   257
176
     1
 75
     1
176
     1
175
     1
176
     1
 42
1.0
176
     1
 92
        0
176
     1
 66
   257
176
     1
 43
1.0
176
     1
 76
     1
176
     1
 77
     6
176
     1
 78
     2
176
     1
 67
     7
176
     1
 79
     5
176
     1
170
     0
176
     1
171
     0
176
     1
290
     0
176
     1
 93
        1
176
     1
 44
0.0
176
     1
173
     0
176
     1
  0
VISUALSTYLE
  5
2E
102
{ACAD_REACTORS
330
29
102
}
330
29
100
AcDbVisualStyle
  2
Basic
 70
     7
177
     2
291
     1
 71
     1
176
     1
 72
     0
176
     1
 73
     1
176
     1
 90
        0
176
     1
 40
0.6
176
     1
 41
30.0
176
     1
 63
     7
421
 16777215
176
     1
 74
     0
176
     1
 91
        4
176
     1
 64
     7
176
     1
 65
   257
176
     1
 75
     1
176
     1
175
     1
176
     1
 42
1.0
176
     1
 92
        8
176
     1
 66
     7
176
     1
 43
1.0
176
     1
 76
     1
176
     1
 77
     6
176
     1
 78
     2
176
     1
 67
     7
176
     1
 79
     5
176
     1
170
     0
176
     1
171
     0
176
     1
290
     0
176
     1
 93
        1
176
     1
 44
0.0
176
     1
173
     0
176
     1
  0
VISUALSTYLE
  5
35
102
{ACAD_REACTORS
330
29
102
}
330
29
100
AcDbVisualStyle
  2
Brighten
 70
    12
177
     2
291
     1
 71
     2
176
     1
 72
     2
176
     1
 73
     0
176
     1
 90
        0
176
     1
 40
0.6
176
     1
 41
30.0
176
     1
 63
     7
421
 16777215
176
     1
 74
     1
176
     1
 91
        4
176
     1
 64
     7
176
     1
 65
   257
176
     1
 75
     1
176
     1
175
     1
176
     1
 42
1.0
176
     1
 92
        8
176
     1
 66
     7
176
     1
 43
1.0
176
     1
 76
     1
176
     1
 77
     6
176
     1
 78
     2
176
     1
 67
     7
176
     1
 79
     5
176
     1
170
     0
176
     1
171
     0
176
     1
290
     0
176
     1
 93
        1
176
     1
 44
50.0
176
     1
173
     0
176
     1
  0
VISUALSTYLE
  5
39
102
{ACAD_REACTORS
330
29
102
}
330
29
100
AcDbVisualStyle
  2
ColorChange
 70
    16
177
     2
291
     1
 71
     2
176
     1
 72
     2
176
     1
 73
     3
176
     1
 90
        0
176
     1
 40
0.6
176
     1
 41
30.0
176
     1
 63
     8
421
  8421504
176
     1
 74
     1
176
     1
 91
        4
176
     1
 64
     7
176
     1
 65
   257
176
     1
 75
     1
176
     1
175
     1
176
     1
 42
1.0
176
     1
 92
        8
176
     1
 66
     8
424
  8421504
176
     1
 43
1.0
176
     1
 76
     1
176
     1
 77
     6
176
     1
 78
     2
176
     1
 67
     7
176
     1
 79
     5
176
     1
170
     0
176
     1
171
     0
176
     1
290
     0
176
     1
 93
        1
176
     1
 44
0.0
176
     1
173
     0
176
     1
  0
VISUALSTYLE
  5
32
102
{ACAD_REACTORS
330
29
102
}
330
29
100
AcDbVisualStyle
  2
Conceptual
 70
     9
177
     2
291
     0
 71
     3
176
     1
 72
     2
176
     1
 73
     0
176
     1
 90
        0
176
     1
 40
0.6
176
     1
 41
30.0
176
     1
 63
     7
421
 16777215
176
     1
 74
     2
176
     1
 91
        2
176
     1
 64
     7
176
     1
 65
   257
176
     1
 75
     1
176
     1
175
     1
176
     1
 42
179.0
176
     1
 92
        8
176
     1
 66
     7
176
     1
 43
1.0
176
     1
 76
     1
176
     1
 77
     6
176
     1
 78
     2
176
     1
 67
     7
176
     1
 79
     3
176
     1
170
     0
176
     1
171
     0
176
     1
290
     0
176
     1
 93
        1
176
     1
 44
0.0
176
     1
173
     0
176
     1
  0
VISUALSTYLE
  5
34
102
{ACAD_REACTORS
330
29
102
}
330
29
100
AcDbVisualStyle
  2
Dim
 70
    11
177
     2
291
     1
 71
     2
176
     1
 72
     2
176
     1
 73
     0
176
     1
 90
        0
176
     1
 40
0.6
176
     1
 41
30.0
176
     1
 63
     7
421
 16777215
176
     1
 74
     1
176
     1
 91
        4
176
     1
 64
     7
176
     1
 65
   257
176
     1
 75
     1
176
     1
175
     1
176
     1
 42
1.0
176
     1
 92
        8
176
     1
 66
     7
176
     1
 43
1.0
176
     1
 76
     1
176
     1
 77
     6
176
     1
 78
     2
176
     1
 67
     7
176
     1
 79
     5
176
     1
170
     0
176
     1
171
     0
176
     1
290
     0
176
     1
 93
        1
176
     1
 44
-50.0
176
     1
173
     0
176
     1
  0
VISUALSTYLE
  5
3C
102
{ACAD_REACTORS
330
29
102
}
330
29
100
AcDbVisualStyle
  2
EdgeColorOff
 70
    22
177
     2
291
     1
 71
     2
176
     0
 72
     2
176
     0
 73
     0
176
     0
 90
        0
176
     0
 40
0.6
176
     0
 41
30.0
176
     0
 63
     7
421
 16777215
176
     0
 74
     1
176
     0
 91
        4
176
     0
 64
     7
176
     0
 65
   257
176
     0
 75
     1
176
     0
175
     1
176
     0
 42
1.0
176
     0
 92
        8
176
     2
 66
     7
176
     0
 43
1.0
176
     0
 76
     1
176
     0
 77
     6
176
     0
 78
     2
176
     0
 67
     7
176
     0
 79
     5
176
     0
170
     0
176
     0
171
     0
176
     0
290
     0
176
     0
 93
        1
176
     0
 44
0.0
176
     0
173
     0
176
     0
  0
VISUALSTYLE
  5
38
102
{ACAD_REACTORS
330
29
102
}
330
29
100
AcDbVisualStyle
  2
Facepattern
 70
    15
177
     2
291
     1
 71
     2
176
     1
 72
     2
176
     1
 73
     0
176
     1
 90
        0
176
     1
 40
0.6
176
     1
 41
30.0
176
     1
 63
     7
421
 16777215
176
     1
 74
     1
176
     1
 91
        4
176
     1
 64
     7
176
     1
 65
   257
176
     1
 75
     1
176
     1
175
     1
176
     1
 42
1.0
176
     1
 92
        8
176
     1
 66
     7
176
     1
 43
1.0
176
     1
 76
     1
176
     1
 77
     6
176
     1
 78
     2
176
     1
 67
     7
176
     1
 79
     5
176
     1
170
     0
176
     1
171
     0
176
     1
290
     0
176
     1
 93
        1
176
     1
 44
0.0
176
     1
173
     0
176
     1
  0
VISUALSTYLE
  5
2A
102
{ACAD_REACTORS
330
29
102
}
330
29
100
AcDbVisualStyle
  2
Flat
 70
     0
177
     2
291
     1
 71
     2
176
     1
 72
     1
176
     1
 73
     1
176
     1
 90
        2
176
     1
 40
0.6
176
     1
 41
30.0
176
     1
 63
     7
421
 16777215
176
     1
 74
     0
176
     1
 91
        4
176
     1
 64
     7
176
     1
 65
   257
176
     1
 75
     1
176
     1
175
     1
176
     1
 42
1.0
176
     1
 92
        8
176
     1
 66
     7
176
     1
 43
1.0
176
     1
 76
     1
176
     1
 77
     6
176
     1
 78
     2
176
     1
 67
     7
176
     1
 79
     5
176
     1
170
     0
176
     1
171
     0
176
     1
290
     0
176
     1
 93
       13
176
     1
 44
0.0
176
     1
173
     0
176
     1
  0
VISUALSTYLE
  5
2B
102
{ACAD_REACTORS
330
29
102
}
330
29
100
AcDbVisualStyle
  2
FlatWithEdges
 70
     1
177
     2
291
     1
 71
     2
176
     1
 72
     1
176
     1
 73
     1
176
     1
 90
        2
176
     1
 40
0.6
176
     1
 41
30.0
176
     1
 63
     7
421
 16777215
176
     1
 74
     1
176
     1
 91
        4
176
     1
 64
     7
176
     1
 65
   257
176
     1
 75
     1
176
     1
175
     1
176
     1
 42
1.0
176
     1
 92
        0
176
     1
 66
   257
176
     1
 43
1.0
176
     1
 76
     1
176
     1
 77
     6
176
     1
 78
     2
176
     1
 67
     7
176
     1
 79
     5
176
     1
170
     0
176
     1
171
     0
176
     1
290
     0
176
     1
 93
       13
176
     1
 44
0.0
176
     1
173
     0
176
     1
  0
VISUALSTYLE
  5
2C
102
{ACAD_REACTORS
330
29
102
}
330
29
100
AcDbVisualStyle
  2
Gouraud
 70
     2
177
     2
291
     1
 71
     2
176
     1
 72
     2
176
     1
 73
     1
176
     1
 90
        2
176
     1
 40
0.6
176
     1
 41
30.0
176
     1
 63
     7
421
 16777215
176
     1
 74
     0
176
     1
 91
        4
176
     1
 64
     7
176
     1
 65
   257
176
     1
 75
     1
176
     1
175
     1
176
     1
 42
1.0
176
     1
 92
        0
176
     1
 66
     7
176
     1
 43
1.0
176
     1
 76
     1
176
     1
 77
     6
176
     1
 78
     2
176
     1
 67
     7
176
     1
 79
     5
176
     1
170
     0
176
     1
171
     0
176
     1
290
     0
176
     1
 93
       13
176
     1
 44
0.0
176
     1
173
     0
176
     1
  0
VISUALSTYLE
  5
2D
102
{ACAD_REACTORS
330
29
102
}
330
29
100
AcDbVisualStyle
  2
GouraudWithEdges
 70
     3
177
     2
291
     1
 71
     2
176
     1
 72
     2
176
     1
 73
     1
176
     1
 90
        2
176
     1
 40
0.6
176
     1
 41
30.0
176
     1
 63
     7
421
 16777215
176
     1
 74
     1
176
     1
 91
        4
176
     1
 64
     7
176
     1
 65
   257
176
     1
 75
     1
176
     1
175
     1
176
     1
 42
1.0
176
     1
 92
        0
176
     1
 66
   257
176
     1
 43
1.0
176
     1
 76
     1
176
     1
 77
     6
176
     1
 78
     2
176
     1
 67
     7
176
     1
 79
     5
176
     1
170
     0
176
     1
171
     0
176
     1
290
     0
176
     1
 93
       13
176
     1
 44
0.0
176
     1
173
     0
176
     1
  0
VISUALSTYLE
  5
3A
102
{ACAD_REACTORS
330
29
102
}
330
29
100
AcDbVisualStyle
  2
JitterOff
 70
    20
177
     2
291
     1
 71
     2
176
     0
 72
     2
176
     0
 73
     0
176
     0
 90
        0
176
     0
 40
0.6
176
     0
 41
30.0
176
     0
 63
     7
421
 16777215
176
     0
 74
     1
176
     0
 91
        4
176
     0
 64
     7
176
     0
 65
   257
176
     0
 75
     1
176
     0
175
     1
176
     0
 42
1.0
176
     0
 92
       10
176
     2
 66
     7
176
     0
 43
1.0
176
     0
 76
     1
176
     0
 77
     6
176
     0
 78
     2
176
     0
 67
     7
176
     0
 79
     5
176
     0
170
     0
176
     0
171
     0
176
     0
290
     0
176
     0
 93
        1
176
     0
 44
0.0
176
     0
173
     0
176
     0
  0
VISUALSTYLE
  5
37
102
{ACAD_REACTORS
330
29
102
}
330
29
100
AcDbVisualStyle
  2
Linepattern
 70
    14
177
     2
291
     1
 71
     2
176
     1
 72
     2
176
     1
 73
     0
176
     1
 90
        0
176
     1
 40
0.6
176
     1
 41
30.0
176
     1
 63
     7
421
 16777215
176
     1
 74
     1
176
     1
 91
        4
176
     1
 64
     7
176
     1
 65
   257
176
     1
 75
     7
176
     1
175
     7
176
     1
 42
1.0
176
     1
 92
        8
176
     1
 66
     7
176
     1
 43
1.0
176
     1
 76
     1
176
     1
 77
     6
176
     1
 78
     2
176
     1
 67
     7
176
     1
 79
     5
176
     1
170
     0
176
     1
171
     0
176
     1
290
     0
176
     1
 93
        1
176
     1
 44
0.0
176
     1
173
     0
176
     1
  0
VISUALSTYLE
  5
3B
102
{ACAD_REACTORS
330
29
102
}
330
29
100
AcDbVisualStyle
  2
OverhangOff
 70
    21
177
     2
291
     1
 71
     2
176
     0
 72
     2
176
     0
 73
     0
176
     0
 90
        0
176
     0
 40
0.6
176
     0
 41
30.0
176
     0
 63
     7
421
 16777215
176
     0
 74
     1
176
     0
 91
        4
176
     0
 64
     7
176
     0
 65
   257
176
     0
 75
     1
176
     0
175
     1
176
     0
 42
1.0
176
     0
 92
        9
176
     2
 66
     7
176
     0
 43
1.0
176
     0
 76
     1
176
     0
 77
     6
176
     0
 78
     2
176
     0
 67
     7
176
     0
 79
     5
176
     0
170
     0
176
     0
171
     0
176
     0
290
     0
176
     0
 93
        1
176
     0
 44
0.0
176
     0
173
     0
176
     0
  0
VISUALSTYLE
  5
33
102
{ACAD_REACTORS
330
29
102
}
330
29
100
AcDbVisualStyle
  2
Realistic
 70
     8
177
     2
291
     0
 71
     2
176
     1
 72
     2
176
     1
 73
     0
176
     1
 90
        0
176
     1
 40
0.6
176
     1
 41
30.0
176
     1
 63
     7
421
 16777215
176
     1
 74
     1
176
     1
 91
        0
176
     1
 64
     7
176
     1
 65
   257
176
     1
 75
     1
176
     1
175
     1
176
     1
 42
1.0
176
     1
 92
        8
176
     1
 66
     8
424
  7895160
176
     1
 43
1.0
176
     1
 76
     1
176
     1
 77
     6
176
     1
 78
     2
176
     1
 67
     7
176
     1
 79
     5
176
     1
170
     0
176
     1
171
     0
176
     1
290
     0
176
     1
 93
       13
176
     1
 44
0.0
176
     1
173
     0
176
     1
  0
VISUALSTYLE
  5
36
102
{ACAD_REACTORS
330
29
102
}
330
29
100
AcDbVisualStyle
  2
Thicken
 70
    13
177
     2
291
     1
 71
     2
176
     1
 72
     2
176
     1
 73
     0
176
     1
 90
        0
176
     1
 40
0.6
176
     1
 41
30.0
176
     1
 63
     7
421
 16777215
176
     1
 74
     1
176
     1
 91
        4
176
     1
 64
     7
176
     1
 65
   257
176
     1
 75
     1
176
     1
175
     1
176
     1
 42
1.0
176
     1
 92
       12
176
     1
 66
     7
176
     1
 43
1.0
176
     1
 76
     1
176
     1
 77
     6
176
     1
 78
     2
176
     1
 67
     7
176
     1
 79
     5
176
     1
170
     0
176
     1
171
     0
176
     1
290
     0
176
     1
 93
        1
176
     1
 44
0.0
176
     1
173
     0
176
     1
  0
DICTIONARYVAR
  5
94C
102
{ACAD_REACTORS
330
948
102
}
330
948
100
DictionaryVariables
280
     0
  1
1:1
  0
DICTIONARYVAR
  5
94A
102
{ACAD_REACTORS
330
948
102
}
330
948
100
DictionaryVariables
280
     0
  1
STANDARD
  0
DICTIONARYVAR
  5
949
102
{ACAD_REACTORS
330
948
102
}
330
948
100
DictionaryVariables
280
     0
  1
STANDARD
  0
DICTIONARYVAR
  5
94E
102
{ACAD_REACTORS
330
948
102
}
330
948
100
DictionaryVariables
280
     0
  1
1
  0
DICTIONARYVAR
  5
94F
102
{ACAD_REACTORS
330
948
102
}
330
948
100
DictionaryVariables
280
     0
  1
15
  0
DICTIONARYVAR
  5
94D
102
{ACAD_REACTORS
330
948
102
}
330
948
100
DictionaryVariables
280
     0
  1
0
  0
DICTIONARYVAR
  5
94B
102
{ACAD_REACTORS
330
948
102
}
330
948
100
DictionaryVariables
280
     0
  1
0
  0
DICTIONARY
  5
1A
330
19
100
AcDbDictionary
280
     1
281
     1
  3
BUMPTILE
360
1C
  3
DIFFUSETILE
360
1B
  3
OPACITYTILE
360
1F
  3
REFLECTIONTILE
360
1E
  3
REFRACTIONTILE
360
20
  3
SPECULARTILE
360
1D
  0
DICTIONARY
  5
12
330
11
100
AcDbDictionary
280
     1
281
     1
  3
BUMPTILE
360
14
  3
DIFFUSETILE
360
13
  3
OPACITYTILE
360
17
  3
REFLECTIONTILE
360
16
  3
REFRACTIONTILE
360
18
  3
SPECULARTILE
360
15
  0
DICTIONARY
  5
22
330
21
100
AcDbDictionary
280
     1
281
     1
  3
BUMPTILE
360
24
  3
DIFFUSETILE
360
23
  3
OPACITYTILE
360
27
  3
REFLECTIONTILE
360
26
  3
REFRACTIONTILE
360
28
  3
SPECULARTILE
360
25
  0
DICTIONARY
  5
950
330
6F
100
AcDbDictionary
280
     1
281
     1
  3
ACAD_ROUNDTRIP_2008_TABLESTYLE_CELLSTYLEMAP
360
951
  0
XRECORD
  5
1C
102
{ACAD_REACTORS
330
1A
102
}
330
1A
100
AcDbXrecord
280
     1
270
     1
271
     1
  0
XRECORD
  5
1B
102
{ACAD_REACTORS
330
1A
102
}
330
1A
100
AcDbXrecord
280
     1
270
     1
271
     1
  0
XRECORD
  5
1F
102
{ACAD_REACTORS
330
1A
102
}
330
1A
100
AcDbXrecord
280
     1
270
     1
271
     1
  0
XRECORD
  5
1E
102
{ACAD_REACTORS
330
1A
102
}
330
1A
100
AcDbXrecord
280
     1
270
     1
271
     1
  0
XRECORD
  5
20
102
{ACAD_REACTORS
330
1A
102
}
330
1A
100
AcDbXrecord
280
     1
270
     1
271
     1
  0
XRECORD
  5
1D
102
{ACAD_REACTORS
330
1A
102
}
330
1A
100
AcDbXrecord
280
     1
270
     1
271
     1
  0
XRECORD
  5
14
102
{ACAD_REACTORS
330
12
102
}
330
12
100
AcDbXrecord
280
     1
270
     1
271
     1
  0
XRECORD
  5
13
102
{ACAD_REACTORS
330
12
102
}
330
12
100
AcDbXrecord
280
     1
270
     1
271
     1
  0
XRECORD
  5
17
102
{ACAD_REACTORS
330
12
102
}
330
12
100
AcDbXrecord
280
     1
270
     1
271
     1
  0
XRECORD
  5
16
102
{ACAD_REACTORS
330
12
102
}
330
12
100
AcDbXrecord
280
     1
270
     1
271
     1
  0
XRECORD
  5
18
102
{ACAD_REACTORS
330
12
102
}
330
12
100
AcDbXrecord
280
     1
270
     1
271
     1
  0
XRECORD
  5
15
102
{ACAD_REACTORS
330
12
102
}
330
12
100
AcDbXrecord
280
     1
270
     1
271
     1
  0
XRECORD
  5
24
102
{ACAD_REACTORS
330
22
102
}
330
22
100
AcDbXrecord
280
     1
270
     1
271
     1
  0
XRECORD
  5
23
102
{ACAD_REACTORS
330
22
102
}
330
22
100
AcDbXrecord
280
     1
270
     1
271
     1
  0
XRECORD
  5
27
102
{ACAD_REACTORS
330
22
102
}
330
22
100
AcDbXrecord
280
     1
270
     1
271
     1
  0
XRECORD
  5
26
102
{ACAD_REACTORS
330
22
102
}
330
22
100
AcDbXrecord
280
     1
270
     1
271
     1
  0
XRECORD
  5
28
102
{ACAD_REACTORS
330
22
102
}
330
22
100
AcDbXrecord
280
     1
270
     1
271
     1
  0
XRECORD
  5
25
102
{ACAD_REACTORS
330
22
102
}
330
22
100
AcDbXrecord
280
     1
270
     1
271
     1
  0
CELLSTYLEMAP
  5
951
102
{ACAD_REACTORS
330
950
102
}
330
950
100
AcDbCellStyleMap
 90
        3
300
CELLSTYLE
  1
TABLEFORMAT_BEGIN
 90
        5
170
     1
 91
        0
 92
    32768
 62
   257
 93
        1
300
CONTENTFORMAT
  1
CONTENTFORMAT_BEGIN
 90
        0
 91
        0
 92
      512
 93
        0
300

 40
0.0
140
1.0
 94
        5
 62
     0
340
60
144
0.25
309
CONTENTFORMAT_END
171
     0
 94
        0
309
TABLEFORMAT_END
  1
CELLSTYLE_BEGIN
 90
        1
 91
        1
300
_TITLE
309
CELLSTYLE_END
300
CELLSTYLE
  1
TABLEFORMAT_BEGIN
 90
        5
170
     1
 91
        0
 92
        0
 62
   257
 93
        1
300
CONTENTFORMAT
  1
CONTENTFORMAT_BEGIN
 90
        0
 91
        0
 92
      512
 93
        0
300

 40
0.0
140
1.0
 94
        5
 62
     0
340
60
144
0.18
309
CONTENTFORMAT_END
171
     0
 94
        0
309
TABLEFORMAT_END
  1
CELLSTYLE_BEGIN
 90
        2
 91
        1
300
_HEADER
309
CELLSTYLE_END
300
CELLSTYLE
  1
TABLEFORMAT_BEGIN
 90
        5
170
     1
 91
        0
 92
        0
 62
   257
 93
        1
300
CONTENTFORMAT
  1
CONTENTFORMAT_BEGIN
 90
        0
 91
        0
 92
      512
 93
        0
300

 40
0.0
140
1.0
 94
        2
 62
     0
340
60
144
0.18
309
CONTENTFORMAT_END
171
     0
 94
        0
309
TABLEFORMAT_END
  1
CELLSTYLE_BEGIN
 90
        3
 91
        2
300
_DATA
309
CELLSTYLE_END
  0
ENDSEC
  0
EOF
