  0
SECTION
  2
HEADER
  9
$ACADVER
  1
AC1024
  9
$ACADMAINTVER
 70
     6
  9
$DWGCODEPAGE
  3
ANSI_1252
  9
$LASTSAVEDBY
  1
Pincue
  9
$INSBASE
 10
0.0
 20
0.0
 30
0.0
  9
$EXTMIN
 10
981.7936925777081
 20
502.3419468311876
 30
0.0
  9
$EXTMAX
 10
2629.54116343412
 20
1822.301318920451
 30
0.0
  9
$LIMMIN
 10
0.0
 20
0.0
  9
$LIMMAX
 10
420.0
 20
297.0
  9
$ORTHOMODE
 70
     0
  9
$REGENMODE
 70
     1
  9
$FILLMODE
 70
     1
  9
$QTEXTMODE
 70
     0
  9
$MIRRTEXT
 70
     0
  9
$LTSCALE
 40
1.0
  9
$ATTMODE
 70
     1
  9
$TEXTSIZE
 40
2.5
  9
$TRACEWID
 40
1.0
  9
$TEXTSTYLE
  7
Standard
  9
$CLAYER
  8
0
  9
$CELTYPE
  6
ByLayer
  9
$CECOLOR
 62
   256
  9
$CELTSCALE
 40
1.0
  9
$DISPSILH
 70
     0
  9
$DIMSCALE
 40
1.0
  9
$DIMASZ
 40
2.5
  9
$DIMEXO
 40
0.625
  9
$DIMDLI
 40
3.75
  9
$DIMRND
 40
0.0
  9
$DIMDLE
 40
0.0
  9
$DIMEXE
 40
1.25
  9
$DIMTP
 40
0.0
  9
$DIMTM
 40
0.0
  9
$DIMTXT
 40
2.5
  9
$DIMCEN
 40
2.5
  9
$DIMTSZ
 40
0.0
  9
$DIMTOL
 70
     0
  9
$DIMLIM
 70
     0
  9
$DIMTIH
 70
     0
  9
$DIMTOH
 70
     0
  9
$DIMSE1
 70
     0
  9
$DIMSE2
 70
     0
  9
$DIMTAD
 70
     1
  9
$DIMZIN
 70
     8
  9
$DIMBLK
  1

  9
$DIMASO
 70
     1
  9
$DIMSHO
 70
     1
  9
$DIMPOST
  1

  9
$DIMAPOST
  1

  9
$DIMALT
 70
     0
  9
$DIMALTD
 70
     3
  9
$DIMALTF
 40
0.03937007874016
  9
$DIMLFAC
 40
1.0
  9
$DIMTOFL
 70
     1
  9
$DIMTVP
 40
0.0
  9
$DIMTIX
 70
     0
  9
$DIMSOXD
 70
     0
  9
$DIMSAH
 70
     0
  9
$DIMBLK1
  1

  9
$DIMBLK2
  1

  9
$DIMSTYLE
  2
ISO-25
  9
$DIMCLRD
 70
     0
  9
$DIMCLRE
 70
     0
  9
$DIMCLRT
 70
     0
  9
$DIMTFAC
 40
1.0
  9
$DIMGAP
 40
0.625
  9
$DIMJUST
 70
     0
  9
$DIMSD1
 70
     0
  9
$DIMSD2
 70
     0
  9
$DIMTOLJ
 70
     0
  9
$DIMTZIN
 70
     8
  9
$DIMALTZ
 70
     0
  9
$DIMALTTZ
 70
     0
  9
$DIMUPT
 70
     0
  9
$DIMDEC
 70
     2
  9
$DIMTDEC
 70
     2
  9
$DIMALTU
 70
     2
  9
$DIMALTTD
 70
     3
  9
$DIMTXSTY
  7
Standard
  9
$DIMAUNIT
 70
     0
  9
$DIMADEC
 70
     0
  9
$DIMALTRND
 40
0.0
  9
$DIMAZIN
 70
     0
  9
$DIMDSEP
 70
    44
  9
$DIMATFIT
 70
     3
  9
$DIMFRAC
 70
     0
  9
$DIMLDRBLK
  1

  9
$DIMLUNIT
 70
     2
  9
$DIMLWD
 70
    -2
  9
$DIMLWE
 70
    -2
  9
$DIMTMOVE
 70
     0
  9
$DIMFXL
 40
1.0
  9
$DIMFXLON
 70
     0
  9
$DIMJOGANG
 40
0.7853981633974483
  9
$DIMTFILL
 70
     0
  9
$DIMTFILLCLR
 70
     0
  9
$DIMARCSYM
 70
     0
  9
$DIMLTYPE
  6

  9
$DIMLTEX1
  6

  9
$DIMLTEX2
  6

  9
$DIMTXTDIRECTION
 70
     0
  9
$LUNITS
 70
     2
  9
$LUPREC
 70
     4
  9
$SKETCHINC
 40
1.0
  9
$FILLETRAD
 40
8.0
  9
$AUNITS
 70
     0
  9
$AUPREC
 70
     0
  9
$MENU
  1
.
  9
$ELEVATION
 40
0.0
  9
$PELEVATION
 40
0.0
  9
$THICKNESS
 40
0.0
  9
$LIMCHECK
 70
     0
  9
$CHAMFERA
 40
8.0
  9
$CHAMFERB
 40
8.0
  9
$CHAMFERC
 40
0.0
  9
$CHAMFERD
 40
0.0
  9
$SKPOLY
 70
     0
  9
$TDCREATE
 40
2457941.057830683
  9
$TDUCREATE
 40
2457940.974497350
  9
$TDUPDATE
 40
2458224.962500382
  9
$TDUUPDATE
 40
2458224.879167049
  9
$TDINDWG
 40
0.4141531019
  9
$TDUSRTIMER
 40
0.4141481134
  9
$USRTIMER
 70
     1
  9
$ANGBASE
 50
0.0
  9
$ANGDIR
 70
     0
  9
$PDMODE
 70
     3
  9
$PDSIZE
 40
-2.0
  9
$PLINEWID
 40
0.0
  9
$SPLFRAME
 70
     0
  9
$SPLINETYPE
 70
     6
  9
$SPLINESEGS
 70
     8
  9
$HANDSEED
  5
B80
  9
$SURFTAB1
 70
     6
  9
$SURFTAB2
 70
     6
  9
$SURFTYPE
 70
     6
  9
$SURFU
 70
     6
  9
$SURFV
 70
     6
  9
$UCSBASE
  2

  9
$UCSNAME
  2

  9
$UCSORG
 10
0.0
 20
0.0
 30
0.0
  9
$UCSXDIR
 10
1.0
 20
0.0
 30
0.0
  9
$UCSYDIR
 10
0.0
 20
1.0
 30
0.0
  9
$UCSORTHOREF
  2

  9
$UCSORTHOVIEW
 70
     0
  9
$UCSORGTOP
 10
0.0
 20
0.0
 30
0.0
  9
$UCSORGBOTTOM
 10
0.0
 20
0.0
 30
0.0
  9
$UCSORGLEFT
 10
0.0
 20
0.0
 30
0.0
  9
$UCSORGRIGHT
 10
0.0
 20
0.0
 30
0.0
  9
$UCSORGFRONT
 10
0.0
 20
0.0
 30
0.0
  9
$UCSORGBACK
 10
0.0
 20
0.0
 30
0.0
  9
$PUCSBASE
  2

  9
$PUCSNAME
  2

  9
$PUCSORG
 10
0.0
 20
0.0
 30
0.0
  9
$PUCSXDIR
 10
1.0
 20
0.0
 30
0.0
  9
$PUCSYDIR
 10
0.0
 20
1.0
 30
0.0
  9
$PUCSORTHOREF
  2

  9
$PUCSORTHOVIEW
 70
     0
  9
$PUCSORGTOP
 10
0.0
 20
0.0
 30
0.0
  9
$PUCSORGBOTTOM
 10
0.0
 20
0.0
 30
0.0
  9
$PUCSORGLEFT
 10
0.0
 20
0.0
 30
0.0
  9
$PUCSORGRIGHT
 10
0.0
 20
0.0
 30
0.0
  9
$PUCSORGFRONT
 10
0.0
 20
0.0
 30
0.0
  9
$PUCSORGBACK
 10
0.0
 20
0.0
 30
0.0
  9
$USERI1
 70
     0
  9
$USERI2
 70
     0
  9
$USERI3
 70
     0
  9
$USERI4
 70
     0
  9
$USERI5
 70
     0
  9
$USERR1
 40
0.0
  9
$USERR2
 40
0.0
  9
$USERR3
 40
0.0
  9
$USERR4
 40
0.0
  9
$USERR5
 40
0.0
  9
$WORLDVIEW
 70
     1
  9
$SHADEDGE
 70
     3
  9
$SHADEDIF
 70
    70
  9
$TILEMODE
 70
     1
  9
$MAXACTVP
 70
    64
  9
$PINSBASE
 10
0.0
 20
0.0
 30
0.0
  9
$PLIMCHECK
 70
     0
  9
$PEXTMIN
 10
0.0
 20
0.0
 30
0.0
  9
$PEXTMAX
 10
0.0
 20
0.0
 30
0.0
  9
$PLIMMIN
 10
0.0
 20
0.0
  9
$PLIMMAX
 10
12.0
 20
9.0
  9
$UNITMODE
 70
     0
  9
$VISRETAIN
 70
     1
  9
$PLINEGEN
 70
     0
  9
$PSLTSCALE
 70
     1
  9
$TREEDEPTH
 70
  3020
  9
$CMLSTYLE
  2
Standard
  9
$CMLJUST
 70
     0
  9
$CMLSCALE
 40
20.0
  9
$PROXYGRAPHICS
 70
     1
  9
$MEASUREMENT
 70
     1
  9
$CELWEIGHT
370
    -1
  9
$ENDCAPS
280
     0
  9
$JOINSTYLE
280
     0
  9
$LWDISPLAY
290
     0
  9
$INSUNITS
 70
     4
  9
$HYPERLINKBASE
  1

  9
$STYLESHEET
  1

  9
$XEDIT
290
     1
  9
$CEPSNTYPE
380
     0
  9
$PSTYLEMODE
290
     1
  9
$FINGERPRINTGUID
  2
{39FE6ECA-DECB-4F84-9D34-B6B1354B668F}
  9
$VERSIONGUID
  2
{8B39CF08-B658-47B2-B32B-57C62DABC1A0}
  9
$EXTNAMES
290
     1
  9
$PSVPSCALE
 40
0.0
  9
$OLESTARTUP
290
     0
  9
$SORTENTS
280
   127
  9
$INDEXCTL
280
     0
  9
$HIDETEXT
280
     1
  9
$XCLIPFRAME
280
     2
  9
$HALOGAP
280
     0
  9
$OBSCOLOR
 70
   257
  9
$OBSLTYPE
280
     0
  9
$INTERSECTIONDISPLAY
280
     0
  9
$INTERSECTIONCOLOR
 70
   257
  9
$DIMASSOC
280
     2
  9
$PROJECTNAME
  1

  9
$CAMERADISPLAY
290
     0
  9
$LENSLENGTH
 40
50.0
  9
$CAMERAHEIGHT
 40
0.0
  9
$STEPSPERSEC
 40
2.0
  9
$STEPSIZE
 40
6.0
  9
$3DDWFPREC
 40
2.0
  9
$PSOLWIDTH
 40
5.0
  9
$PSOLHEIGHT
 40
80.0
  9
$LOFTANG1
 40
1.570796326794896
  9
$LOFTANG2
 40
1.570796326794896
  9
$LOFTMAG1
 40
0.0
  9
$LOFTMAG2
 40
0.0
  9
$LOFTPARAM
 70
     7
  9
$LOFTNORMALS
280
     1
  9
$LATITUDE
 40
37.795
  9
$LONGITUDE
 40
-122.394
  9
$NORTHDIRECTION
 40
0.0
  9
$TIMEZONE
 70
 -8000
  9
$LIGHTGLYPHDISPLAY
280
     1
  9
$TILEMODELIGHTSYNCH
280
     1
  9
$CMATERIAL
347
EC
  9
$SOLIDHIST
280
     1
  9
$SHOWHIST
280
     1
  9
$DWFFRAME
280
     2
  9
$DGNFRAME
280
     0
  9
$REALWORLDSCALE
290
     1
  9
$INTERFERECOLOR
 62
     1
  9
$INTERFEREOBJVS
345
F9
  9
$INTERFEREVPVS
346
F6
  9
$CSHADOW
280
     0
  9
$SHADOWPLANELOCATION
 40
0.0
  0
ENDSEC
  0
SECTION
  2
CLASSES
  0
CLASS
  1
ACDBDICTIONARYWDFLT
  2
AcDbDictionaryWithDefault
  3
ObjectDBX Classes
 90
        0
 91
        1
280
     0
281
     0
  0
CLASS
  1
DICTIONARYVAR
  2
AcDbDictionaryVar
  3
ObjectDBX Classes
 90
        0
 91
        7
280
     0
281
     0
  0
CLASS
  1
TABLESTYLE
  2
AcDbTableStyle
  3
ObjectDBX Classes
 90
     4095
 91
        1
280
     0
281
     0
  0
CLASS
  1
MATERIAL
  2
AcDbMaterial
  3
ObjectDBX Classes
 90
     1153
 91
        3
280
     0
281
     0
  0
CLASS
  1
VISUALSTYLE
  2
AcDbVisualStyle
  3
ObjectDBX Classes
 90
     4095
 91
       19
280
     0
281
     0
  0
CLASS
  1
SCALE
  2
AcDbScale
  3
ObjectDBX Classes
 90
     1153
 91
       17
280
     0
281
     0
  0
CLASS
  1
MLEADERSTYLE
  2
AcDbMLeaderStyle
  3
ACDB_MLEADERSTYLE_CLASS
 90
     4095
 91
        2
280
     0
281
     0
  0
CLASS
  1
CELLSTYLEMAP
  2
AcDbCellStyleMap
  3
ObjectDBX Classes
 90
     1152
 91
        6
280
     0
281
     0
  0
CLASS
  1
EXACXREFPANELOBJECT
  2
ExAcXREFPanelObject
  3
EXAC_ESW
 90
     1025
 91
        0
280
     0
281
     0
  0
CLASS
  1
NPOCOLLECTION
  2
AcDbImpNonPersistentObjectsCollection
  3
ObjectDBX Classes
 90
     1153
 91
        0
280
     0
281
     0
  0
CLASS
  1
LAYER_INDEX
  2
AcDbLayerIndex
  3
ObjectDBX Classes
 90
        0
 91
        0
280
     0
281
     0
  0
CLASS
  1
SPATIAL_INDEX
  2
AcDbSpatialIndex
  3
ObjectDBX Classes
 90
        0
 91
        0
280
     0
281
     0
  0
CLASS
  1
IDBUFFER
  2
AcDbIdBuffer
  3
ObjectDBX Classes
 90
        0
 91
        0
280
     0
281
     0
  0
CLASS
  1
SORTENTSTABLE
  2
AcDbSortentsTable
  3
ObjectDBX Classes
 90
        0
 91
        1
280
     0
281
     0
  0
CLASS
  1
ARC_DIMENSION
  2
AcDbArcDimension
  3
ObjectDBX Classes
 90
     1025
 91
        0
280
     0
281
     1
  0
CLASS
  1
DIMASSOC
  2
AcDbDimAssoc
  3
"AcDbDimAssoc|Product Desc:     AcDim ARX App For Dimension|Company:          Autodesk, Inc.|WEB Address:      www.autodesk.com"
 90
        0
 91
        0
280
     0
281
     0
  0
ENDSEC
  0
SECTION
  2
TABLES
  0
TABLE
  2
VPORT
  5
8
330
0
100
AcDbSymbolTable
 70
     1
  0
VPORT
  5
EA
330
8
100
AcDbSymbolTableRecord
100
AcDbViewportTableRecord
  2
*Active
 70
     0
 10
0.0
 20
0.0
 11
1.0
 21
1.0
 12
1835.67669004362
 22
1320.510378220316
 13
0.0
 23
0.0
 14
10.0
 24
10.0
 15
10.0
 25
10.0
 16
0.0
 26
0.0
 36
1.0
 17
0.0
 27
0.0
 37
0.0
 40
2476.606526296795
 41
2.071755725190839
 42
50.0
 43
0.0
 44
0.0
 50
0.0
 51
0.0
 71
     0
 72
  1000
 73
     1
 74
     3
 75
     0
 76
     0
 77
     0
 78
     1
281
     0
 65
     1
110
0.0
120
0.0
130
0.0
111
1.0
121
0.0
131
0.0
112
0.0
122
1.0
132
0.0
 79
     0
146
0.0
348
F5
 60
     2
 61
     5
292
     1
282
     1
141
0.0
142
0.0
 63
   250
421
  3355443
  0
ENDTAB
  0
TABLE
  2
LTYPE
  5
5
330
0
100
AcDbSymbolTable
 70
     2
  0
LTYPE
  5
14
330
5
100
AcDbSymbolTableRecord
100
AcDbLinetypeTableRecord
  2
ByBlock
 70
     0
  3

 72
    65
 73
     0
 40
0.0
  0
LTYPE
  5
15
330
5
100
AcDbSymbolTableRecord
100
AcDbLinetypeTableRecord
  2
ByLayer
 70
     0
  3

 72
    65
 73
     0
 40
0.0
  0
LTYPE
  5
16
330
5
100
AcDbSymbolTableRecord
100
AcDbLinetypeTableRecord
  2
Continuous
 70
     0
  3
Solid line
 72
    65
 73
     0
 40
0.0
  0
ENDTAB
  0
TABLE
  2
LAYER
  5
2
102
{ACAD_XDICTIONARY
360
2E5
102
}
330
0
100
AcDbSymbolTable
 70
     4
  0
LAYER
  5
10
102
{ACAD_XDICTIONARY
360
13C
102
}
330
2
100
AcDbSymbolTableRecord
100
AcDbLayerTableRecord
  2
0
 70
     0
 62
     7
  6
Continuous
370
    -3
390
F
347
EE
  0
LAYER
  5
447
330
2
100
AcDbSymbolTableRecord
100
AcDbLayerTableRecord
  2
Defpoints
 70
     0
 62
     7
  6
Continuous
290
     0
370
    -3
390
F
347
EE
  0
LAYER
  5
5B2
330
2
100
AcDbSymbolTableRecord
100
AcDbLayerTableRecord
  2
LAYER01
 70
     0
 62
     7
  6
Continuous
370
    -3
390
F
347
EE
  0
LAYER
  5
5B3
330
2
100
AcDbSymbolTableRecord
100
AcDbLayerTableRecord
  2
7
 70
     0
 62
     7
  6
Continuous
370
    -3
390
F
347
EE
  0
ENDTAB
  0
TABLE
  2
STYLE
  5
3
330
0
100
AcDbSymbolTable
 70
     2
  0
STYLE
  5
11
330
3
100
AcDbSymbolTableRecord
100
AcDbTextStyleTableRecord
  2
Standard
 70
     0
 40
0.0
 41
1.0
 50
0.0
 71
     0
 42
2.5
  3
ARIAL.TTF
  4

1001
ACAD
1000
Arial
1071
       34
  0
STYLE
  5
132
330
3
100
AcDbSymbolTableRecord
100
AcDbTextStyleTableRecord
  2
Annotativa
 70
     0
 40
0.0
 41
1.0
 50
0.0
 71
     0
 42
2.5
  3
ARIAL.TTF
  4

1001
AcadAnnotative
1000
AnnotativeData
1002
{
1070
     1
1070
     1
1002
}
1001
ACAD
1000
Arial
1071
       34
  0
ENDTAB
  0
TABLE
  2
VIEW
  5
6
330
0
100
AcDbSymbolTable
 70
     4
  0
ENDTAB
  0
TABLE
  2
UCS
  5
7
330
0
100
AcDbSymbolTable
 70
     0
  0
ENDTAB
  0
TABLE
  2
APPID
  5
9
330
0
100
AcDbSymbolTable
 70
     8
  0
APPID
  5
12
330
9
100
AcDbSymbolTableRecord
100
AcDbRegAppTableRecord
  2
ACAD
 70
     0
  0
APPID
  5
9E
330
9
100
AcDbSymbolTableRecord
100
AcDbRegAppTableRecord
  2
ACAD_PSEXT
 70
     0
  0
APPID
  5
133
330
9
100
AcDbSymbolTableRecord
100
AcDbRegAppTableRecord
  2
AcadAnnoPO
 70
     0
  0
APPID
  5
134
330
9
100
AcDbSymbolTableRecord
100
AcDbRegAppTableRecord
  2
AcadAnnotative
 70
     0
  0
APPID
  5
135
330
9
100
AcDbSymbolTableRecord
100
AcDbRegAppTableRecord
  2
ACAD_DSTYLE_DIMJAG
 70
     0
  0
APPID
  5
136
330
9
100
AcDbSymbolTableRecord
100
AcDbRegAppTableRecord
  2
ACAD_DSTYLE_DIMTALN
 70
     0
  0
APPID
  5
165
330
9
100
AcDbSymbolTableRecord
100
AcDbRegAppTableRecord
  2
ACAD_MLEADERVER
 70
     0
  0
APPID
  5
1F4
330
9
100
AcDbSymbolTableRecord
100
AcDbRegAppTableRecord
  2
ACAD_EXEMPT_FROM_CAD_STANDARDS
 70
     0
  0
ENDTAB
  0
TABLE
  2
DIMSTYLE
  5
A
330
0
100
AcDbSymbolTable
 70
     4
100
AcDbDimStyleTable
 71
     2
340
27
340
137
  0
DIMSTYLE
105
1B0
330
A
100
AcDbSymbolTableRecord
100
AcDbDimStyleTableRecord
  2
Standard
 70
     0
340
11
  0
DIMSTYLE
105
137
330
A
100
AcDbSymbolTableRecord
100
AcDbDimStyleTableRecord
  2
Annotativa
 70
     0
 40
0.0
 41
2.5
 42
0.625
 43
3.75
 44
1.25
 73
     0
 74
     0
 77
     1
 78
     8
140
2.5
141
2.5
143
0.03937007874016
147
0.625
171
     3
172
     1
271
     2
272
     2
274
     3
278
    44
283
     0
284
     8
340
11
1001
AcadAnnotative
1000
AnnotativeData
1002
{
1070
     1
1070
     1
1002
}
1001
ACAD_DSTYLE_DIMJAG
1070
   388
1040
1.5
1001
ACAD_DSTYLE_DIMTALN
1070
   392
1070
     0
  0
DIMSTYLE
105
27
330
A
100
AcDbSymbolTableRecord
100
AcDbDimStyleTableRecord
  2
ISO-25
 70
     0
 41
2.5
 42
0.625
 43
3.75
 44
1.25
 73
     0
 74
     0
 77
     1
 78
     8
140
2.5
141
2.5
143
0.03937007874016
147
0.625
171
     3
172
     1
271
     2
272
     2
274
     3
278
    44
283
     0
284
     8
340
11
  0
ENDTAB
  0
TABLE
  2
BLOCK_RECORD
  5
1
330
0
100
AcDbSymbolTable
 70
     5
  0
BLOCK_RECORD
  5
1F
102
{ACAD_XDICTIONARY
360
1CE
102
}
330
1
100
AcDbSymbolTableRecord
100
AcDbBlockTableRecord
  2
*Model_Space
340
22
 70
     0
280
     1
281
     0
  0
BLOCK_RECORD
  5
D2
330
1
100
AcDbSymbolTableRecord
100
AcDbBlockTableRecord
  2
*Paper_Space
340
D3
 70
     0
280
     1
281
     0
  0
BLOCK_RECORD
  5
D6
330
1
100
AcDbSymbolTableRecord
100
AcDbBlockTableRecord
  2
*Paper_Space0
340
D7
 70
     0
280
     1
281
     0
  0
BLOCK_RECORD
  5
448
330
1
100
AcDbSymbolTableRecord
100
AcDbBlockTableRecord
  2
*D1
340
0
 70
     0
280
     1
281
     0
  0
BLOCK_RECORD
  5
464
330
1
100
AcDbSymbolTableRecord
100
AcDbBlockTableRecord
  2
*D2
340
0
 70
     0
280
     1
281
     0
  0
ENDTAB
  0
ENDSEC
  0
SECTION
  2
BLOCKS
  0
BLOCK
  5
20
330
1F
100
AcDbEntity
  8
0
100
AcDbBlockBegin
  2
*Model_Space
 70
     0
 10
0.0
 20
0.0
 30
0.0
  3
*Model_Space
  1

  0
ENDBLK
  5
21
330
1F
100
AcDbEntity
  8
0
100
AcDbBlockEnd
  0
BLOCK
  5
D4
330
D2
100
AcDbEntity
 67
     1
  8
0
100
AcDbBlockBegin
  2
*Paper_Space
 70
     0
 10
0.0
 20
0.0
 30
0.0
  3
*Paper_Space
  1

  0
ENDBLK
  5
D5
330
D2
100
AcDbEntity
 67
     1
  8
0
100
AcDbBlockEnd
  0
BLOCK
  5
D8
330
D6
100
AcDbEntity
 67
     1
  8
0
100
AcDbBlockBegin
  2
*Paper_Space0
 70
     0
 10
0.0
 20
0.0
 30
0.0
  3
*Paper_Space0
  1

  0
ENDBLK
  5
D9
330
D6
100
AcDbEntity
 67
     1
  8
0
100
AcDbBlockEnd
  0
BLOCK
  5
449
330
448
100
AcDbEntity
  8
0
100
AcDbBlockBegin
  2
*D1
 70
     1
 10
0.0
 20
0.0
 30
0.0
  3
*D1
  1

  0
LINE
  5
457
330
448
100
AcDbEntity
  8
0
 62
     0
370
    -2
100
AcDbLine
 10
1245.800910196187
 20
801.4226542109421
 30
0.0
 11
1243.419020119246
 21
759.0052069185153
 31
0.0
  0
LINE
  5
458
330
448
100
AcDbEntity
  8
0
 62
     0
370
    -2
100
AcDbLine
 10
1632.342813600795
 20
779.7169556644403
 30
0.0
 11
1629.960923523853
 21
737.2995083720137
 31
0.0
  0
ARC
  5
459
330
448
100
AcDbEntity
  8
0
 62
     0
370
    -2
100
AcDbCircle
 10
1527.800681230461
 20
2370.680513558561
 30
0.0
 40
1635.331487838651
100
AcDbArc
 50
260.0755209763081
 51
273.4965072444301
  0
SOLID
  5
45A
330
448
100
AcDbEntity
  8
0
 62
     0
100
AcDbTrace
 10
1245.879234847775
 20
759.4101071279892
 30
0.0
 11
1246.023487218366
 21
760.2308602565385
 31
0.0
 12
1243.489101647422
 22
760.2532408040363
 32
0.0
 13
1243.489101647422
 23
760.2532408040363
 33
0.0
  0
SOLID
  5
45B
330
448
100
AcDbEntity
  8
0
 62
     0
100
AcDbTrace
 10
1627.510046602425
 20
738.8090372029457
 30
0.0
 11
1627.561505455243
 21
737.9772941952137
 31
0.0
 12
1630.03100505203
 22
738.5475422575344
 32
0.0
 13
1630.03100505203
 23
738.5475422575344
 33
0.0
  0
MTEXT
  5
45C
330
448
100
AcDbEntity
  8
0
 62
     0
100
AcDbMText
 10
1436.234729886609
 20
740.0452661520205
 30
0.0
 40
2.5
 41
0.0
 46
0.0
 71
     5
 72
     1
  1
388,11
 11
0.9984271084167264
 21
-0.0560652225413813
 31
0.0
 73
     1
 44
1.0
  0
ARC
  5
45D
330
448
100
AcDbEntity
  8
0
  6
Continuous
 62
     0
370
    -2
100
AcDbCircle
 10
1428.227942070453
 20
739.2910722684908
 30
0.0
 40
2.403819918144562
100
AcDbArc
 50
356.7860141103691
 51
176.7860141103691
  0
POINT
  5
45E
330
448
100
AcDbEntity
  8
Defpoints
 62
     0
100
AcDbPoint
 10
1527.800681230461
 20
2370.680513558561
 30
0.0
  0
POINT
  5
45F
330
448
100
AcDbEntity
  8
Defpoints
 62
     0
100
AcDbPoint
 10
1245.835950960276
 20
802.0466711537022
 30
0.0
  0
POINT
  5
460
330
448
100
AcDbEntity
  8
Defpoints
 62
     0
100
AcDbPoint
 10
1632.377854364883
 20
780.3409726072009
 30
0.0
  0
POINT
  5
461
330
448
100
AcDbEntity
  8
Defpoints
 62
     0
100
AcDbPoint
 10
1371.628933118136
 20
742.8231917369831
 30
0.0
  0
ENDBLK
  5
44A
330
448
100
AcDbEntity
  8
0
100
AcDbBlockEnd
  0
BLOCK
  5
465
330
464
100
AcDbEntity
  8
0
100
AcDbBlockBegin
  2
*D2
 70
     1
 10
0.0
 20
0.0
 30
0.0
  3
*D2
  1

  0
LINE
  5
471
330
464
100
AcDbEntity
  8
0
 62
     0
370
    -2
100
AcDbLine
 10
1632.342813600795
 20
779.0919556644403
 30
0.0
 11
1632.342813600795
 21
731.758123116616
 31
0.0
  0
LINE
  5
472
330
464
100
AcDbEntity
  8
0
 62
     0
370
    -2
100
AcDbLine
 10
2062.569806301864
 20
806.6106959295225
 30
0.0
 11
2062.569806301864
 21
731.758123116616
 31
0.0
  0
LINE
  5
473
330
464
100
AcDbEntity
  8
0
 62
     0
370
    -2
100
AcDbLine
 10
1634.842813600794
 20
733.008123116616
 30
0.0
 11
2060.069806301864
 21
733.008123116616
 31
0.0
  0
SOLID
  5
474
330
464
100
AcDbEntity
  8
0
 62
     0
100
AcDbTrace
 10
1634.842813600794
 20
733.4247897832828
 30
0.0
 11
1634.842813600794
 21
732.5914564499491
 31
0.0
 12
1632.342813600795
 22
733.008123116616
 32
0.0
 13
1632.342813600795
 23
733.008123116616
 33
0.0
  0
SOLID
  5
475
330
464
100
AcDbEntity
  8
0
 62
     0
100
AcDbTrace
 10
2060.069806301864
 20
733.4247897832828
 30
0.0
 11
2060.069806301864
 21
732.5914564499491
 31
0.0
 12
2062.569806301864
 22
733.008123116616
 32
0.0
 13
2062.569806301864
 23
733.008123116616
 33
0.0
  0
MTEXT
  5
476
330
464
100
AcDbEntity
  8
0
 62
     0
100
AcDbMText
 10
1847.456309951329
 20
735.1355105654562
 30
0.0
 40
2.5
 41
0.0
 46
0.0
 71
     5
 72
     1
  1
430,23
 73
     1
 44
1.0
  0
POINT
  5
477
330
464
100
AcDbEntity
  8
Defpoints
 62
     0
100
AcDbPoint
 10
1632.342813600795
 20
779.7169556644403
 30
0.0
  0
POINT
  5
478
330
464
100
AcDbEntity
  8
Defpoints
 62
     0
100
AcDbPoint
 10
2062.569806301864
 20
807.2356959295227
 30
0.0
  0
POINT
  5
479
330
464
100
AcDbEntity
  8
Defpoints
 62
     0
100
AcDbPoint
 10
2062.569806301864
 20
733.008123116616
 30
0.0
  0
ENDBLK
  5
466
330
464
100
AcDbEntity
  8
0
100
AcDbBlockEnd
  0
ENDSEC
  0
SECTION
  2
ENTITIES
  0
LINE
  5
241
330
1F
100
AcDbEntity
  8
0
100
AcDbLine
 10
1245.835950960274
 20
802.0466711537007
 30
0.0
 11
1245.467453174463
 21
816.1190338481846
 31
0.0
  0
LINE
  5
246
330
1F
100
AcDbEntity
  8
0
100
AcDbLine
 10
1432.377854364886
 20
797.4661389405679
 30
0.0
 11
1432.377854364886
 21
805.4661389405678
 31
0.0
  0
CIRCLE
  5
249
330
1F
100
AcDbEntity
  8
0
100
AcDbCircle
 10
1641.307545329432
 20
837.5406743407737
 30
0.0
 40
3.0
  0
LINE
  5
24A
330
1F
100
AcDbEntity
  8
0
100
AcDbLine
 10
1632.377854364886
 20
832.9692304650638
 30
0.0
 11
1632.377854364886
 21
824.9692304650638
 31
0.0
  0
ARC
  5
24D
330
1F
100
AcDbEntity
  8
0
100
AcDbCircle
 10
1982.377854364886
 20
834.2716773837677
 30
0.0
 40
3.0
100
AcDbArc
 50
180.0
 51
268.438912011274
  0
ARC
  5
24E
330
1F
100
AcDbEntity
  8
0
100
AcDbCircle
 10
1527.800681230461
 20
2370.68051355856
 30
0.0
 40
1593.774212570327
100
AcDbArc
 50
259.8098023278193
 51
273.7622258929189
  0
LINE
  5
24F
330
1F
100
AcDbEntity
  8
0
100
AcDbLine
 10
1632.377854364886
 20
780.3409726071995
 30
0.0
 11
2062.569806301864
 21
807.2356959295227
 31
0.0
  0
LINE
  5
250
330
1F
100
AcDbEntity
  8
0
100
AcDbLine
 10
1244.89358082119
 20
838.0343348528214
 30
0.0
 11
1436.825151598207
 21
864.7496932997928
 31
0.0
  0
LINE
  5
251
330
1F
100
AcDbEntity
  8
0
100
AcDbLine
 10
1979.377854364886
 20
836.540674340774
 30
0.0
 11
1635.186035528012
 21
849.324941897572
 31
0.0
  0
CIRCLE
  5
254
330
1F
100
AcDbEntity
  8
0
100
AcDbCircle
 10
1429.377854364886
 20
851.5496557753598
 30
0.0
 40
3.0
  0
LINE
  5
255
330
1F
100
AcDbEntity
  8
0
100
AcDbLine
 10
1435.377854364886
 20
797.4661389405679
 30
0.0
 11
1435.377854364886
 21
805.4661389405678
 31
0.0
  0
LINE
  5
275
330
1F
100
AcDbEntity
  8
0
100
AcDbLine
 10
1781.051434549539
 20
829.8974304052057
 30
0.0
 11
1655.711909728565
 21
834.5528984699846
 31
0.0
  0
ARC
  5
276
330
1F
100
AcDbEntity
  8
0
100
AcDbCircle
 10
1655.377854364886
 20
825.5591002170772
 30
0.0
 40
9.000000000000033
100
AcDbArc
 50
87.87284888714893
 51
180.0
  0
LINE
  5
277
330
1F
100
AcDbEntity
  8
0
100
AcDbLine
 10
1646.377854364885
 20
825.5591002170772
 30
0.0
 11
1646.377854364885
 21
804.8237895540406
 31
0.0
  0
ARC
  5
278
330
1F
100
AcDbEntity
  8
0
100
AcDbCircle
 10
1655.377854364886
 20
804.8237895540406
 30
0.0
 40
9.0
100
AcDbArc
 50
180.0
 51
273.57735941249
  0
LINE
  5
279
330
1F
100
AcDbEntity
  8
0
100
AcDbLine
 10
1655.939419639146
 20
795.8413263928167
 30
0.0
 11
1781.304223339074
 21
803.6788781989017
 31
0.0
  0
ARC
  5
27A
330
1F
100
AcDbEntity
  8
0
100
AcDbCircle
 10
1780.680261923229
 20
813.6593928224838
 30
0.0
 40
10.00000000000003
100
AcDbArc
 50
273.57735941249
 51
0.0
  0
LINE
  5
27B
330
1F
100
AcDbEntity
  8
0
100
AcDbLine
 10
1790.680261923229
 20
813.6593928224838
 30
0.0
 11
1790.680261923229
 21
819.9043212353085
 31
0.0
  0
LINE
  5
27C
330
1F
100
AcDbEntity
  8
0
100
AcDbLine
 10
1813.304223339074
 20
805.6794529247635
 30
0.0
 11
1937.421104207312
 21
813.4389871409453
 31
0.0
  0
ARC
  5
27D
330
1F
100
AcDbEntity
  8
0
100
AcDbCircle
 10
1937.171519640974
 20
817.4311929903781
 30
0.0
 40
4.000000000000079
100
AcDbArc
 50
273.5773594124899
 51
0.0
  0
LINE
  5
27E
330
1F
100
AcDbEntity
  8
0
100
AcDbLine
 10
1941.171519640974
 20
817.4311929903781
 30
0.0
 11
1941.171519640974
 21
820.0959261548316
 31
0.0
  0
ARC
  5
27F
330
1F
100
AcDbEntity
  8
0
100
AcDbCircle
 10
1937.171519640974
 20
820.0959261548312
 30
0.0
 40
3.999999999999771
100
AcDbArc
 50
0.0000000000032569
 51
87.87284888715182
  0
LINE
  5
280
330
1F
100
AcDbEntity
  8
0
100
AcDbLine
 10
1937.319988691498
 20
824.09316982279
 30
0.0
 11
1813.051434549539
 21
828.7088589766343
 31
0.0
  0
ARC
  5
281
330
1F
100
AcDbEntity
  8
0
100
AcDbCircle
 10
1812.680261923229
 20
818.7157498067373
 30
0.0
 40
9.999999999999996
100
AcDbArc
 50
87.87284888714918
 51
180.0
  0
LINE
  5
282
330
1F
100
AcDbEntity
  8
0
100
AcDbLine
 10
1802.680261923229
 20
818.7157498067373
 30
0.0
 11
1802.680261923229
 21
815.6599675483457
 31
0.0
  0
ARC
  5
283
330
1F
100
AcDbEntity
  8
0
100
AcDbCircle
 10
1780.680261923229
 20
819.9043212353085
 30
0.0
 40
10.0
100
AcDbArc
 50
0.0
 51
87.87284888714918
  0
ARC
  5
284
330
1F
100
AcDbEntity
  8
0
100
AcDbCircle
 10
1812.680261923229
 20
815.6599675483457
 30
0.0
 40
10.0
100
AcDbArc
 50
180.0
 51
273.5773594124897
  0
LINE
  5
29D
330
1F
100
AcDbEntity
  8
0
100
AcDbLine
 10
1520.653185470896
 20
1057.32901961495
 30
0.0
 11
1520.653185470895
 21
1033.503735861962
 31
0.0
  0
LINE
  5
29E
330
1F
100
AcDbEntity
  8
0
100
AcDbLine
 10
1520.653185470895
 20
1033.503735861962
 30
0.0
 11
1726.983012832385
 21
1022.738701390928
 31
0.0
  0
LINE
  5
2A8
330
1F
100
AcDbEntity
  8
0
100
AcDbLine
 10
1980.653185470897
 20
1056.503735861962
 30
0.0
 11
1980.653185470897
 21
1033.503735861962
 31
0.0
  0
LINE
  5
2A9
330
1F
100
AcDbEntity
  8
0
100
AcDbLine
 10
1980.653185470897
 20
1033.503735861962
 30
0.0
 11
1774.323358109406
 21
1022.738701390928
 31
0.0
  0
LINE
  5
2B5
330
1F
100
AcDbEntity
  8
0
100
AcDbLine
 10
1760.045469490504
 20
1053.503735861962
 30
0.0
 11
1774.323358109406
 21
1022.738701390928
 31
0.0
  0
LINE
  5
2B8
330
1F
100
AcDbEntity
  8
0
100
AcDbLine
 10
1741.260901451288
 20
1053.503735861962
 30
0.0
 11
1726.983012832385
 21
1022.738701390928
 31
0.0
  0
LINE
  5
2BB
330
1F
100
AcDbEntity
  8
0
100
AcDbLine
 10
1695.653185470896
 20
1053.503735861962
 30
0.0
 11
1741.260901451288
 21
1053.503735861962
 31
0.0
  0
LINE
  5
2BF
330
1F
100
AcDbEntity
  8
0
100
AcDbLine
 10
1695.653185470896
 20
1057.32901961495
 30
0.0
 11
1695.653185470896
 21
1053.503735861962
 31
0.0
  0
LINE
  5
2CA
330
1F
100
AcDbEntity
  8
0
100
AcDbLine
 10
1970.519026899735
 20
847.5233469910721
 30
0.0
 11
2045.871008204968
 21
1018.002201302952
 31
0.0
  0
LINE
  5
2CB
330
1F
100
AcDbEntity
  8
0
100
AcDbLine
 10
1970.519026899735
 20
847.5233469910721
 30
0.0
 11
2050.172815695903
 21
870.520116085346
 31
0.0
  0
LINE
  5
326
330
1F
100
AcDbEntity
  8
0
100
AcDbLine
 10
1521.645323622284
 20
1071.503735861962
 30
0.0
 11
1521.726512577162
 21
1071.503735861962
 31
0.0
  0
LINE
  5
338
330
1F
100
AcDbEntity
  8
0
100
AcDbLine
 10
2003.470061516247
 20
1015.05558491225
 30
0.0
 11
1887.327074962757
 21
876.8283254023232
 31
0.0
  0
LINE
  5
339
330
1F
100
AcDbEntity
  8
0
100
AcDbLine
 10
2009.671941400385
 20
1018.002201302952
 30
0.0
 11
2066.630018355276
 21
1018.002201302952
 31
0.0
  0
LINE
  5
343
330
1F
100
AcDbEntity
  8
0
100
AcDbLine
 10
2074.550886128003
 20
1008.879769243999
 30
0.0
 11
2055.874642113539
 21
877.0837659583261
 31
0.0
  0
ARC
  5
34A
330
1F
100
AcDbEntity
  8
0
100
AcDbCircle
 10
2009.671941400385
 20
1010.002201302952
 30
0.0
 40
8.0
100
AcDbArc
 50
90.0
 51
140.8263420295538
  0
ARC
  5
34B
330
1F
100
AcDbEntity
  8
0
100
AcDbCircle
 10
2066.630018355276
 20
1010.002201302952
 30
0.0
 40
8.0
100
AcDbArc
 50
351.9345617806469
 51
90.0
  0
ARC
  5
34C
330
1F
100
AcDbEntity
  8
0
100
AcDbCircle
 10
2047.953774340812
 20
878.2061980172789
 30
0.0
 40
8.0
100
AcDbArc
 50
286.103907070662
 51
351.9345617806469
  0
LINE
  5
350
330
1F
100
AcDbEntity
  8
0
100
AcDbLine
 10
1629.377854364886
 20
832.9692304650638
 30
0.0
 11
1629.377854364886
 21
824.9692304650638
 31
0.0
  0
LINE
  5
36F
330
1F
100
AcDbEntity
  8
0
100
AcDbLine
 10
1556.820976047374
 20
891.4780878242051
 30
0.0
 11
1578.820976047374
 21
891.4780878242053
 31
0.0
  0
LINE
  5
371
330
1F
100
AcDbEntity
  8
0
100
AcDbLine
 10
1604.820976047374
 20
961.4780878242052
 30
0.0
 11
1556.820976047374
 21
961.4780878242052
 31
0.0
  0
LINE
  5
377
330
1F
100
AcDbEntity
  8
0
100
AcDbLine
 10
1560.820976047374
 20
927.8314973115952
 30
0.0
 11
1560.820976047374
 21
909.4780878242056
 31
0.0
  0
LINE
  5
378
330
1F
100
AcDbEntity
  8
0
100
AcDbLine
 10
1592.820976047374
 20
951.4780878242056
 30
0.0
 11
1568.820976047374
 21
951.4780878242056
 31
0.0
  0
LINE
  5
379
330
1F
100
AcDbEntity
  8
0
100
AcDbLine
 10
1600.820976047373
 20
909.4780878242053
 30
0.0
 11
1600.820976047374
 21
927.831497311595
 31
0.0
  0
LINE
  5
37A
330
1F
100
AcDbEntity
  8
0
100
AcDbLine
 10
1568.820976047374
 20
901.4780878242056
 30
0.0
 11
1592.820976047374
 21
901.4780878242056
 31
0.0
  0
ARC
  5
382
330
1F
100
AcDbEntity
  8
0
100
AcDbCircle
 10
1568.820976047374
 20
909.4780878242056
 30
0.0
 40
8.0
100
AcDbArc
 50
179.9999999999995
 51
270.0
  0
ARC
  5
383
330
1F
100
AcDbEntity
  8
0
100
AcDbCircle
 10
1592.820976047374
 20
909.4780878242056
 30
0.0
 40
8.0
100
AcDbArc
 50
270.0
 51
359.9999999999995
  0
ARC
  5
384
330
1F
100
AcDbEntity
  8
0
100
AcDbCircle
 10
1568.820976047374
 20
943.4780878242056
 30
0.0
 40
8.0
100
AcDbArc
 50
90.0
 51
154.0858140407134
  0
ARC
  5
385
330
1F
100
AcDbEntity
  8
0
100
AcDbCircle
 10
1592.820976047374
 20
943.4780878242056
 30
0.0
 40
8.0
100
AcDbArc
 50
25.91418595928659
 51
90.0
  0
LINE
  5
389
330
1F
100
AcDbEntity
  8
0
100
AcDbLine
 10
1561.62537922427
 20
946.9742838083192
 30
0.0
 11
1600.016572870478
 21
946.9742838083192
 31
0.0
  0
LINE
  5
38B
330
1F
100
AcDbEntity
  8
0
100
AcDbLine
 10
1592.820976047374
 20
935.8314973115952
 30
0.0
 11
1568.820976047374
 21
935.8314973115952
 31
0.0
  0
CIRCLE
  5
38C
330
1F
100
AcDbEntity
  8
0
100
AcDbCircle
 10
1562.820976047374
 20
941.4780878242053
 30
0.0
 40
1.5
  0
CIRCLE
  5
38D
330
1F
100
AcDbEntity
  8
0
100
AcDbCircle
 10
1598.820976047374
 20
941.4780878242053
 30
0.0
 40
1.5
  0
ARC
  5
38E
330
1F
100
AcDbEntity
  8
0
100
AcDbCircle
 10
1568.820976047374
 20
927.8314973115952
 30
0.0
 40
8.0
100
AcDbArc
 50
90.0
 51
179.9999999999995
  0
ARC
  5
38F
330
1F
100
AcDbEntity
  8
0
100
AcDbCircle
 10
1592.820976047374
 20
927.8314973115952
 30
0.0
 40
8.0
100
AcDbArc
 50
359.9999999999995
 51
90.0
  0
LINE
  5
394
330
1F
100
AcDbEntity
  8
0
100
AcDbLine
 10
1582.820976047374
 20
891.4780878242053
 30
0.0
 11
1582.820976047374
 21
894.1281844212793
 31
0.0
  0
LINE
  5
39A
330
1F
100
AcDbEntity
  8
0
100
AcDbLine
 10
1578.820976047374
 20
891.4780878242053
 30
0.0
 11
1578.820976047374
 21
896.4780878242052
 31
0.0
  0
LINE
  5
39B
330
1F
100
AcDbEntity
  8
0
100
AcDbLine
 10
1578.820976047374
 20
896.4780878242052
 30
0.0
 11
1582.820976047374
 21
896.4780878242052
 31
0.0
  0
LINE
  5
39C
330
1F
100
AcDbEntity
  8
0
100
AcDbLine
 10
1582.820976047374
 20
896.4780878242052
 30
0.0
 11
1582.820976047374
 21
891.4780878242053
 31
0.0
  0
LINE
  5
39D
330
1F
100
AcDbEntity
  8
0
100
AcDbLine
 10
1582.820976047374
 20
891.4780878242053
 30
0.0
 11
1604.820976047374
 21
891.4780878242053
 31
0.0
  0
LINE
  5
3A6
330
1F
100
AcDbEntity
  8
0
100
AcDbLine
 10
1400.702278801468
 20
892.6510197976289
 30
0.0
 11
1400.702278801468
 21
897.6510197976288
 31
0.0
  0
LINE
  5
3A7
330
1F
100
AcDbEntity
  8
0
100
AcDbLine
 10
1400.702278801468
 20
897.6510197976288
 30
0.0
 11
1404.702278801467
 21
897.6510197976288
 31
0.0
  0
LINE
  5
3A8
330
1F
100
AcDbEntity
  8
0
100
AcDbLine
 10
1404.702278801467
 20
897.6510197976288
 30
0.0
 11
1404.702278801467
 21
892.6510197976289
 31
0.0
  0
LINE
  5
3A9
330
1F
100
AcDbEntity
  8
0
100
AcDbLine
 10
1291.770581717061
 20
891.1506594602252
 30
0.0
 11
1291.770581717061
 21
896.1506594602253
 31
0.0
  0
LINE
  5
3AA
330
1F
100
AcDbEntity
  8
0
100
AcDbLine
 10
1291.770581717061
 20
896.1506594602253
 30
0.0
 11
1295.77058171706
 21
896.1506594602253
 31
0.0
  0
LINE
  5
3AB
330
1F
100
AcDbEntity
  8
0
100
AcDbLine
 10
1295.77058171706
 20
896.1506594602253
 30
0.0
 11
1295.77058171706
 21
891.1506594602252
 31
0.0
  0
LINE
  5
3BF
330
1F
100
AcDbEntity
  8
0
100
AcDbLine
 10
1369.702278801467
 20
958.7084539026275
 30
0.0
 11
1372.702278801468
 21
958.7084539026275
 31
0.0
  0
LINE
  5
3C0
330
1F
100
AcDbEntity
  8
0
100
AcDbLine
 10
1435.702278801467
 20
909.9449645270032
 30
0.0
 11
1432.702278801468
 21
909.9449645270032
 31
0.0
  0
LINE
  5
3C1
330
1F
100
AcDbEntity
  8
0
100
AcDbLine
 10
1435.702278801467
 20
917.9449645270032
 30
0.0
 11
1432.702278801468
 21
917.9449645270032
 31
0.0
  0
LINE
  5
3C2
330
1F
100
AcDbEntity
  8
0
100
AcDbLine
 10
1369.702278801467
 20
950.7084539026275
 30
0.0
 11
1372.702278801468
 21
950.7084539026275
 31
0.0
  0
LINE
  5
3D2
330
1F
100
AcDbEntity
  8
0
100
AcDbLine
 10
1372.702278801468
 20
917.9449645270032
 30
0.0
 11
1369.702278801467
 21
917.9449645270032
 31
0.0
  0
LINE
  5
3D3
330
1F
100
AcDbEntity
  8
0
100
AcDbLine
 10
1372.702278801468
 20
909.9449645270032
 30
0.0
 11
1369.702278801467
 21
909.9449645270032
 31
0.0
  0
LINE
  5
3D6
330
1F
100
AcDbEntity
  8
0
100
AcDbLine
 10
1432.702278801468
 20
950.7084539026275
 30
0.0
 11
1435.702278801467
 21
950.7084539026275
 31
0.0
  0
LINE
  5
3D7
330
1F
100
AcDbEntity
  8
0
100
AcDbLine
 10
1432.702278801468
 20
958.7084539026275
 30
0.0
 11
1435.702278801467
 21
958.7084539026275
 31
0.0
  0
LINE
  5
3E3
330
1F
100
AcDbEntity
  8
0
100
AcDbLine
 10
1547.820976047374
 20
944.1939418510028
 30
0.0
 11
1550.820976047374
 21
944.1939418510028
 31
0.0
  0
LINE
  5
3E5
330
1F
100
AcDbEntity
  8
0
100
AcDbLine
 10
1547.820976047374
 20
936.1939418510027
 30
0.0
 11
1550.820976047374
 21
936.1939418510027
 31
0.0
  0
LINE
  5
3E7
330
1F
100
AcDbEntity
  8
0
100
AcDbLine
 10
1547.820976047374
 20
944.1939418510028
 30
0.0
 11
1547.820976047374
 21
936.1939418510027
 31
0.0
  0
LINE
  5
3EE
330
1F
100
AcDbEntity
  8
0
100
AcDbLine
 10
1547.820976047374
 20
915.9426960449698
 30
0.0
 11
1547.820976047374
 21
907.9426960449696
 31
0.0
  0
LINE
  5
3F4
330
1F
100
AcDbEntity
  8
0
100
AcDbLine
 10
1550.820976047374
 20
907.9426960449696
 30
0.0
 11
1547.820976047374
 21
907.9426960449696
 31
0.0
  0
LINE
  5
3F5
330
1F
100
AcDbEntity
  8
0
100
AcDbLine
 10
1550.820976047374
 20
915.9426960449696
 30
0.0
 11
1547.820976047374
 21
915.9426960449698
 31
0.0
  0
LINE
  5
423
330
1F
100
AcDbEntity
  8
0
100
AcDbLine
 10
1432.377854364886
 20
846.229628316192
 30
0.0
 11
1435.377854364886
 21
846.229628316192
 31
0.0
  0
LINE
  5
424
330
1F
100
AcDbEntity
  8
0
100
AcDbLine
 10
1432.377854364886
 20
838.229628316192
 30
0.0
 11
1435.377854364886
 21
838.229628316192
 31
0.0
  0
LINE
  5
425
330
1F
100
AcDbEntity
  8
0
100
AcDbLine
 10
1435.377854364886
 20
797.4661389405679
 30
0.0
 11
1432.377854364886
 21
797.4661389405679
 31
0.0
  0
LINE
  5
426
330
1F
100
AcDbEntity
  8
0
100
AcDbLine
 10
1435.377854364886
 20
805.4661389405678
 30
0.0
 11
1432.377854364886
 21
805.4661389405678
 31
0.0
  0
LINE
  5
427
330
1F
100
AcDbEntity
  8
0
100
AcDbLine
 10
1435.377854364886
 20
838.229628316192
 30
0.0
 11
1435.377854364886
 21
846.229628316192
 31
0.0
  0
LINE
  5
428
330
1F
100
AcDbEntity
  8
0
100
AcDbLine
 10
1432.377854364886
 20
838.229628316192
 30
0.0
 11
1432.377854364886
 21
846.229628316192
 31
0.0
  0
LINE
  5
42C
330
1F
100
AcDbEntity
  8
0
100
AcDbLine
 10
1629.377854364886
 20
796.7179846590306
 30
0.0
 11
1632.377854364885
 21
796.7179846590306
 31
0.0
  0
LINE
  5
42D
330
1F
100
AcDbEntity
  8
0
100
AcDbLine
 10
1632.377854364885
 20
804.7179846590307
 30
0.0
 11
1629.377854364886
 21
804.7179846590307
 31
0.0
  0
LINE
  5
42E
330
1F
100
AcDbEntity
  8
0
100
AcDbLine
 10
1629.377854364886
 20
804.7179846590307
 30
0.0
 11
1632.377854364885
 21
804.7179846590307
 31
0.0
  0
LINE
  5
42F
330
1F
100
AcDbEntity
  8
0
100
AcDbLine
 10
1629.377854364886
 20
824.9692304650638
 30
0.0
 11
1632.377854364886
 21
824.9692304650638
 31
0.0
  0
LINE
  5
430
330
1F
100
AcDbEntity
  8
0
100
AcDbLine
 10
1632.377854364886
 20
832.9692304650638
 30
0.0
 11
1629.377854364886
 21
832.9692304650638
 31
0.0
  0
LINE
  5
431
330
1F
100
AcDbEntity
  8
0
100
AcDbLine
 10
1632.377854364886
 20
804.7179846590307
 30
0.0
 11
1632.377854364886
 21
796.7179846590307
 31
0.0
  0
LINE
  5
432
330
1F
100
AcDbEntity
  8
0
100
AcDbLine
 10
1629.377854364886
 20
804.7179846590307
 30
0.0
 11
1629.377854364886
 21
796.7179846590306
 31
0.0
  0
LINE
  5
433
330
1F
100
AcDbEntity
  8
0
100
AcDbLine
 10
1979.377854364886
 20
834.2716773837677
 30
0.0
 11
1979.377854364886
 21
836.5406743407737
 31
0.0
  0
LINE
  5
43B
330
1F
100
AcDbEntity
  8
0
100
AcDbLine
 10
1619.34220633563
 20
568.3419468311877
 30
0.0
 11
2062.34220633563
 21
541.1578559220968
 31
0.0
  0
LINE
  5
43C
330
1F
100
AcDbEntity
  8
0
100
AcDbLine
 10
1619.34220633563
 20
502.3419468311876
 30
0.0
 11
2062.34220633563
 21
529.5260377402786
 31
0.0
  0
LINE
  5
445
330
1F
100
AcDbEntity
  8
0
100
AcDbLine
 10
1619.34220633563
 20
502.3419468311876
 30
0.0
 11
1619.34220633563
 21
568.3419468311877
 31
0.0
  0
LINE
  5
47C
330
1F
100
AcDbEntity
  8
0
100
AcDbLine
 10
1240.59750362332
 20
616.4326118043102
 30
0.0
 11
1241.699152594617
 21
658.502888704292
 31
0.0
  0
LINE
  5
47D
330
1F
100
AcDbEntity
  8
0
100
AcDbLine
 10
2060.597503623319
 20
631.4326118043102
 30
0.0
 11
2060.597503623319
 21
643.4326118043102
 31
0.0
  0
LINE
  5
489
330
1F
100
AcDbEntity
  8
0
100
AcDbLine
 10
1241.699152594617
 20
658.5028887042921
 30
0.0
 11
1428.707503623319
 21
670.4326118043102
 31
0.0
  0
LINE
  5
48A
330
1F
100
AcDbEntity
  8
0
100
AcDbLine
 10
1428.707503623319
 20
670.4326118043102
 30
0.0
 11
1628.70750362332
 21
670.4326118043102
 31
0.0
  0
LINE
  5
48B
330
1F
100
AcDbEntity
  8
0
100
AcDbLine
 10
1628.70750362332
 20
670.4326118043102
 30
0.0
 11
2060.597503623319
 21
643.4326118043102
 31
0.0
  0
LINE
  5
48C
330
1F
100
AcDbEntity
  8
0
100
AcDbLine
 10
1240.59750362332
 20
616.4326118043102
 30
0.0
 11
1428.707503623319
 21
604.4326118043102
 31
0.0
  0
LINE
  5
48D
330
1F
100
AcDbEntity
  8
0
100
AcDbLine
 10
1428.707503623319
 20
604.4326118043102
 30
0.0
 11
1628.70750362332
 21
604.4326118043102
 31
0.0
  0
LINE
  5
48E
330
1F
100
AcDbEntity
  8
0
100
AcDbLine
 10
1628.70750362332
 20
604.4326118043102
 30
0.0
 11
2060.597503623319
 21
631.4326118043102
 31
0.0
  0
LINE
  5
493
330
1F
100
AcDbEntity
  8
0
100
AcDbLine
 10
1859.778089682886
 20
568.1816097002287
 30
0.0
 11
1859.778089682886
 21
610.1816097002287
 31
0.0
  0
LINE
  5
494
330
1F
100
AcDbEntity
  8
0
100
AcDbLine
 10
1859.778089682886
 20
610.1816097002287
 30
0.0
 11
2047.888089682886
 21
622.1816097002282
 31
0.0
  0
LINE
  5
495
330
1F
100
AcDbEntity
  8
0
100
AcDbLine
 10
2047.888089682886
 20
622.1816097002282
 30
0.0
 11
2059.778089682886
 21
622.1816097002282
 31
0.0
  0
LINE
  5
497
330
1F
100
AcDbEntity
  8
0
100
AcDbLine
 10
1859.778089682886
 20
568.1816097002287
 30
0.0
 11
2047.888089682886
 21
556.1816097002283
 31
0.0
  0
LINE
  5
498
330
1F
100
AcDbEntity
  8
0
100
AcDbLine
 10
2047.888089682886
 20
556.1816097002283
 30
0.0
 11
2059.778089682886
 21
556.1816097002287
 31
0.0
  0
LINE
  5
49B
330
1F
100
AcDbEntity
  8
0
100
AcDbLine
 10
2059.778089682886
 20
589.1816097002287
 30
0.0
 11
2059.778089682886
 21
622.1816097002282
 31
0.0
  0
LINE
  5
49C
330
1F
100
AcDbEntity
  8
0
100
AcDbLine
 10
2059.778089682886
 20
622.1816097002287
 30
0.0
 11
2059.778089682886
 21
556.1816097002287
 31
0.0
  0
MTEXT
  5
49E
330
1F
100
AcDbEntity
  8
0
100
AcDbMText
 10
1397.948514524356
 20
641.9548693457992
 30
0.0
 40
2.5
 41
33.63449619469156
 46
0.0
 71
     1
 72
     5
  1
B3
 73
     1
 44
1.0
1001
ACAD
1000
ACAD_MTEXT_COLUMN_INFO_BEGIN
1070
    75
1070
     2
1070
    79
1070
     0
1070
    76
1070
     1
1070
    78
1070
     0
1070
    48
1040
33.63449619469156
1070
    49
1040
12.5
1070
    50
1070
     1
1040
0.0
1000
ACAD_MTEXT_COLUMN_INFO_END
  0
MTEXT
  5
49F
330
1F
100
AcDbEntity
  8
0
100
AcDbMText
 10
1962.055685056627
 20
595.3661641813583
 30
0.0
 40
2.5
 41
14.15491985833114
 46
0.0
 71
     1
 72
     5
  1
B6
 73
     1
 44
1.0
1001
ACAD
1000
ACAD_MTEXT_COLUMN_INFO_BEGIN
1070
    75
1070
     2
1070
    79
1070
     0
1070
    76
1070
     1
1070
    78
1070
     0
1070
    48
1040
14.15491985833114
1070
    49
1040
12.5
1070
    50
1070
     1
1040
0.0
1000
ACAD_MTEXT_COLUMN_INFO_END
  0
MTEXT
  5
4A0
330
1F
100
AcDbEntity
  8
0
100
AcDbMText
 10
1691.689088388824
 20
537.4504586319843
 30
0.0
 40
2.5
 41
17.01861561428495
 46
0.0
 71
     1
 72
     5
  1
B3
 73
     1
 44
1.0
1001
ACAD
1000
ACAD_MTEXT_COLUMN_INFO_BEGIN
1070
    75
1070
     2
1070
    79
1070
     0
1070
    76
1070
     1
1070
    78
1070
     0
1070
    48
1040
17.01861561428495
1070
    49
1040
12.5
1070
    50
1070
     1
1040
0.0
1000
ACAD_MTEXT_COLUMN_INFO_END
  0
MTEXT
  5
4A1
330
1F
100
AcDbEntity
  8
0
100
AcDbMText
 10
1509.487275119609
 20
820.4724644895508
 30
0.0
 40
2.5
 41
26.15409421250888
 46
0.0
 71
     1
 72
     5
  1
Cp 3
 73
     1
 44
1.0
1001
ACAD
1000
ACAD_MTEXT_COLUMN_INFO_BEGIN
1070
    75
1070
     2
1070
    79
1070
     0
1070
    76
1070
     1
1070
    78
1070
     0
1070
    48
1040
26.15409421250888
1070
    49
1040
12.5
1070
    50
1070
     1
1040
0.0
1000
ACAD_MTEXT_COLUMN_INFO_END
  0
MTEXT
  5
4A3
330
1F
100
AcDbEntity
  8
0
100
AcDbMText
 10
1578.063596824912
 20
942.6624415621033
 30
0.0
 40
2.5
 41
0.5282714400377701
 46
0.0
 71
     1
 72
     5
  1
Cp3
 73
     1
 44
1.0
1001
ACAD
1000
ACAD_MTEXT_COLUMN_INFO_BEGIN
1070
    75
1070
     2
1070
    79
1070
     0
1070
    76
1070
     1
1070
    78
1070
     0
1070
    48
1040
0.5282714400377701
1070
    49
1040
12.5
1070
    50
1070
     1
1040
0.0
1000
ACAD_MTEXT_COLUMN_INFO_END
  0
ARC
  5
4F5
330
1F
100
AcDbEntity
  8
0
100
AcDbCircle
 10
1536.208472714127
 20
1627.774244004528
 30
0.0
 40
1124.237158206685
100
AcDbArc
 50
253.5092641295654
 51
270.3530170637299
  0
ARC
  5
4F6
330
1F
100
AcDbEntity
  8
0
100
AcDbCircle
 10
1602.6590017685
 20
455.4729099144171
 30
0.0
 40
72.72612518335225
100
AcDbArc
 50
89.23967009747036
 51
134.2963329567326
  0
ARC
  5
509
330
1F
100
AcDbEntity
  8
0
100
AcDbCircle
 10
1542.953139404368
 20
515.5570435256254
 30
0.0
 40
12.0
100
AcDbArc
 50
270.8693211822497
 51
317.9887152768103
  0
ARC
  5
52A
330
1F
100
AcDbEntity
  8
0
100
AcDbCircle
 10
1499.046894913124
 20
2121.519165229866
 30
0.0
 40
1587.774212570327
100
AcDbArc
 50
259.7708812467293
 51
273.7764634583405
  0
MTEXT
  5
52D
330
1F
100
AcDbEntity
  8
0
100
AcDbMText
 10
1462.289099936419
 20
520.4706901375096
 30
0.0
 40
2.5
 41
44.74686514669156
 46
0.0
 71
     1
 72
     5
  1
Cp4
 73
     1
 44
1.0
1001
ACAD
1000
ACAD_MTEXT_COLUMN_INFO_BEGIN
1070
    75
1070
     2
1070
    79
1070
     0
1070
    76
1070
     1
1070
    78
1070
     0
1070
    48
1040
44.74686514669156
1070
    49
1040
12.5
1070
    50
1070
     1
1040
0.0
1000
ACAD_MTEXT_COLUMN_INFO_END
  0
LINE
  5
638
330
1F
100
AcDbEntity
  8
0
100
AcDbLine
 10
1550.820976047374
 20
955.4780878242054
 30
0.0
 11
1550.820976047374
 21
944.1939418510028
 31
0.0
  0
LINE
  5
639
330
1F
100
AcDbEntity
  8
0
100
AcDbLine
 10
1550.820976047374
 20
936.1939418510027
 30
0.0
 11
1550.820976047374
 21
915.9426960449696
 31
0.0
  0
LINE
  5
63A
330
1F
100
AcDbEntity
  8
0
100
AcDbLine
 10
1550.820976047374
 20
907.9426960449696
 30
0.0
 11
1550.820976047374
 21
897.4780878242054
 31
0.0
  0
LINE
  5
63B
330
1F
100
AcDbEntity
  8
0
100
AcDbLine
 10
1613.820976047374
 20
944.1939418510028
 30
0.0
 11
1613.820976047374
 21
936.1939418510027
 31
0.0
  0
LINE
  5
63C
330
1F
100
AcDbEntity
  8
0
100
AcDbLine
 10
1613.820976047374
 20
915.9426960449698
 30
0.0
 11
1613.820976047374
 21
907.9426960449696
 31
0.0
  0
LINE
  5
63D
330
1F
100
AcDbEntity
  8
0
100
AcDbLine
 10
1613.820976047374
 20
944.1939418510028
 30
0.0
 11
1610.820976047374
 21
944.1939418510028
 31
0.0
  0
LINE
  5
63E
330
1F
100
AcDbEntity
  8
0
100
AcDbLine
 10
1613.820976047374
 20
936.1939418510027
 30
0.0
 11
1610.820976047374
 21
936.1939418510027
 31
0.0
  0
LINE
  5
63F
330
1F
100
AcDbEntity
  8
0
100
AcDbLine
 10
1610.820976047374
 20
907.9426960449696
 30
0.0
 11
1613.820976047374
 21
907.9426960449696
 31
0.0
  0
LINE
  5
640
330
1F
100
AcDbEntity
  8
0
100
AcDbLine
 10
1610.820976047374
 20
915.9426960449696
 30
0.0
 11
1613.820976047374
 21
915.9426960449698
 31
0.0
  0
LINE
  5
641
330
1F
100
AcDbEntity
  8
0
100
AcDbLine
 10
1610.820976047374
 20
955.4780878242054
 30
0.0
 11
1610.820976047374
 21
944.1939418510028
 31
0.0
  0
LINE
  5
642
330
1F
100
AcDbEntity
  8
0
100
AcDbLine
 10
1610.820976047374
 20
936.1939418510027
 30
0.0
 11
1610.820976047374
 21
915.9426960449696
 31
0.0
  0
LINE
  5
643
330
1F
100
AcDbEntity
  8
0
100
AcDbLine
 10
1610.820976047374
 20
907.9426960449696
 30
0.0
 11
1610.820976047374
 21
897.4780878242054
 31
0.0
  0
LINE
  5
668
330
1F
100
AcDbEntity
  8
0
100
AcDbLine
 10
2062.34220633563
 20
537.1419468311876
 30
0.0
 11
2062.34220633563
 21
541.1578559220968
 31
0.0
  0
LINE
  5
669
330
1F
100
AcDbEntity
  8
0
100
AcDbLine
 10
2062.34220633563
 20
529.5260377402786
 30
0.0
 11
2062.34220633563
 21
533.5419468311876
 31
0.0
  0
LINE
  5
66F
330
1F
100
AcDbEntity
  8
0
100
AcDbLine
 10
1217.082164643106
 20
558.9818565594205
 30
0.0
 11
1217.082164643106
 21
549.7818565594204
 31
0.0
  0
LINE
  5
676
330
1F
100
AcDbEntity
  8
0
100
AcDbLine
 10
1603.624068047812
 20
537.1926316634801
 30
0.0
 11
1603.624068047812
 21
528.1926316634801
 31
0.0
  0
LINE
  5
687
330
1F
100
AcDbEntity
  8
0
100
AcDbLine
 10
2062.34220633563
 20
537.1419468311876
 30
0.0
 11
1969.34220633563
 21
537.1419468311876
 31
0.0
  0
LINE
  5
688
330
1F
100
AcDbEntity
  8
0
100
AcDbLine
 10
2062.34220633563
 20
533.5419468311876
 30
0.0
 11
1969.34220633563
 21
533.5419468311876
 31
0.0
  0
LINE
  5
68F
330
1F
100
AcDbEntity
  8
0
100
AcDbLine
 10
1969.34220633563
 20
533.5419468311876
 30
0.0
 11
1969.34220633563
 21
537.1419468311876
 31
0.0
  0
LINE
  5
692
330
1F
100
AcDbEntity
  8
0
100
AcDbLine
 10
1887.327074962757
 20
876.8283254023232
 30
0.0
 11
1981.918948631654
 21
873.314912951764
 31
0.0
  0
LINE
  5
693
330
1F
100
AcDbEntity
  8
0
100
AcDbLine
 10
2062.569806301864
 20
807.2356959295227
 30
0.0
 11
2072.112338471858
 21
828.8250413375099
 31
0.0
  0
TEXT
  5
6F9
330
1F
100
AcDbEntity
  8
0
100
AcDbText
 10
1398.349793607085
 20
970.5819378893691
 30
0.0
 40
2.5
  1
Cp3
100
AcDbText
  0
LINE
  5
6FA
330
1F
100
AcDbEntity
  8
0
100
AcDbLine
 10
1369.702278801467
 20
958.7084539026275
 30
0.0
 11
1369.702278801467
 21
950.7084539026275
 31
0.0
  0
LINE
  5
6FB
330
1F
100
AcDbEntity
  8
0
100
AcDbLine
 10
1435.702278801467
 20
909.9449645270032
 30
0.0
 11
1435.702278801467
 21
917.9449645270032
 31
0.0
  0
LINE
  5
6FC
330
1F
100
AcDbEntity
  8
0
100
AcDbLine
 10
1435.702278801467
 20
950.7084539026275
 30
0.0
 11
1435.702278801467
 21
958.7084539026275
 31
0.0
  0
LINE
  5
6FD
330
1F
100
AcDbEntity
  8
0
100
AcDbLine
 10
1372.702278801468
 20
950.7084539026275
 30
0.0
 11
1372.702278801468
 21
917.9449645270032
 31
0.0
  0
LINE
  5
6FE
330
1F
100
AcDbEntity
  8
0
100
AcDbLine
 10
1432.702278801468
 20
958.7084539026275
 30
0.0
 11
1432.702278801468
 21
971.6510197976289
 31
0.0
  0
LINE
  5
700
330
1F
100
AcDbEntity
  8
0
100
AcDbLine
 10
1426.702278801468
 20
977.6510197976287
 30
0.0
 11
1378.702278801468
 21
977.6510197976293
 31
0.0
  0
LINE
  5
702
330
1F
100
AcDbEntity
  8
0
100
AcDbLine
 10
1372.702278801468
 20
971.6510197976292
 30
0.0
 11
1372.702278801468
 21
958.7084539026275
 31
0.0
  0
LINE
  5
703
330
1F
100
AcDbEntity
  8
0
100
AcDbLine
 10
1369.702278801467
 20
917.9449645270032
 30
0.0
 11
1369.702278801467
 21
909.9449645270032
 31
0.0
  0
LINE
  5
704
330
1F
100
AcDbEntity
  8
0
100
AcDbLine
 10
1432.702278801468
 20
917.9449645270032
 30
0.0
 11
1432.702278801468
 21
950.7084539026275
 31
0.0
  0
LINE
  5
705
330
1F
100
AcDbEntity
  8
0
100
AcDbLine
 10
1372.702278801468
 20
909.9449645270032
 30
0.0
 11
1372.702278801468
 21
898.6510197976294
 31
0.0
  0
LINE
  5
707
330
1F
100
AcDbEntity
  8
0
100
AcDbLine
 10
1378.702278801467
 20
892.6510197976289
 30
0.0
 11
1400.702278801468
 21
892.6510197976289
 31
0.0
  0
LINE
  5
708
330
1F
100
AcDbEntity
  8
0
100
AcDbLine
 10
1382.702278801468
 20
965.5088841738979
 30
0.0
 11
1382.702278801468
 21
904.7931554213599
 31
0.0
  0
LINE
  5
709
330
1F
100
AcDbEntity
  8
0
100
AcDbLine
 10
1382.702278801468
 20
904.7931554213599
 30
0.0
 11
1384.844414425198
 21
902.6510197976293
 31
0.0
  0
LINE
  5
70A
330
1F
100
AcDbEntity
  8
0
100
AcDbLine
 10
1384.844414425198
 20
902.6510197976293
 30
0.0
 11
1420.560143177737
 21
902.6510197976287
 31
0.0
  0
LINE
  5
70B
330
1F
100
AcDbEntity
  8
0
100
AcDbLine
 10
1420.560143177737
 20
902.6510197976287
 30
0.0
 11
1422.702278801468
 21
904.7931554213599
 31
0.0
  0
LINE
  5
70C
330
1F
100
AcDbEntity
  8
0
100
AcDbLine
 10
1422.702278801468
 20
904.7931554213599
 30
0.0
 11
1422.702278801468
 21
965.5088841738978
 31
0.0
  0
LINE
  5
70D
330
1F
100
AcDbEntity
  8
0
100
AcDbLine
 10
1404.702278801467
 20
892.6510197976289
 30
0.0
 11
1426.702278801468
 21
892.6510197976289
 31
0.0
  0
LINE
  5
70F
330
1F
100
AcDbEntity
  8
0
100
AcDbLine
 10
1432.702278801468
 20
898.6510197976288
 30
0.0
 11
1432.702278801468
 21
909.9449645270032
 31
0.0
  0
LINE
  5
710
330
1F
100
AcDbEntity
  8
0
100
AcDbLine
 10
1422.702278801468
 20
917.9449645270032
 30
0.0
 11
1422.702278801468
 21
965.5088841738978
 31
0.0
  0
LINE
  5
711
330
1F
100
AcDbEntity
  8
0
100
AcDbLine
 10
1422.702278801468
 20
965.5088841738978
 30
0.0
 11
1420.560143177736
 21
967.6510197976288
 31
0.0
  0
LINE
  5
712
330
1F
100
AcDbEntity
  8
0
100
AcDbLine
 10
1420.560143177736
 20
967.6510197976288
 30
0.0
 11
1384.844414425198
 21
967.6510197976288
 31
0.0
  0
LINE
  5
713
330
1F
100
AcDbEntity
  8
0
100
AcDbLine
 10
1384.844414425198
 20
967.6510197976288
 30
0.0
 11
1382.702278801468
 21
965.5088841738979
 31
0.0
  0
LINE
  5
714
330
1F
100
AcDbEntity
  8
0
100
AcDbLine
 10
1382.702278801468
 20
965.5088841738979
 30
0.0
 11
1382.702278801468
 21
917.9449645270032
 31
0.0
  0
TEXT
  5
715
330
1F
100
AcDbEntity
  8
0
100
AcDbText
 10
1293.43632359003
 20
909.7414421502437
 30
0.0
 40
2.5
  1
Cp3
100
AcDbText
  0
LINE
  5
716
330
1F
100
AcDbEntity
  8
0
100
AcDbLine
 10
1295.77058171706
 20
891.1506594602252
 30
0.0
 11
1305.77058171706
 21
891.1506594602254
 31
0.0
  0
LINE
  5
718
330
1F
100
AcDbEntity
  8
0
100
AcDbLine
 10
1311.77058171706
 20
897.1506594602253
 30
0.0
 11
1311.77058171706
 21
905.1506594602253
 31
0.0
  0
LINE
  5
71A
330
1F
100
AcDbEntity
  8
0
100
AcDbLine
 10
1305.77058171706
 20
927.1506594602252
 30
0.0
 11
1281.770581717061
 21
927.1506594602254
 31
0.0
  0
LINE
  5
71E
330
1F
100
AcDbEntity
  8
0
100
AcDbLine
 10
1281.770581717061
 20
891.1506594602251
 30
0.0
 11
1291.770581717061
 21
891.1506594602252
 31
0.0
  0
LINE
  5
749
330
1F
100
AcDbEntity
  8
0
100
AcDbLine
 10
1805.653185470896
 20
1053.503735861962
 30
0.0
 11
1805.653185470896
 21
1057.32901961495
 31
0.0
  0
LINE
  5
790
330
1F
100
AcDbEntity
  8
0
100
AcDbLine
 10
1760.045469490504
 20
1053.503735861962
 30
0.0
 11
1805.653185470896
 21
1053.503735861962
 31
0.0
  0
LINE
  5
798
330
1F
100
AcDbEntity
  8
0
100
AcDbLine
 10
1980.653185470899
 20
1056.503735861962
 30
0.0
 11
1980.653185470897
 21
1057.32901961495
 31
0.0
  0
ARC
  5
848
330
1F
100
AcDbEntity
  8
0
100
AcDbCircle
 10
1579.033055693766
 20
1112.731573405735
 30
0.0
 40
5.000000000000254
100
AcDbArc
 50
96.20344790169276
 51
222.6220180344621
  0
LINE
  5
849
330
1F
100
AcDbEntity
  8
0
100
AcDbLine
 10
1575.353871103739
 20
1109.345779443825
 30
0.0
 11
1595.747332210287
 21
1087.185155175306
 31
0.0
  0
ARC
  5
84A
330
1F
100
AcDbEntity
  8
0
100
AcDbCircle
 10
1599.426516800314
 20
1090.570949137216
 30
0.0
 40
5.000000000000115
100
AcDbArc
 50
222.6220180344677
 51
327.4991768733476
  0
LINE
  5
84B
330
1F
100
AcDbEntity
  8
0
100
AcDbLine
 10
1603.643435433985
 20
1087.884390513812
 30
0.0
 11
1620.329474635542
 21
1114.075395250604
 31
0.0
  0
ARC
  5
84C
330
1F
100
AcDbEntity
  8
0
100
AcDbCircle
 10
1616.112556001869
 20
1116.761953874008
 30
0.0
 40
5.000000000000074
100
AcDbArc
 50
327.4991768733498
 51
96.20344790169049
  0
LINE
  5
84D
330
1F
100
AcDbEntity
  8
0
100
AcDbLine
 10
1615.572260098027
 20
1121.732676189355
 30
0.0
 11
1578.492759789924
 21
1117.702295721083
 31
0.0
  0
ARC
  5
84E
330
1F
100
AcDbEntity
  8
0
100
AcDbCircle
 10
1654.348512543299
 20
1120.918036106772
 30
0.0
 40
5.000000000000281
100
AcDbArc
 50
96.20344790169539
 51
200.2030049795834
  0
LINE
  5
84F
330
1F
100
AcDbEntity
  8
0
100
AcDbLine
 10
1649.656137984861
 20
1119.191299009432
 30
0.0
 11
1659.913263053406
 21
1091.317760652895
 31
0.0
  0
ARC
  5
850
330
1F
100
AcDbEntity
  8
0
100
AcDbCircle
 10
1664.605637611844
 20
1093.044497750236
 30
0.0
 40
5.000000000000276
100
AcDbArc
 50
200.2030049795925
 51
315.4072219799861
  0
LINE
  5
851
330
1F
100
AcDbEntity
  8
0
100
AcDbLine
 10
1668.166210336101
 20
1089.534181258055
 30
0.0
 11
1700.17567230624
 21
1122.001913857926
 31
0.0
  0
ARC
  5
852
330
1F
100
AcDbEntity
  8
0
100
AcDbCircle
 10
1696.615099581983
 20
1125.512230350107
 30
0.0
 40
5.000000000000241
100
AcDbArc
 50
315.4072219799823
 51
96.20344790169021
  0
LINE
  5
853
330
1F
100
AcDbEntity
  8
0
100
AcDbLine
 10
1696.074803678141
 20
1130.482952665454
 30
0.0
 11
1653.808216639457
 21
1125.888758422119
 31
0.0
  0
ARC
  5
854
330
1F
100
AcDbEntity
  8
0
100
AcDbCircle
 10
1922.273315248028
 20
1112.731573405735
 30
0.0
 40
5.000000000000254
100
AcDbArc
 50
317.377981965538
 51
83.79655209830721
  0
LINE
  5
855
330
1F
100
AcDbEntity
  8
0
100
AcDbLine
 10
1925.952499838055
 20
1109.345779443825
 30
0.0
 11
1905.559038731507
 21
1087.185155175306
 31
0.0
  0
ARC
  5
856
330
1F
100
AcDbEntity
  8
0
100
AcDbCircle
 10
1901.87985414148
 20
1090.570949137216
 30
0.0
 40
5.000000000000115
100
AcDbArc
 50
212.5008231266523
 51
317.3779819655323
  0
LINE
  5
857
330
1F
100
AcDbEntity
  8
0
100
AcDbLine
 10
1897.662935507807
 20
1087.884390513812
 30
0.0
 11
1880.976896306252
 21
1114.075395250604
 31
0.0
  0
ARC
  5
858
330
1F
100
AcDbEntity
  8
0
100
AcDbCircle
 10
1885.193814939924
 20
1116.761953874008
 30
0.0
 40
5.000000000000074
100
AcDbArc
 50
83.79655209830952
 51
212.5008231266501
  0
LINE
  5
859
330
1F
100
AcDbEntity
  8
0
100
AcDbLine
 10
1885.734110843766
 20
1121.732676189355
 30
0.0
 11
1922.81361115187
 21
1117.702295721083
 31
0.0
  0
ARC
  5
861
330
1F
100
AcDbEntity
  8
0
100
AcDbCircle
 10
1846.957858398494
 20
1120.918036106772
 30
0.0
 40
5.000000000000281
100
AcDbArc
 50
339.7969950204167
 51
83.7965520983046
  0
LINE
  5
862
330
1F
100
AcDbEntity
  8
0
100
AcDbLine
 10
1851.650232956932
 20
1119.191299009432
 30
0.0
 11
1841.393107888387
 21
1091.317760652895
 31
0.0
  0
ARC
  5
863
330
1F
100
AcDbEntity
  8
0
100
AcDbCircle
 10
1836.70073332995
 20
1093.044497750236
 30
0.0
 40
5.000000000000276
100
AcDbArc
 50
224.5927780200139
 51
339.7969950204075
  0
LINE
  5
864
330
1F
100
AcDbEntity
  8
0
100
AcDbLine
 10
1833.140160605692
 20
1089.534181258055
 30
0.0
 11
1801.130698635553
 21
1122.001913857926
 31
0.0
  0
ARC
  5
865
330
1F
100
AcDbEntity
  8
0
100
AcDbCircle
 10
1804.691271359811
 20
1125.512230350107
 30
0.0
 40
5.000000000000241
100
AcDbArc
 50
83.79655209830978
 51
224.5927780200176
  0
LINE
  5
866
330
1F
100
AcDbEntity
  8
0
100
AcDbLine
 10
1805.231567263653
 20
1130.482952665454
 30
0.0
 11
1847.498154302337
 21
1125.888758422119
 31
0.0
  0
LINE
  5
867
330
1F
100
AcDbEntity
  8
0
100
AcDbLine
 10
1870.4786396402
 20
1100.775962462281
 30
0.0
 11
1883.704882332341
 21
1080.015578238354
 31
0.0
  0
ARC
  5
868
330
1F
100
AcDbEntity
  8
0
100
AcDbCircle
 10
1879.487963698668
 20
1077.329019614951
 30
0.0
 40
5.000000000000143
100
AcDbArc
 50
270.0000000000026
 51
32.50082312664658
  0
LINE
  5
869
330
1F
100
AcDbEntity
  8
0
100
AcDbLine
 10
1879.487963698668
 20
1072.329019614951
 30
0.0
 11
1858.622150646564
 21
1072.329019614951
 31
0.0
  0
ARC
  5
86A
330
1F
100
AcDbEntity
  8
0
100
AcDbCircle
 10
1858.622150646564
 20
1077.329019614951
 30
0.0
 40
5.000000000000226
100
AcDbArc
 50
159.7969950204157
 51
270.0
  0
LINE
  5
86B
330
1F
100
AcDbEntity
  8
0
100
AcDbLine
 10
1853.929776088126
 20
1079.055756712291
 30
0.0
 11
1861.569346448089
 21
1099.816140936217
 31
0.0
  0
ARC
  5
86C
330
1F
100
AcDbEntity
  8
0
100
AcDbCircle
 10
1866.261721006527
 20
1098.089403838877
 30
0.0
 40
5.000000000000039
100
AcDbArc
 50
32.50082312664157
 51
159.7969950204148
  0
LINE
  5
86D
330
1F
100
AcDbEntity
  8
0
100
AcDbLine
 10
1815.683412883331
 20
1072.329019614951
 30
0.0
 11
1783.653185470897
 21
1072.329019614951
 31
0.0
  0
ARC
  5
86E
330
1F
100
AcDbEntity
  8
0
100
AcDbCircle
 10
1783.653185470897
 20
1077.329019614951
 30
0.0
 40
5.0
100
AcDbArc
 50
180.0
 51
270.0
  0
LINE
  5
86F
330
1F
100
AcDbEntity
  8
0
100
AcDbLine
 10
1778.653185470897
 20
1077.329019614951
 30
0.0
 11
1778.653185470897
 21
1109.817814950221
 31
0.0
  0
ARC
  5
870
330
1F
100
AcDbEntity
  8
0
100
AcDbCircle
 10
1783.653185470897
 20
1109.81781495022
 30
0.0
 40
5.0
100
AcDbArc
 50
44.59277802001942
 51
179.9999999999974
  0
LINE
  5
871
330
1F
100
AcDbEntity
  8
0
100
AcDbLine
 10
1787.213758195154
 20
1113.328131442401
 30
0.0
 11
1819.243985607588
 21
1080.839336107131
 31
0.0
  0
ARC
  5
872
330
1F
100
AcDbEntity
  8
0
100
AcDbCircle
 10
1815.683412883331
 20
1077.32901961495
 30
0.0
 40
4.99999999999992
100
AcDbArc
 50
269.9999999999973
 51
44.59277802001389
  0
LINE
  5
87A
330
1F
100
AcDbEntity
  8
0
100
AcDbLine
 10
1630.827731301594
 20
1100.775962462281
 30
0.0
 11
1617.601488609453
 21
1080.015578238354
 31
0.0
  0
ARC
  5
87B
330
1F
100
AcDbEntity
  8
0
100
AcDbCircle
 10
1621.818407243126
 20
1077.329019614951
 30
0.0
 40
5.000000000000143
100
AcDbArc
 50
147.4991768733534
 51
269.9999999999973
  0
LINE
  5
87C
330
1F
100
AcDbEntity
  8
0
100
AcDbLine
 10
1621.818407243126
 20
1072.329019614951
 30
0.0
 11
1642.68422029523
 21
1072.329019614951
 31
0.0
  0
ARC
  5
87D
330
1F
100
AcDbEntity
  8
0
100
AcDbCircle
 10
1642.68422029523
 20
1077.329019614951
 30
0.0
 40
5.000000000000226
100
AcDbArc
 50
270.0
 51
20.20300497958427
  0
LINE
  5
87E
330
1F
100
AcDbEntity
  8
0
100
AcDbLine
 10
1647.376594853668
 20
1079.055756712291
 30
0.0
 11
1639.737024493705
 21
1099.816140936217
 31
0.0
  0
ARC
  5
87F
330
1F
100
AcDbEntity
  8
0
100
AcDbCircle
 10
1635.044649935267
 20
1098.089403838877
 30
0.0
 40
5.000000000000039
100
AcDbArc
 50
20.20300497958517
 51
147.4991768733584
  0
LINE
  5
880
330
1F
100
AcDbEntity
  8
0
100
AcDbLine
 10
1685.622958058463
 20
1072.329019614951
 30
0.0
 11
1717.653185470897
 21
1072.329019614951
 31
0.0
  0
ARC
  5
881
330
1F
100
AcDbEntity
  8
0
100
AcDbCircle
 10
1717.653185470897
 20
1077.329019614951
 30
0.0
 40
5.0
100
AcDbArc
 50
270.0
 51
0.0
  0
LINE
  5
882
330
1F
100
AcDbEntity
  8
0
100
AcDbLine
 10
1722.653185470897
 20
1077.329019614951
 30
0.0
 11
1722.653185470897
 21
1109.817814950221
 31
0.0
  0
ARC
  5
883
330
1F
100
AcDbEntity
  8
0
100
AcDbCircle
 10
1717.653185470897
 20
1109.81781495022
 30
0.0
 40
5.0
100
AcDbArc
 50
0.0000000000026055
 51
135.4072219799806
  0
LINE
  5
884
330
1F
100
AcDbEntity
  8
0
100
AcDbLine
 10
1714.09261274664
 20
1113.328131442401
 30
0.0
 11
1682.062385334205
 21
1080.839336107131
 31
0.0
  0
ARC
  5
885
330
1F
100
AcDbEntity
  8
0
100
AcDbCircle
 10
1685.622958058463
 20
1077.32901961495
 30
0.0
 40
4.99999999999992
100
AcDbArc
 50
135.4072219799861
 51
270.0000000000026
  0
LINE
  5
886
330
1F
100
AcDbEntity
  8
0
100
AcDbLine
 10
1520.653185470896
 20
1057.32901961495
 30
0.0
 11
1537.653185470896
 21
1057.32901961495
 31
0.0
  0
ARC
  5
887
330
1F
100
AcDbEntity
  8
0
100
AcDbCircle
 10
1878.714917985111
 20
1057.316082152326
 30
0.0
 40
101.938268306763
100
AcDbArc
 50
0.0072716754977276
 51
8.006690408357
  0
ARC
  5
888
330
1F
100
AcDbEntity
  8
0
100
AcDbCircle
 10
1878.714917985114
 20
1057.316082152327
 30
0.0
 40
101.93826830676
100
AcDbArc
 50
8.006690408356597
 51
16.63631863347402
  0
ARC
  5
889
330
1F
100
AcDbEntity
  8
0
100
AcDbCircle
 10
1878.714917985114
 20
1057.316082152326
 30
0.0
 40
101.9382683067597
100
AcDbArc
 50
16.63631863347486
 51
33.26536559146408
  0
ARC
  5
88A
330
1F
100
AcDbEntity
  8
0
100
AcDbCircle
 10
1878.714917985116
 20
1057.316082152324
 30
0.0
 40
101.9382683067589
100
AcDbArc
 50
33.26536559146546
 51
45.31476548935894
  0
LINE
  5
88B
330
1F
100
AcDbEntity
  8
0
100
AcDbLine
 10
1950.399080739988
 20
1129.79222550663
 30
0.0
 11
1750.653185470897
 21
1151.503735861961
 31
0.0
  0
LINE
  5
88C
330
1F
100
AcDbEntity
  8
0
100
AcDbLine
 10
1750.653185470897
 20
1151.503735861961
 30
0.0
 11
1550.907290201801
 21
1129.792225506626
 31
0.0
  0
ARC
  5
88D
330
1F
100
AcDbEntity
  8
0
100
AcDbCircle
 10
1622.591452956675
 20
1057.316082152323
 30
0.0
 40
101.938268306759
100
AcDbArc
 50
134.6852345106431
 51
146.7346344085396
  0
ARC
  5
88E
330
1F
100
AcDbEntity
  8
0
100
AcDbCircle
 10
1622.591452956682
 20
1057.316082152328
 30
0.0
 40
101.9382683067619
100
AcDbArc
 50
146.734634408544
 51
163.3636813665236
  0
ARC
  5
88F
330
1F
100
AcDbEntity
  8
0
100
AcDbCircle
 10
1622.591452956675
 20
1057.316082152321
 30
0.0
 40
101.9382683067575
100
AcDbArc
 50
163.363681366519
 51
171.9933095916385
  0
ARC
  5
890
330
1F
100
AcDbEntity
  8
0
100
AcDbCircle
 10
1622.591452956688
 20
1057.316082152328
 30
0.0
 40
101.9382683067692
100
AcDbArc
 50
171.9933095916433
 51
179.9927283245033
  0
LINE
  5
891
330
1F
100
AcDbEntity
  8
0
100
AcDbLine
 10
1520.653185470896
 20
1057.32901961495
 30
0.0
 11
1520.653185470896
 21
1057.32901961495
 31
0.0
  0
LINE
  5
892
330
1F
100
AcDbEntity
  8
0
100
AcDbLine
 10
1520.653185470896
 20
1057.32901961495
 30
0.0
 11
1520.653185470896
 21
1057.32901961495
 31
0.0
  0
LINE
  5
923
330
1F
100
AcDbEntity
  8
0
100
AcDbLine
 10
1552.653185470896
 20
1057.32901961495
 30
0.0
 11
1667.653185470896
 21
1057.32901961495
 31
0.0
  0
LINE
  5
924
330
1F
100
AcDbEntity
  8
0
100
AcDbLine
 10
1682.653185470896
 20
1057.32901961495
 30
0.0
 11
1818.653185470896
 21
1057.32901961495
 31
0.0
  0
LINE
  5
925
330
1F
100
AcDbEntity
  8
0
100
AcDbLine
 10
1833.653185470896
 20
1057.32901961495
 30
0.0
 11
1948.653185470896
 21
1057.32901961495
 31
0.0
  0
LINE
  5
926
330
1F
100
AcDbEntity
  8
0
100
AcDbLine
 10
1963.653185470896
 20
1057.32901961495
 30
0.0
 11
1980.653185470897
 21
1057.32901961495
 31
0.0
  0
LWPOLYLINE
  5
930
330
1F
100
AcDbEntity
  8
0
100
AcDbPolyline
 90
        4
 70
     1
 43
0.0
 10
1667.653185470896
 20
1043.32901961495
 10
1682.653185470896
 20
1043.32901961495
 10
1682.653185470896
 20
1071.32901961495
 10
1667.653185470896
 20
1071.32901961495
  0
LWPOLYLINE
  5
931
330
1F
100
AcDbEntity
  8
0
100
AcDbPolyline
 90
        4
 70
     1
 43
0.0
 10
1537.653185470896
 20
1043.32901961495
 10
1552.653185470896
 20
1043.32901961495
 10
1552.653185470896
 20
1071.32901961495
 10
1537.653185470896
 20
1071.32901961495
  0
LWPOLYLINE
  5
932
330
1F
100
AcDbEntity
  8
0
100
AcDbPolyline
 90
        4
 70
     1
 43
0.0
 10
1818.653185470896
 20
1043.32901961495
 10
1833.653185470896
 20
1043.32901961495
 10
1833.653185470896
 20
1071.32901961495
 10
1818.653185470896
 20
1071.32901961495
  0
LWPOLYLINE
  5
933
330
1F
100
AcDbEntity
  8
0
100
AcDbPolyline
 90
        4
 70
     1
 43
0.0
 10
1948.653185470896
 20
1043.32901961495
 10
1963.653185470896
 20
1043.32901961495
 10
1963.653185470896
 20
1071.32901961495
 10
1948.653185470896
 20
1071.32901961495
  0
LINE
  5
934
330
1F
100
AcDbEntity
  8
0
100
AcDbLine
 10
1576.278573853844
 20
1075.329019614951
 30
0.0
 11
1543.134784594435
 21
1075.329019614951
 31
0.0
  0
ARC
  5
935
330
1F
100
AcDbEntity
  8
0
100
AcDbCircle
 10
1622.591452956677
 20
1057.316082152318
 30
0.0
 40
83.93826830675992
100
AcDbArc
 50
163.3636813665162
 51
165.8628340191949
  0
ARC
  5
936
330
1F
100
AcDbEntity
  8
0
100
AcDbCircle
 10
1543.134784594435
 20
1077.329019614951
 30
0.0
 40
2.0
100
AcDbArc
 50
165.8628340192014
 51
270.0000000000026
  0
ARC
  5
937
330
1F
100
AcDbEntity
  8
0
100
AcDbCircle
 10
1622.591452956683
 20
1057.31608215233
 30
0.0
 40
83.93826830676237
100
AcDbArc
 50
147.1300249554211
 51
163.363681366525
  0
ARC
  5
938
330
1F
100
AcDbEntity
  8
0
100
AcDbCircle
 10
1553.77114159069
 20
1101.786797871764
 30
0.0
 40
2.000000000000548
100
AcDbArc
 50
42.62201803446954
 51
147.1300249554162
  0
LINE
  5
939
330
1F
100
AcDbEntity
  8
0
100
AcDbLine
 10
1555.242815426701
 20
1103.141115456527
 30
0.0
 11
1577.750247689854
 21
1078.683337199714
 31
0.0
  0
ARC
  5
93A
330
1F
100
AcDbEntity
  8
0
100
AcDbCircle
 10
1576.278573853844
 20
1077.329019614951
 30
0.0
 40
2.000000000000115
100
AcDbArc
 50
270.0000000000026
 51
42.62201803446759
  0
ARC
  5
93B
330
1F
100
AcDbEntity
  8
0
100
AcDbCircle
 10
1947.535229351102
 20
1101.786797871764
 30
0.0
 40
2.000000000000548
100
AcDbArc
 50
32.86997504458093
 51
137.3779819655232
  0
LINE
  5
93C
330
1F
100
AcDbEntity
  8
0
100
AcDbLine
 10
1946.063555515091
 20
1103.141115456527
 30
0.0
 11
1923.556123251938
 21
1078.683337199714
 31
0.0
  0
ARC
  5
93D
330
1F
100
AcDbEntity
  8
0
100
AcDbCircle
 10
1925.027797087948
 20
1077.329019614951
 30
0.0
 40
2.000000000000115
100
AcDbArc
 50
137.3779819655242
 51
270.0
  0
LINE
  5
93E
330
1F
100
AcDbEntity
  8
0
100
AcDbLine
 10
1925.027797087948
 20
1075.329019614951
 30
0.0
 11
1958.171586347357
 21
1075.329019614951
 31
0.0
  0
ARC
  5
93F
330
1F
100
AcDbEntity
  8
0
100
AcDbCircle
 10
1958.171586347357
 20
1077.329019614951
 30
0.0
 40
2.0
100
AcDbArc
 50
270.0
 51
14.13716598079653
  0
ARC
  5
940
330
1F
100
AcDbEntity
  8
0
100
AcDbCircle
 10
1878.714917985115
 20
1057.316082152318
 30
0.0
 40
83.93826830675992
100
AcDbArc
 50
14.13716598080265
 51
16.63631863348052
  0
ARC
  5
941
330
1F
100
AcDbEntity
  8
0
100
AcDbCircle
 10
1878.714917985109
 20
1057.31608215233
 30
0.0
 40
83.93826830676237
100
AcDbArc
 50
16.63631863347242
 51
32.86997504457749
  0
LWPOLYLINE
  5
9B9
330
1F
100
AcDbEntity
  8
0
100
AcDbPolyline
 90
        3
 70
     0
 43
0.0
 10
1378.702278801468
 20
977.6510197976293
 10
1378.702278801468
 20
971.6510197976292
 10
1372.702278801468
 20
971.6510197976292
  0
LWPOLYLINE
  5
9BA
330
1F
100
AcDbEntity
  8
0
100
AcDbPolyline
 90
        3
 70
     0
 43
0.0
 10
1426.702278801468
 20
977.6510197976287
 10
1426.702278801468
 20
971.6510197976289
 10
1432.702278801468
 20
971.6510197976289
  0
LWPOLYLINE
  5
9BB
330
1F
100
AcDbEntity
  8
0
100
AcDbPolyline
 90
        3
 70
     0
 43
0.0
 10
1432.702278801468
 20
898.6510197976288
 10
1426.702278801468
 20
898.6510197976288
 10
1426.702278801468
 20
892.6510197976289
  0
LWPOLYLINE
  5
9BC
330
1F
100
AcDbEntity
  8
0
100
AcDbPolyline
 90
        3
 70
     0
 43
0.0
 10
1372.702278801467
 20
898.6510197976294
 10
1378.702278801467
 20
898.6510197976294
 10
1378.702278801467
 20
892.6510197976293
  0
LWPOLYLINE
  5
9BD
330
1F
100
AcDbEntity
  8
0
100
AcDbPolyline
 90
        3
 70
     0
 43
0.0
 10
1275.770581717061
 20
897.1506594602253
 10
1281.770581717061
 20
897.1506594602253
 10
1281.770581717061
 20
891.1506594602254
  0
LWPOLYLINE
  5
9BE
330
1F
100
AcDbEntity
  8
0
100
AcDbPolyline
 90
        3
 70
     0
 43
0.0
 10
1311.77058171706
 20
897.1506594602253
 10
1305.77058171706
 20
897.1506594602253
 10
1305.77058171706
 20
891.1506594602254
  0
LWPOLYLINE
  5
9BF
330
1F
100
AcDbEntity
  8
0
100
AcDbPolyline
 90
        3
 70
     0
 43
0.0
 10
1305.77058171706
 20
927.1506594602252
 10
1305.77058171706
 20
921.1506594602253
 10
1311.77058171706
 20
921.1506594602253
  0
LWPOLYLINE
  5
9C0
330
1F
100
AcDbEntity
  8
0
100
AcDbPolyline
 90
        3
 70
     0
 43
0.0
 10
1281.770581717061
 20
927.1506594602252
 10
1281.770581717061
 20
921.1506594602253
 10
1275.770581717061
 20
921.1506594602253
  0
LWPOLYLINE
  5
9C1
330
1F
100
AcDbEntity
  8
0
100
AcDbPolyline
 90
        3
 70
     0
 43
0.0
 10
1556.820976047374
 20
961.4780878242052
 10
1556.820976047374
 20
955.4780878242054
 10
1550.820976047374
 20
955.4780878242054
  0
LWPOLYLINE
  5
9C2
330
1F
100
AcDbEntity
  8
0
100
AcDbPolyline
 90
        3
 70
     0
 43
0.0
 10
1604.820976047374
 20
961.4780878242052
 10
1604.820976047374
 20
955.4780878242054
 10
1610.820976047374
 20
955.4780878242054
  0
LWPOLYLINE
  5
9C3
330
1F
100
AcDbEntity
  8
0
100
AcDbPolyline
 90
        3
 70
     0
 43
0.0
 10
1610.820976047374
 20
897.4780878242054
 10
1604.820976047374
 20
897.4780878242054
 10
1604.820976047374
 20
891.4780878242053
  0
LWPOLYLINE
  5
9C4
330
1F
100
AcDbEntity
  8
0
100
AcDbPolyline
 90
        3
 70
     0
 43
0.0
 10
1550.820976047374
 20
897.4780878242054
 10
1556.820976047374
 20
897.4780878242054
 10
1556.820976047374
 20
891.4780878242053
  0
LINE
  5
9E0
330
1F
100
AcDbEntity
  8
0
100
AcDbLine
 10
1798.037918240869
 20
811.9488671289722
 30
0.0
 11
1798.037918240869
 21
821.9488671289722
 31
0.0
  0
LINE
  5
9E1
330
1F
100
AcDbEntity
  8
0
100
AcDbLine
 10
1795.037918240869
 20
811.9488671289722
 30
0.0
 11
1795.037918240869
 21
821.9488671289722
 31
0.0
  0
LINE
  5
9E4
330
1F
100
AcDbEntity
  8
0
100
AcDbLine
 10
1795.037918240868
 20
821.9488671289722
 30
0.0
 11
1798.037918240869
 21
821.9488671289722
 31
0.0
  0
LINE
  5
9E5
330
1F
100
AcDbEntity
  8
0
100
AcDbLine
 10
1795.037918240869
 20
811.9488671289722
 30
0.0
 11
1798.037918240869
 21
811.9488671289722
 31
0.0
  0
LINE
  5
9EA
330
1F
100
AcDbEntity
  8
0
100
AcDbLine
 10
1460.502261789457
 20
920.3247699986723
 30
0.0
 11
1463.502261789457
 21
920.3247699986723
 31
0.0
  0
LINE
  5
9EB
330
1F
100
AcDbEntity
  8
0
100
AcDbLine
 10
1460.502261789457
 20
930.3247699986723
 30
0.0
 11
1463.502261789457
 21
930.3247699986723
 31
0.0
  0
LINE
  5
9F3
330
1F
100
AcDbEntity
  8
0
100
AcDbLine
 10
1502.832261789457
 20
930.3247699986723
 30
0.0
 11
1505.832261789457
 21
930.3247699986723
 31
0.0
  0
LINE
  5
9F4
330
1F
100
AcDbEntity
  8
0
100
AcDbLine
 10
1502.832261789457
 20
920.3247699986723
 30
0.0
 11
1505.832261789457
 21
920.3247699986723
 31
0.0
  0
LINE
  5
9F6
330
1F
100
AcDbEntity
  8
0
100
AcDbLine
 10
1502.832261789457
 20
930.3247699986723
 30
0.0
 11
1502.832261789457
 21
951.6897699986722
 31
0.0
  0
LINE
  5
9F8
330
1F
100
AcDbEntity
  8
0
100
AcDbLine
 10
1463.502261789457
 20
951.6897699986722
 30
0.0
 11
1463.502261789457
 21
930.3247699986723
 31
0.0
  0
LINE
  5
9F9
330
1F
100
AcDbEntity
  8
0
100
AcDbLine
 10
1463.502261789457
 20
920.3247699986723
 30
0.0
 11
1463.502261789457
 21
898.9597699986722
 31
0.0
  0
LINE
  5
9FB
330
1F
100
AcDbEntity
  8
0
100
AcDbLine
 10
1502.832261789457
 20
898.9597699986722
 30
0.0
 11
1502.832261789457
 21
920.3247699986723
 31
0.0
  0
LINE
  5
9FC
330
1F
100
AcDbEntity
  8
0
100
AcDbLine
 10
1502.832261789457
 20
951.6897699986722
 30
0.0
 11
1463.502261789457
 21
951.6897699986722
 31
0.0
  0
LINE
  5
9FD
330
1F
100
AcDbEntity
  8
0
100
AcDbLine
 10
1505.832261789457
 20
920.3247699986723
 30
0.0
 11
1505.832261789457
 21
930.3247699986723
 31
0.0
  0
LINE
  5
9FE
330
1F
100
AcDbEntity
  8
0
100
AcDbLine
 10
1463.502261789457
 20
898.9597699986722
 30
0.0
 11
1502.832261789457
 21
898.9597699986722
 31
0.0
  0
LINE
  5
9FF
330
1F
100
AcDbEntity
  8
0
100
AcDbLine
 10
1460.502261789457
 20
930.3247699986723
 30
0.0
 11
1460.502261789457
 21
920.3247699986723
 31
0.0
  0
CIRCLE
  5
A02
330
1F
100
AcDbEntity
  8
0
100
AcDbCircle
 10
1470.667261789457
 20
925.3247699986722
 30
0.0
 40
1.3
  0
CIRCLE
  5
A03
330
1F
100
AcDbEntity
  8
0
100
AcDbCircle
 10
1495.667261789457
 20
925.3247699986722
 30
0.0
 40
1.3
  0
ELLIPSE
  5
A04
330
1F
100
AcDbEntity
  8
0
100
AcDbEllipse
 10
1483.167261789457
 20
925.3247699986722
 30
0.0
 11
0.0
 21
20.09410556258786
 31
0.0
210
0.0
220
0.0
230
-1.0
 40
0.3652265986218664
 41
0.0
 42
6.283185307179585
  0
LINE
  5
A41
330
1F
100
AcDbEntity
  8
0
100
AcDbLine
 10
2072.112338471858
 20
828.8250413375099
 30
0.0
 11
1982.29612610166
 21
831.2727908419009
 31
0.0
  0
LWPOLYLINE
  5
A95
330
1F
100
AcDbEntity
  8
7
  6
Continuous
100
AcDbPolyline
 90
      118
 70
     0
 43
0.0
 10
1436.825151598207
 20
864.7496932997928
 10
1436.704074158056
 20
864.5942260561316
 10
1436.252700670374
 20
863.9018002346043
 10
1435.895893150454
 20
863.1865988177789
 10
1435.659378020796
 20
862.4502342526737
 10
1435.568843609963
 20
861.6943513722912
 10
1435.621529451747
 20
861.0366382109695
 10
1435.785987072532
 20
860.3781601190291
 10
1436.048836496652
 20
859.7309563801339
 10
1436.396706508817
 20
859.1070457047669
 10
1436.816215912388
 20
858.5184474138968
 10
1437.294004083909
 20
857.977189588869
 10
1437.816689826744
 20
857.495291550652
 10
1438.139379081862
 20
857.2439730833014
 10
1438.471667383926
 20
857.0144592782444
 10
1438.812372842032
 20
856.8038067982774
 10
1439.160283621236
 20
856.6090741376527
 10
1439.514238403815
 20
856.4273267195437
 10
1439.873025354823
 20
856.255623038203
 10
1440.235471954222
 20
856.0910091645935
 10
1440.916672964303
 20
855.7968241233954
 10
1441.605360268296
 20
855.5174196235764
 10
1442.300868992379
 20
855.2527361436929
 10
1443.00253609419
 20
855.0027441063452
 10
1443.709677347694
 20
854.7673951924082
 10
1444.421639081392
 20
854.5466492326488
 10
1445.137747661084
 20
854.3404672788044
 10
1445.837306229537
 20
854.1537920629741
 10
1446.539507236999
 20
853.979688979663
 10
1447.244084940768
 20
853.8167616475421
 10
1447.950741822638
 20
853.6635855726952
 10
1448.659183416832
 20
853.5187861679455
 10
1449.369133388812
 20
853.3809576811021
 10
1450.08031540404
 20
853.2486943599737
 10
1450.787196163081
 20
853.1217836078742
 10
1451.494596107044
 20
852.9989387439941
 10
1452.202528086381
 20
852.8798784591343
 10
1452.911017374837
 20
852.7643607590013
 10
1453.620067452
 20
852.652114926229
 10
1454.329722333339
 20
852.5428777828572
 10
1455.039976738066
 20
852.436399184701
 10
1456.456908658103
 20
852.2319562330467
 10
1457.874997351891
 20
852.0380723568479
 10
1459.29429944151
 20
851.8548542985064
 10
1460.714892732706
 20
851.6824275421479
 10
1462.136823866211
 20
851.5208994406586
 10
1463.560150685073
 20
851.3703966991348
 10
1464.984939792722
 20
851.2310254494931
 10
1466.408263998673
 20
851.1030849506147
 10
1467.832104340649
 20
850.9857126542138
 10
1469.256503856987
 20
850.877974190074
 10
1470.681495604678
 20
850.7789357984638
 10
1472.107123232546
 20
850.6876730905151
 10
1473.533419187093
 20
850.6032423251488
 10
1474.960427117145
 20
850.5247191134962
 10
1477.815876300885
 20
850.3827533162835
 10
1480.671256143719
 20
850.2586550788333
 10
1483.52677051398
 20
850.1496968678809
 10
1486.382613298653
 20
850.0531517606489
 10
1489.238988976557
 20
849.9663022052223
 10
1492.096102026511
 20
849.8864306496852
 10
1494.954135743667
 20
849.8108008003972
 10
1497.813363621951
 20
849.7373320802578
 10
1500.671775747508
 20
849.6660873087435
 10
1503.529714721919
 20
849.5974262415451
 10
1506.387525588703
 20
849.5317485597453
 10
1509.24557213311
 20
849.46943276076
 10
1512.104187585857
 20
849.4108491921133
 10
1514.963716990467
 20
849.3563975348878
 10
1517.824440008003
 20
849.3063913009473
 10
1520.684403163369
 20
849.260669446714
 10
1523.543941365673
 20
849.2188107407947
 10
1526.403379542681
 20
849.1803945622814
 10
1529.263023269945
 20
849.1450114925847
 10
1532.123217437924
 20
849.112239689825
 10
1534.984286974383
 20
849.0816585330948
 10
1537.846224767078
 20
849.0529879341648
 10
1540.707322784534
 20
849.0263123233416
 10
1543.567928939376
 20
849.0017506829939
 10
1546.428369350081
 20
848.9793932724163
 10
1549.289001910622
 20
848.9593584634921
 10
1552.150163941795
 20
848.9417558677271
 10
1555.012182783043
 20
848.9266957071125
 10
1557.875184315398
 20
848.9142704693028
 10
1560.737353978564
 20
848.9044608946311
 10
1563.599007512763
 20
848.8971875594774
 10
1566.460508733503
 20
848.8923380437498
 10
1569.32218397284
 20
848.8898422946901
 10
1572.184367102238
 20
848.8895897236631
 10
1575.047404416448
 20
848.8915090569403
 10
1577.911320365146
 20
848.8955086309333
 10
1580.774374744453
 20
848.9014744699602
 10
1583.636909575722
 20
848.9092654308562
 10
1586.499278693112
 20
848.9187697040151
 10
1589.361803544798
 20
848.9298373858952
 10
1592.224846725314
 20
848.942336093709
 10
1595.088730903807
 20
848.9561358866104
 10
1597.953371956092
 20
848.9711717790472
 10
1600.817149637789
 20
848.9876530749659
 10
1603.680399224653
 20
849.0058197538825
 10
1606.543467805244
 20
849.0259411288697
 10
1609.406691265803
 20
849.0482671607907
 10
1612.270397342681
 20
849.0730783650374
 10
1615.134941274328
 20
849.1006135001542
 10
1616.567599796679
 20
849.1154594804585
 10
1617.999825214315
 20
849.1309230531074
 10
1619.431789255187
 20
849.1468634718398
 10
1620.863664868221
 20
849.1631599530911
 10
1622.295633152231
 20
849.1796611587668
 10
1623.727847093446
 20
849.1962475262733
 10
1625.16048840117
 20
849.2127776988635
 10
1626.593129922474
 20
849.2291475594004
 10
1628.025351219774
 20
849.2453627855748
 10
1629.457313215608
 20
849.2614335723168
 10
1630.889199237152
 20
849.2774088189761
 10
1632.321159615112
 20
849.2932893496208
 10
1633.753388268497
 20
849.309133434464
 10
1635.186035528011
 20
849.324941897572
  0
LINE
  5
A98
330
1F
100
AcDbEntity
  8
0
100
AcDbLine
 10
1246.941142536373
 20
741.3849664519959
 30
0.0
 11
1246.567976822036
 21
727.1343427589862
 31
0.0
  0
LINE
  5
A99
330
1F
100
AcDbEntity
  8
0
100
AcDbLine
 10
1432.377854364886
 20
745.7672403725584
 30
0.0
 11
1432.377854364886
 21
737.7672403725584
 31
0.0
  0
LINE
  5
A9A
330
1F
100
AcDbEntity
  8
0
100
AcDbLine
 10
1432.377854364886
 20
705.0037509969342
 30
0.0
 11
1432.377854364886
 21
697.0037509969342
 31
0.0
  0
LINE
  5
A9B
330
1F
100
AcDbEntity
  8
0
100
AcDbLine
 10
1435.377854364886
 20
745.7672403725584
 30
0.0
 11
1435.377854364886
 21
737.7672403725584
 31
0.0
  0
LINE
  5
A9C
330
1F
100
AcDbEntity
  8
0
100
AcDbLine
 10
1435.377854364886
 20
705.0037509969342
 30
0.0
 11
1435.377854364886
 21
697.0037509969342
 31
0.0
  0
CIRCLE
  5
A9D
330
1F
100
AcDbEntity
  8
0
100
AcDbCircle
 10
1641.307545329432
 20
705.6927049723525
 30
0.0
 40
3.0
  0
LINE
  5
A9E
330
1F
100
AcDbEntity
  8
0
100
AcDbLine
 10
1632.377854364886
 20
710.2641488480625
 30
0.0
 11
1632.377854364886
 21
718.2641488480625
 31
0.0
  0
LINE
  5
A9F
330
1F
100
AcDbEntity
  8
0
100
AcDbLine
 10
1632.377854364886
 20
738.5153946540955
 30
0.0
 11
1632.377854364886
 21
746.5153946540955
 31
0.0
  0
ARC
  5
AA0
330
1F
100
AcDbEntity
  8
0
100
AcDbCircle
 10
1982.377854364886
 20
708.9617019293585
 30
0.0
 40
3.0
100
AcDbArc
 50
91.56108798872603
 51
180.0
  0
ARC
  5
AA1
330
1F
100
AcDbEntity
  8
0
100
AcDbCircle
 10
1527.800681230461
 20
-827.4471342454337
 30
0.0
 40
1593.774212570327
100
AcDbArc
 50
86.23777410708081
 51
100.1498320960163
  0
LINE
  5
AA2
330
1F
100
AcDbEntity
  8
0
100
AcDbLine
 10
1632.377854364886
 20
762.8924067059267
 30
0.0
 11
2062.569806301864
 21
735.9976833836036
 31
0.0
  0
LINE
  5
AA3
330
1F
100
AcDbEntity
  8
0
100
AcDbLine
 10
1813.304223339074
 20
737.5539263883628
 30
0.0
 11
1937.421104207312
 21
729.794392172181
 31
0.0
  0
ARC
  5
AA4
330
1F
100
AcDbEntity
  8
0
100
AcDbCircle
 10
1937.171519640974
 20
725.8021863227481
 30
0.0
 40
4.000000000000079
100
AcDbArc
 50
0.0
 51
86.42264058751029
  0
LINE
  5
AA5
330
1F
100
AcDbEntity
  8
0
100
AcDbLine
 10
1941.171519640974
 20
725.8021863227481
 30
0.0
 11
1941.171519640974
 21
723.1374531582946
 31
0.0
  0
ARC
  5
AA6
330
1F
100
AcDbEntity
  8
0
100
AcDbCircle
 10
1937.171519640974
 20
723.137453158295
 30
0.0
 40
3.999999999999771
100
AcDbArc
 50
272.127151112848
 51
0.0
  0
LINE
  5
AA7
330
1F
100
AcDbEntity
  8
0
100
AcDbLine
 10
1937.319988691498
 20
719.1402094903362
 30
0.0
 11
1813.051434549539
 21
714.524520336492
 31
0.0
  0
ARC
  5
AA8
330
1F
100
AcDbEntity
  8
0
100
AcDbCircle
 10
1812.680261923229
 20
724.5176295063891
 30
0.0
 40
9.999999999999996
100
AcDbArc
 50
180.0
 51
272.1271511128506
  0
LINE
  5
AA9
330
1F
100
AcDbEntity
  8
0
100
AcDbLine
 10
1802.680261923229
 20
724.5176295063891
 30
0.0
 11
1802.680261923229
 21
727.5734117647805
 31
0.0
  0
ARC
  5
AAA
330
1F
100
AcDbEntity
  8
0
100
AcDbCircle
 10
1812.680261923229
 20
727.5734117647805
 30
0.0
 40
10.0
100
AcDbArc
 50
86.42264058751043
 51
180.0
  0
LINE
  5
AAB
330
1F
100
AcDbEntity
  8
0
100
AcDbLine
 10
1781.051434549539
 20
713.3359489079206
 30
0.0
 11
1655.711909728565
 21
708.6804808431416
 31
0.0
  0
ARC
  5
AAC
330
1F
100
AcDbEntity
  8
0
100
AcDbCircle
 10
1780.680261923229
 20
723.3290580778177
 30
0.0
 40
10.0
100
AcDbArc
 50
272.1271511128506
 51
0.0
  0
ARC
  5
AAD
330
1F
100
AcDbEntity
  8
0
100
AcDbCircle
 10
1655.377854364886
 20
717.674279096049
 30
0.0
 40
9.000000000000033
100
AcDbArc
 50
180.0
 51
272.1271511128509
  0
LINE
  5
AAE
330
1F
100
AcDbEntity
  8
0
100
AcDbLine
 10
1646.377854364885
 20
717.674279096049
 30
0.0
 11
1646.377854364885
 21
738.4095897590856
 31
0.0
  0
ARC
  5
AAF
330
1F
100
AcDbEntity
  8
0
100
AcDbCircle
 10
1655.377854364886
 20
738.4095897590856
 30
0.0
 40
9.0
100
AcDbArc
 50
86.42264058751019
 51
180.0
  0
LINE
  5
AB0
330
1F
100
AcDbEntity
  8
0
100
AcDbLine
 10
1655.939419639146
 20
747.3920529203095
 30
0.0
 11
1781.304223339074
 21
739.5545011142245
 31
0.0
  0
ARC
  5
AB1
330
1F
100
AcDbEntity
  8
0
100
AcDbCircle
 10
1780.680261923229
 20
729.5739864906424
 30
0.0
 40
10.00000000000003
100
AcDbArc
 50
0.0
 51
86.42264058751019
  0
LINE
  5
AB2
330
1F
100
AcDbEntity
  8
0
100
AcDbLine
 10
1790.680261923229
 20
729.5739864906424
 30
0.0
 11
1790.680261923229
 21
723.3290580778177
 31
0.0
  0
LINE
  5
AB3
330
1F
100
AcDbEntity
  8
0
100
AcDbLine
 10
1245.989436540237
 20
705.040780755824
 30
0.0
 11
1436.825151598207
 21
678.4836860133335
 31
0.0
  0
LINE
  5
AB4
330
1F
100
AcDbEntity
  8
0
100
AcDbLine
 10
1979.377854364886
 20
706.6927049723524
 30
0.0
 11
1635.186035528012
 21
693.9084374155542
 31
0.0
  0
CIRCLE
  5
AB5
330
1F
100
AcDbEntity
  8
0
100
AcDbCircle
 10
1429.377854364886
 20
691.6837235377665
 30
0.0
 40
3.0
  0
LINE
  5
AB6
330
1F
100
AcDbEntity
  8
0
100
AcDbLine
 10
1629.377854364886
 20
710.2641488480625
 30
0.0
 11
1629.377854364886
 21
718.2641488480625
 31
0.0
  0
LINE
  5
AB7
330
1F
100
AcDbEntity
  8
0
100
AcDbLine
 10
1629.377854364886
 20
738.5153946540955
 30
0.0
 11
1629.377854364886
 21
746.5153946540956
 31
0.0
  0
LINE
  5
AB8
330
1F
100
AcDbEntity
  8
0
100
AcDbLine
 10
1432.377854364886
 20
697.0037509969342
 30
0.0
 11
1435.377854364886
 21
697.0037509969342
 31
0.0
  0
LINE
  5
AB9
330
1F
100
AcDbEntity
  8
0
100
AcDbLine
 10
1432.377854364886
 20
705.0037509969342
 30
0.0
 11
1435.377854364886
 21
705.0037509969342
 31
0.0
  0
LINE
  5
ABA
330
1F
100
AcDbEntity
  8
0
100
AcDbLine
 10
1435.377854364886
 20
745.7672403725584
 30
0.0
 11
1432.377854364886
 21
745.7672403725584
 31
0.0
  0
LINE
  5
ABB
330
1F
100
AcDbEntity
  8
0
100
AcDbLine
 10
1435.377854364886
 20
737.7672403725584
 30
0.0
 11
1432.377854364886
 21
737.7672403725584
 31
0.0
  0
LINE
  5
ABC
330
1F
100
AcDbEntity
  8
0
100
AcDbLine
 10
1629.377854364886
 20
746.5153946540956
 30
0.0
 11
1632.377854364885
 21
746.5153946540956
 31
0.0
  0
LINE
  5
ABD
330
1F
100
AcDbEntity
  8
0
100
AcDbLine
 10
1632.377854364885
 20
738.5153946540955
 30
0.0
 11
1629.377854364886
 21
738.5153946540955
 31
0.0
  0
LINE
  5
ABE
330
1F
100
AcDbEntity
  8
0
100
AcDbLine
 10
1629.377854364886
 20
738.5153946540955
 30
0.0
 11
1632.377854364885
 21
738.5153946540955
 31
0.0
  0
LINE
  5
ABF
330
1F
100
AcDbEntity
  8
0
100
AcDbLine
 10
1629.377854364886
 20
718.2641488480625
 30
0.0
 11
1632.377854364886
 21
718.2641488480625
 31
0.0
  0
LINE
  5
AC0
330
1F
100
AcDbEntity
  8
0
100
AcDbLine
 10
1632.377854364886
 20
710.2641488480625
 30
0.0
 11
1629.377854364886
 21
710.2641488480625
 31
0.0
  0
LINE
  5
AC1
330
1F
100
AcDbEntity
  8
0
100
AcDbLine
 10
1979.377854364886
 20
708.9617019293585
 30
0.0
 11
1979.377854364886
 21
706.6927049723525
 31
0.0
  0
MTEXT
  5
AC2
330
1F
100
AcDbEntity
  8
0
100
AcDbMText
 10
1509.487275119609
 20
722.7609148235755
 30
0.0
 40
2.5
 41
26.15409421250888
 46
0.0
 71
     7
 72
     5
  1
Cp 3
 73
     1
 44
1.0
1001
ACAD
1000
ACAD_MTEXT_COLUMN_INFO_BEGIN
1070
    75
1070
     2
1070
    79
1070
     0
1070
    76
1070
     1
1070
    78
1070
     0
1070
    48
1040
26.15409421250888
1070
    49
1040
12.5
1070
    50
1070
     1
1040
0.0
1000
ACAD_MTEXT_COLUMN_INFO_END
  0
LINE
  5
AC3
330
1F
100
AcDbEntity
  8
0
100
AcDbLine
 10
2062.569806301864
 20
735.9976833836036
 30
0.0
 11
2072.112338471858
 21
714.4083379756164
 31
0.0
  0
LINE
  5
AC4
330
1F
100
AcDbEntity
  8
0
100
AcDbLine
 10
1795.037918240869
 20
731.2845121841539
 30
0.0
 11
1795.037918240869
 21
721.284512184154
 31
0.0
  0
LINE
  5
AC5
330
1F
100
AcDbEntity
  8
0
100
AcDbLine
 10
1798.037918240869
 20
731.2845121841539
 30
0.0
 11
1798.037918240869
 21
721.284512184154
 31
0.0
  0
LINE
  5
AC6
330
1F
100
AcDbEntity
  8
0
100
AcDbLine
 10
1795.037918240869
 20
731.2845121841539
 30
0.0
 11
1798.037918240869
 21
731.2845121841539
 31
0.0
  0
LINE
  5
AC7
330
1F
100
AcDbEntity
  8
0
100
AcDbLine
 10
1795.037918240868
 20
721.284512184154
 30
0.0
 11
1798.037918240869
 21
721.284512184154
 31
0.0
  0
LINE
  5
AC8
330
1F
100
AcDbEntity
  8
0
100
AcDbLine
 10
2072.112338471858
 20
714.4083379756164
 30
0.0
 11
1982.29612610166
 21
711.9605884712253
 31
0.0
  0
LWPOLYLINE
  5
AC9
330
1F
100
AcDbEntity
  8
7
  6
Continuous
100
AcDbPolyline
 90
      118
 70
     0
 43
0.0
 10
1436.825151598207
 20
678.4836860133335
 10
1436.704074158056
 20
678.6391532569947
 10
1436.252700670374
 20
679.3315790785221
 10
1435.895893150454
 20
680.0467804953473
 10
1435.659378020796
 20
680.7831450604526
 10
1435.568843609963
 20
681.5390279408351
 10
1435.621529451747
 20
682.1967411021566
 10
1435.785987072532
 20
682.8552191940971
 10
1436.048836496652
 20
683.5024229329924
 10
1436.396706508817
 20
684.1263336083593
 10
1436.816215912388
 20
684.7149318992295
 10
1437.294004083909
 20
685.2561897242573
 10
1437.816689826744
 20
685.7380877624743
 10
1438.139379081862
 20
685.9894062298248
 10
1438.471667383926
 20
686.2189200348819
 10
1438.812372842032
 20
686.4295725148489
 10
1439.160283621236
 20
686.6243051754736
 10
1439.514238403815
 20
686.8060525935826
 10
1439.873025354823
 20
686.9777562749233
 10
1440.235471954222
 20
687.1423701485327
 10
1440.916672964303
 20
687.4365551897308
 10
1441.605360268296
 20
687.7159596895499
 10
1442.300868992379
 20
687.9806431694333
 10
1443.00253609419
 20
688.230635206781
 10
1443.709677347694
 20
688.4659841207181
 10
1444.421639081392
 20
688.6867300804775
 10
1445.137747661084
 20
688.8929120343219
 10
1445.837306229537
 20
689.0795872501521
 10
1446.539507236999
 20
689.2536903334632
 10
1447.244084940768
 20
689.4166176655842
 10
1447.950741822638
 20
689.5697937404309
 10
1448.659183416832
 20
689.7145931451807
 10
1449.369133388812
 20
689.852421632024
 10
1450.08031540404
 20
689.9846849531525
 10
1450.787196163081
 20
690.1115957052521
 10
1451.494596107044
 20
690.234440569132
 10
1452.202528086381
 20
690.353500853992
 10
1452.911017374837
 20
690.469018554125
 10
1453.620067452
 20
690.5812643868972
 10
1454.329722333339
 20
690.690501530269
 10
1455.039976738066
 20
690.7969801284251
 10
1456.456908658103
 20
691.0014230800795
 10
1457.874997351891
 20
691.1953069562784
 10
1459.29429944151
 20
691.3785250146198
 10
1460.714892732706
 20
691.5509517709783
 10
1462.136823866211
 20
691.7124798724677
 10
1463.560150685073
 20
691.8629826139914
 10
1464.984939792722
 20
692.0023538636333
 10
1466.408263998673
 20
692.1302943625115
 10
1467.832104340649
 20
692.2476666589123
 10
1469.256503856987
 20
692.3554051230523
 10
1470.681495604678
 20
692.4544435146624
 10
1472.107123232546
 20
692.5457062226112
 10
1473.533419187093
 20
692.6301369879775
 10
1474.960427117145
 20
692.70866019963
 10
1477.815876300885
 20
692.8506259968427
 10
1480.671256143719
 20
692.974724234293
 10
1483.52677051398
 20
693.0836824452454
 10
1486.382613298653
 20
693.1802275524773
 10
1489.238988976557
 20
693.267077107904
 10
1492.096102026511
 20
693.3469486634411
 10
1494.954135743667
 20
693.422578512729
 10
1497.813363621951
 20
693.4960472328684
 10
1500.671775747508
 20
693.5672920043828
 10
1503.529714721919
 20
693.6359530715812
 10
1506.387525588703
 20
693.7016307533808
 10
1509.24557213311
 20
693.7639465523663
 10
1512.104187585857
 20
693.8225301210129
 10
1514.963716990467
 20
693.8769817782383
 10
1517.824440008003
 20
693.926988012179
 10
1520.684403163369
 20
693.9727098664122
 10
1523.543941365673
 20
694.0145685723315
 10
1526.403379542681
 20
694.0529847508448
 10
1529.263023269945
 20
694.0883678205416
 10
1532.123217437924
 20
694.1211396233012
 10
1534.984286974383
 20
694.1517207800314
 10
1537.846224767078
 20
694.1803913789613
 10
1540.707322784534
 20
694.2070669897845
 10
1543.567928939376
 20
694.2316286301323
 10
1546.428369350081
 20
694.2539860407101
 10
1549.289001910622
 20
694.2740208496342
 10
1552.150163941795
 20
694.2916234453991
 10
1555.012182783043
 20
694.3066836060138
 10
1557.875184315398
 20
694.3191088438234
 10
1560.737353978564
 20
694.328918418495
 10
1563.599007512763
 20
694.3361917536488
 10
1566.460508733503
 20
694.3410412693764
 10
1569.32218397284
 20
694.3435370184362
 10
1572.184367102238
 20
694.3437895894632
 10
1575.047404416448
 20
694.3418702561859
 10
1577.911320365146
 20
694.3378706821929
 10
1580.774374744453
 20
694.3319048431661
 10
1583.636909575722
 20
694.3241138822701
 10
1586.499278693112
 20
694.3146096091112
 10
1589.361803544798
 20
694.3035419272311
 10
1592.224846725314
 20
694.2910432194174
 10
1595.088730903807
 20
694.2772434265158
 10
1597.953371956092
 20
694.262207534079
 10
1600.817149637789
 20
694.2457262381602
 10
1603.680399224653
 20
694.2275595592438
 10
1606.543467805244
 20
694.2074381842566
 10
1609.406691265803
 20
694.1851121523356
 10
1612.270397342681
 20
694.1603009480888
 10
1615.134941274328
 20
694.132765812972
 10
1616.567599796679
 20
694.1179198326677
 10
1617.999825214315
 20
694.1024562600189
 10
1619.431789255187
 20
694.0865158412865
 10
1620.863664868221
 20
694.0702193600351
 10
1622.295633152231
 20
694.0537181543594
 10
1623.727847093446
 20
694.037131786853
 10
1625.16048840117
 20
694.0206016142629
 10
1626.593129922474
 20
694.0042317537258
 10
1628.025351219774
 20
693.9880165275513
 10
1629.457313215608
 20
693.9719457408095
 10
1630.889199237152
 20
693.95597049415
 10
1632.321159615112
 20
693.9400899635055
 10
1633.753388268497
 20
693.9242458786623
 10
1635.186035528011
 20
693.9084374155542
  0
LINE
  5
ACD
330
1F
100
AcDbEntity
  8
0
100
AcDbLine
 10
1314.77058171706
 20
905.1506594602253
 30
0.0
 11
1314.77058171706
 21
913.1506594602253
 31
0.0
  0
LINE
  5
AD0
330
1F
100
AcDbEntity
  8
0
100
AcDbLine
 10
1311.77058171706
 20
913.1506594602253
 30
0.0
 11
1314.77058171706
 21
913.1506594602253
 31
0.0
  0
LINE
  5
AD1
330
1F
100
AcDbEntity
  8
0
100
AcDbLine
 10
1311.77058171706
 20
905.1506594602253
 30
0.0
 11
1314.77058171706
 21
905.1506594602253
 31
0.0
  0
LINE
  5
AD2
330
1F
100
AcDbEntity
  8
0
100
AcDbLine
 10
1311.77058171706
 20
913.1506594602253
 30
0.0
 11
1311.77058171706
 21
921.1506594602253
 31
0.0
  0
LINE
  5
AD3
330
1F
100
AcDbEntity
  8
0
100
AcDbLine
 10
1275.770581717061
 20
897.1506594602253
 30
0.0
 11
1275.770581717061
 21
905.1506594602253
 31
0.0
  0
LINE
  5
AD4
330
1F
100
AcDbEntity
  8
0
100
AcDbLine
 10
1275.770581717061
 20
913.1506594602253
 30
0.0
 11
1275.770581717061
 21
921.1506594602253
 31
0.0
  0
LINE
  5
AD5
330
1F
100
AcDbEntity
  8
0
100
AcDbLine
 10
1272.770581717061
 20
905.1506594602253
 30
0.0
 11
1272.770581717061
 21
913.1506594602253
 31
0.0
  0
LINE
  5
AD6
330
1F
100
AcDbEntity
  8
0
100
AcDbLine
 10
1275.770581717061
 20
905.1506594602253
 30
0.0
 11
1272.770581717061
 21
905.1506594602253
 31
0.0
  0
LINE
  5
AD7
330
1F
100
AcDbEntity
  8
0
100
AcDbLine
 10
1275.770581717061
 20
913.1506594602253
 30
0.0
 11
1272.770581717061
 21
913.1506594602253
 31
0.0
  0
LINE
  5
ADB
330
1F
100
AcDbEntity
  8
0
100
AcDbLine
 10
1248.468481551936
 20
816.1190338481846
 30
0.0
 11
1248.258994179382
 21
824.1190338481846
 31
0.0
  0
LINE
  5
ADC
330
1F
100
AcDbEntity
  8
0
100
AcDbLine
 10
1249.569005199509
 20
727.1343427589862
 30
0.0
 11
1249.359517826955
 21
719.1343427589862
 31
0.0
  0
LINE
  5
ADD
330
1F
100
AcDbEntity
  8
0
100
AcDbLine
 10
1245.467453174463
 20
816.1190338481846
 30
0.0
 11
1248.468481551936
 21
816.1190338481846
 31
0.0
  0
LINE
  5
ADE
330
1F
100
AcDbEntity
  8
0
100
AcDbLine
 10
1245.25796580191
 20
824.1190338481846
 30
0.0
 11
1248.258994179382
 21
824.1190338481846
 31
0.0
  0
LINE
  5
ADF
330
1F
100
AcDbEntity
  8
0
100
AcDbLine
 10
1246.464261513232
 20
719.1343427589862
 30
0.0
 11
1249.359517826955
 21
719.1343427589861
 31
0.0
  0
LINE
  5
AE0
330
1F
100
AcDbEntity
  8
0
100
AcDbLine
 10
1246.567976822036
 20
727.1343427589861
 30
0.0
 11
1249.569005199509
 21
727.1343427589862
 31
0.0
  0
LINE
  5
AE1
330
1F
100
AcDbEntity
  8
0
100
AcDbLine
 10
1245.257965801909
 20
824.1190338481846
 30
0.0
 11
1244.89358082119
 21
838.0343348528214
 31
0.0
  0
LINE
  5
AE2
330
1F
100
AcDbEntity
  8
0
100
AcDbLine
 10
1245.989436540237
 20
705.040780755824
 30
0.0
 11
1246.464261513232
 21
719.1343427589862
 31
0.0
  0
LWPOLYLINE
  5
AE5
330
1F
100
AcDbEntity
  8
0
100
AcDbPolyline
 90
        4
 70
     1
 43
0.0
 10
2021.202096340791
 20
927.560284224741
 10
2027.266177739977
 20
941.2798657338123
 10
2001.656292256377
 20
952.5994843456258
 10
1995.592210857191
 20
938.8799028365545
  0
LWPOLYLINE
  5
AEB
330
1F
100
AcDbEntity
  8
0
100
AcDbPolyline
 90
        4
 70
     1
 43
0.0
 10
1999.12992426825
 20
877.6234605085997
 10
2005.194005667436
 20
891.3430420176709
 10
1979.584120183836
 20
902.6626606294843
 10
1973.52003878465
 20
888.9430791204132
  0
LWPOLYLINE
  5
AEC
330
1F
100
AcDbEntity
  8
0
100
AcDbPolyline
 90
        4
 70
     1
 43
0.0
 10
2041.657180040215
 20
973.8385528717968
 10
2047.721261439401
 20
987.5581343808681
 10
2022.111375955801
 20
998.8777529926816
 10
2016.047294556616
 20
985.1581714836102
  0
LINE
  5
AED
330
1F
100
AcDbEntity
  8
0
100
AcDbLine
 10
2166.068945718002
 20
825.406274021229
 30
0.0
 11
2245.72273451417
 21
848.403043115503
 31
0.0
  0
LINE
  5
AEE
330
1F
100
AcDbEntity
  8
0
100
AcDbLine
 10
2166.068945718002
 20
825.406274021229
 30
0.0
 11
2241.420927023234
 21
995.8851283331089
 31
0.0
  0
LINE
  5
AEF
330
1F
100
AcDbEntity
  8
0
100
AcDbLine
 10
2199.019980334513
 20
992.938511942407
 30
0.0
 11
2082.876993781024
 21
854.7112524324802
 31
0.0
  0
ARC
  5
AF0
330
1F
100
AcDbEntity
  8
0
100
AcDbCircle
 10
2243.503693159079
 20
856.0891250474357
 30
0.0
 40
8.0
100
AcDbArc
 50
286.103907070662
 51
351.9345617806469
  0
LINE
  5
AF1
330
1F
100
AcDbEntity
  8
0
100
AcDbLine
 10
2205.221860218652
 20
995.8851283331089
 30
0.0
 11
2262.179937173542
 21
995.8851283331089
 31
0.0
  0
ARC
  5
AF2
330
1F
100
AcDbEntity
  8
0
100
AcDbCircle
 10
2205.221860218652
 20
987.8851283331089
 30
0.0
 40
8.0
100
AcDbArc
 50
90.0
 51
140.826342029554
  0
ARC
  5
AF3
330
1F
100
AcDbEntity
  8
0
100
AcDbCircle
 10
2262.179937173542
 20
987.8851283331089
 30
0.0
 40
8.0
100
AcDbArc
 50
351.9345617806469
 51
90.0
  0
LINE
  5
AF4
330
1F
100
AcDbEntity
  8
0
100
AcDbLine
 10
2270.100804946269
 20
986.7626962741558
 30
0.0
 11
2251.424560931806
 21
854.966692988483
 31
0.0
  0
LINE
  5
AF5
330
1F
100
AcDbEntity
  8
0
100
AcDbLine
 10
2082.876993781024
 20
854.7112524324802
 30
0.0
 11
2177.46886744992
 21
851.1978399819209
 31
0.0
  0
LINE
  5
AFD
330
1F
100
AcDbEntity
  8
0
100
AcDbLine
 10
1156.793692577709
 20
1063.985946508846
 30
0.0
 11
1202.401408558101
 21
1063.985946508846
 31
0.0
  0
LINE
  5
AFE
330
1F
100
AcDbEntity
  8
0
100
AcDbLine
 10
1266.793692577709
 20
1063.985946508846
 30
0.0
 11
1266.793692577709
 21
1067.811230261834
 31
0.0
  0
LINE
  5
B03
330
1F
100
AcDbEntity
  8
0
100
AcDbLine
 10
981.793692577709
 20
1067.811230261834
 30
0.0
 11
1441.79369257771
 21
1067.811230261834
 31
0.0
  0
ARC
  5
B04
330
1F
100
AcDbEntity
  8
0
100
AcDbCircle
 10
1339.855425091924
 20
1067.79829279921
 30
0.0
 40
101.938268306763
100
AcDbArc
 50
0.0072716754977579
 51
8.006690408357249
  0
ARC
  5
B05
330
1F
100
AcDbEntity
  8
0
100
AcDbCircle
 10
1339.855425091927
 20
1067.798292799211
 30
0.0
 40
101.93826830676
100
AcDbArc
 50
8.006690408356845
 51
16.63631863347344
  0
ARC
  5
B06
330
1F
100
AcDbEntity
  8
0
100
AcDbCircle
 10
1339.855425091927
 20
1067.79829279921
 30
0.0
 40
101.9382683067597
100
AcDbArc
 50
16.63631863347422
 51
33.26536559146533
  0
ARC
  5
B07
330
1F
100
AcDbEntity
  8
0
100
AcDbCircle
 10
1339.855425091929
 20
1067.798292799208
 30
0.0
 40
101.9382683067589
100
AcDbArc
 50
33.26536559146635
 51
45.31476548936048
  0
LINE
  5
B08
330
1F
100
AcDbEntity
  8
0
100
AcDbLine
 10
1411.539587846801
 20
1140.274436153514
 30
0.0
 11
1211.79369257771
 21
1161.985946508845
 31
0.0
  0
LINE
  5
B09
330
1F
100
AcDbEntity
  8
0
100
AcDbLine
 10
1211.79369257771
 20
1161.985946508845
 30
0.0
 11
1012.047797308614
 21
1140.27443615351
 31
0.0
  0
ARC
  5
B0A
330
1F
100
AcDbEntity
  8
0
100
AcDbCircle
 10
1083.731960063488
 20
1067.798292799207
 30
0.0
 40
101.938268306759
100
AcDbArc
 50
134.6852345106451
 51
146.7346344085408
  0
ARC
  5
B0B
330
1F
100
AcDbEntity
  8
0
100
AcDbCircle
 10
1083.731960063495
 20
1067.798292799212
 30
0.0
 40
101.9382683067619
100
AcDbArc
 50
146.7346344085438
 51
163.3636813665244
  0
ARC
  5
B0C
330
1F
100
AcDbEntity
  8
0
100
AcDbCircle
 10
1083.731960063488
 20
1067.798292799205
 30
0.0
 40
101.9382683067575
100
AcDbArc
 50
163.3636813665184
 51
171.9933095916383
  0
ARC
  5
B0D
330
1F
100
AcDbEntity
  8
0
100
AcDbCircle
 10
1083.7319600635
 20
1067.798292799212
 30
0.0
 40
101.9382683067692
100
AcDbArc
 50
171.993309591643
 51
179.9927283245033
  0
LINE
  5
B0E
330
1F
100
AcDbEntity
  8
0
100
AcDbLine
 10
981.793692577709
 20
1067.811230261834
 30
0.0
 11
981.793692577709
 21
1067.811230261834
 31
0.0
  0
LINE
  5
B0F
330
1F
100
AcDbEntity
  8
0
100
AcDbLine
 10
981.793692577709
 20
1067.811230261834
 30
0.0
 11
981.793692577709
 21
1067.811230261834
 31
0.0
  0
LINE
  5
B16
330
1F
100
AcDbEntity
  8
0
100
AcDbLine
 10
1441.79369257771
 20
1066.985946508846
 30
0.0
 11
1441.79369257771
 21
1043.985946508846
 31
0.0
  0
LINE
  5
B17
330
1F
100
AcDbEntity
  8
0
100
AcDbLine
 10
981.793692577709
 20
1067.811230261834
 30
0.0
 11
981.7936925777081
 21
1043.985946508846
 31
0.0
  0
LINE
  5
B18
330
1F
100
AcDbEntity
  8
0
100
AcDbLine
 10
981.7936925777081
 20
1043.985946508846
 30
0.0
 11
1188.123519939198
 21
1033.220912037812
 31
0.0
  0
LINE
  5
B19
330
1F
100
AcDbEntity
  8
0
100
AcDbLine
 10
1441.79369257771
 20
1043.985946508846
 30
0.0
 11
1235.463865216219
 21
1033.220912037812
 31
0.0
  0
LINE
  5
B1A
330
1F
100
AcDbEntity
  8
0
100
AcDbLine
 10
1202.401408558101
 20
1063.985946508846
 30
0.0
 11
1188.123519939198
 21
1033.220912037812
 31
0.0
  0
LINE
  5
B1B
330
1F
100
AcDbEntity
  8
0
100
AcDbLine
 10
1221.185976597317
 20
1063.985946508846
 30
0.0
 11
1235.463865216219
 21
1033.220912037812
 31
0.0
  0
LINE
  5
B1C
330
1F
100
AcDbEntity
  8
0
100
AcDbLine
 10
1156.793692577709
 20
1067.811230261834
 30
0.0
 11
1156.793692577709
 21
1063.985946508846
 31
0.0
  0
LINE
  5
B1D
330
1F
100
AcDbEntity
  8
0
100
AcDbLine
 10
982.7858307290968
 20
1081.985946508846
 30
0.0
 11
982.8670196839748
 21
1081.985946508846
 31
0.0
  0
LINE
  5
B1E
330
1F
100
AcDbEntity
  8
0
100
AcDbLine
 10
1221.185976597317
 20
1063.985946508846
 30
0.0
 11
1266.793692577709
 21
1063.985946508846
 31
0.0
  0
LINE
  5
B1F
330
1F
100
AcDbEntity
  8
0
100
AcDbLine
 10
1441.793692577712
 20
1066.985946508846
 30
0.0
 11
1441.79369257771
 21
1067.811230261834
 31
0.0
  0
ENDSEC
  0
SECTION
  2
OBJECTS
  0
DICTIONARY
  5
C
330
0
100
AcDbDictionary
281
     1
  3
ACAD_COLOR
350
6B
  3
ACAD_GROUP
350
D
  3
ACAD_LAYOUT
350
1A
  3
ACAD_MATERIAL
350
6A
  3
ACAD_MLEADERSTYLE
350
12D
  3
ACAD_MLINESTYLE
350
17
  3
ACAD_PLOTSETTINGS
350
19
  3
ACAD_PLOTSTYLENAME
350
E
  3
ACAD_SCALELIST
350
10C
  3
ACAD_TABLESTYLE
350
7E
  3
ACAD_VISUALSTYLE
350
EF
  3
ACDB_RECOMPOSE_DATA
350
B7F
  3
AcDbVariableDictionary
350
5E
  0
DICTIONARY
  5
2E5
330
2
100
AcDbDictionary
280
     1
281
     1
  3
ACAD_LAYERSTATES
360
2E6
  0
DICTIONARY
  5
13C
330
10
100
AcDbDictionary
280
     1
281
     1
  0
DICTIONARY
  5
1CE
330
1F
100
AcDbDictionary
280
     1
281
     1
  3
ACAD_SORTENTS
360
216
  0
DICTIONARY
  5
6B
102
{ACAD_REACTORS
330
C
102
}
330
C
100
AcDbDictionary
281
     1
  0
DICTIONARY
  5
D
102
{ACAD_REACTORS
330
C
102
}
330
C
100
AcDbDictionary
281
     1
  0
DICTIONARY
  5
1A
102
{ACAD_REACTORS
330
C
102
}
330
C
100
AcDbDictionary
281
     1
  3
Layout1
350
D3
  3
Layout2
350
D7
  3
Model
350
22
  0
DICTIONARY
  5
6A
102
{ACAD_REACTORS
330
C
102
}
330
C
100
AcDbDictionary
281
     1
  3
ByBlock
350
ED
  3
ByLayer
350
EC
  3
Global
350
EE
  0
DICTIONARY
  5
12D
102
{ACAD_REACTORS
330
C
102
}
330
C
100
AcDbDictionary
281
     1
  3
Annotativa
350
13B
  3
Standard
350
12E
  0
DICTIONARY
  5
17
102
{ACAD_REACTORS
330
C
102
}
330
C
100
AcDbDictionary
281
     1
  3
Standard
350
18
  0
DICTIONARY
  5
19
102
{ACAD_REACTORS
330
C
102
}
330
C
100
AcDbDictionary
281
     1
  0
ACDBDICTIONARYWDFLT
  5
E
102
{ACAD_REACTORS
330
C
102
}
330
C
100
AcDbDictionary
281
     1
  3
Normal
350
F
100
AcDbDictionaryWithDefault
340
F
  0
DICTIONARY
  5
10C
102
{ACAD_REACTORS
330
C
102
}
330
C
100
AcDbDictionary
281
     1
  3
A0
350
10D
  3
A1
350
1BE
  3
A2
350
1BF
  3
A3
350
1C0
  3
A4
350
1C1
  3
A5
350
1C2
  3
A6
350
1C3
  3
A7
350
1C4
  3
A8
350
1C5
  3
A9
350
1C6
  3
B0
350
1C7
  3
B1
350
1C8
  3
B2
350
1C9
  3
B3
350
1CA
  3
B4
350
1CB
  3
B5
350
1CC
  3
B6
350
1CD
  0
DICTIONARY
  5
7E
102
{ACAD_REACTORS
330
C
102
}
330
C
100
AcDbDictionary
281
     1
  3
Standard
350
7F
  0
DICTIONARY
  5
EF
102
{ACAD_REACTORS
330
C
102
}
330
C
100
AcDbDictionary
281
     1
  3
2dWireframe
350
F5
  3
3D Hidden
350
F7
  3
3dWireframe
350
F6
  3
Basic
350
F4
  3
Brighten
350
FB
  3
ColorChange
350
FF
  3
Conceptual
350
F8
  3
Dim
350
FA
  3
EdgeColorOff
350
1E6
  3
Facepattern
350
FE
  3
Flat
350
F0
  3
FlatWithEdges
350
F1
  3
Gouraud
350
F2
  3
GouraudWithEdges
350
F3
  3
JitterOff
350
1E4
  3
Linepattern
350
FD
  3
OverhangOff
350
1E5
  3
Realistic
350
F9
  3
Thicken
350
FC
  0
XRECORD
  5
B7F
102
{ACAD_REACTORS
330
C
102
}
330
C
100
AcDbXrecord
280
     1
 90
        1
330
7F
330
49E
330
49F
330
4A0
330
4A1
330
4A3
330
52D
330
AC2
  0
DICTIONARY
  5
5E
102
{ACAD_REACTORS
330
C
102
}
330
C
100
AcDbDictionary
281
     1
  3
CANNOSCALE
350
146
  3
CMLEADERSTYLE
350
145
  3
CTABLESTYLE
350
84
  3
DIMASSOC
350
5F
  3
HIDETEXT
350
63
  3
LAYEREVAL
350
1AE
  3
LAYERNOTIFY
350
1AF
  0
DICTIONARY
  5
2E6
102
{ACAD_REACTORS
330
2E5
102
}
330
2E5
100
AcDbDictionary
281
     1
  0
SORTENTSTABLE
  5
216
102
{ACAD_REACTORS
330
1CE
102
}
330
1CE
100
AcDbSortentsTable
330
1F
331
27B
  5
282
331
3A8
  5
6E1
331
427
  5
256
331
283
  5
27C
331
932
  5
991
331
86B
  5
93A
331
42F
  5
70C
331
9F9
  5
9FD
331
93A
  5
885
331
4F6
  5
744
331
47C
  5
716
331
3C0
  5
6FD
331
326
  5
669
331
AAE
  5
AB4
331
A9B
  5
AA1
331
87B
  5
878
331
AB6
  5
ABC
331
AA3
  5
AA9
331
ABE
  5
AC4
331
389
  5
6B1
331
A41
  5
A9B
331
9BA
  5
864
331
84C
  5
88E
331
883
  5
5BE
331
63E
  5
750
331
6FD
  5
6CC
331
254
  5
300
331
AC6
  5
ACF
331
9C2
  5
866
331
854
  5
959
331
88B
  5
4A4
331
705
  5
6BA
331
497
  5
725
331
70D
  5
6A7
331
AD6
  5
AD9
331
9EA
  5
A41
331
864
  5
93F
331
923
  5
49B
331
676
  5
854
331
715
  5
740
331
49F
  5
72D
331
ADE
  5
ADF
331
27C
  5
270
331
3A9
  5
6E2
331
428
  5
24B
331
2BF
  5
668
331
284
  5
27A
331
933
  5
992
331
86C
  5
93B
331
430
  5
70D
331
93B
  5
993
331
47D
  5
717
331
3C1
  5
6FF
331
AAF
  5
AB5
331
A9C
  5
AA2
331
A02
  5
A98
331
87C
  5
879
331
AB7
  5
ABD
331
AA4
  5
AAA
331
ABF
  5
AC5
331
382
  5
698
331
24D
  5
26A
331
9BB
  5
860
331
84D
  5
88F
331
884
  5
5F7
331
63F
  5
751
331
6FE
  5
6C9
331
2A8
  5
5FD
331
AC7
  5
AD1
331
9C3
  5
85E
331
855
  5
95A
331
88C
  5
4A5
331
39A
  5
6C1
331
275
  5
27B
331
66F
  5
84D
331
498
  5
728
331
AD7
  5
ADA
331
9EB
  5
A03
331
865
  5
940
331
924
  5
49C
331
716
  5
6A9
331
ADF
  5
AE0
331
36F
  5
69A
331
27D
  5
272
331
2B8
  5
646
331
4A0
  5
72E
331
3AA
  5
6E3
331
377
  5
690
331
9F3
  5
A04
331
86D
  5
890
331
934
  5
886
331
687
  5
714
331
71E
  5
6B0
331
29D
  5
5FF
331
431
  5
269
331
AA8
  5
AAE
331
A95
  5
A9C
331
9FB
  5
9FE
331
93C
  5
994
331
3C2
  5
6FB
331
68F
  5
856
331
AB0
  5
AB6
331
A9D
  5
AA3
331
A03
  5
A99
331
87D
  5
87A
331
AB8
  5
ABE
331
AA5
  5
AAB
331
338
  5
650
331
3D2
  5
700
331
383
  5
6A5
331
246
  5
248
331
638
  5
74A
331
38B
  5
6B3
331
24E
  5
26E
331
AC0
  5
AC6
331
9BC
  5
86E
331
84E
  5
87D
331
885
  5
5FA
331
640
  5
75E
331
350
  5
66C
331
2A9
  5
601
331
489
  5
718
331
AC8
  5
AD2
331
9C4
  5
86A
331
856
  5
98B
331
88D
  5
4A6
331
668
  5
712
331
707
  5
6BB
331
276
  5
27D
331
39B
  5
6C0
331
AD0
  5
AD5
331
9E4
  5
9F6
331
70F
  5
6A6
331
866
  5
941
331
925
  5
49E
331
27E
  5
275
331
4A1
  5
736
331
3AB
  5
6E6
331
378
  5
6A3
331
AE0
  5
AE1
331
9F4
  5
A94
331
86E
  5
930
331
935
  5
888
331
688
  5
713
331
432
  5
68F
331
29E
  5
600
331
AA9
  5
AAF
331
93D
  5
9DD
331
509
  5
743
331
AB1
  5
AB7
331
A9E
  5
AA4
331
A04
  5
A9A
331
87E
  5
87B
331
AB9
  5
ABF
331
AA6
  5
AAC
331
339
  5
66B
331
3D3
  5
6FE
331
445
  5
715
331
384
  5
6A4
331
639
  5
74B
331
3E3
  5
701
331
38C
  5
6A8
331
24F
  5
26F
331
AC1
  5
AC7
331
9BD
  5
868
331
84F
  5
87E
331
886
  5
498
331
641
  5
76D
331
700
  5
6CA
331
394
  5
6BE
331
48A
  5
71C
331
AC9
  5
AD3
331
857
  5
98C
331
88E
  5
4F6
331
669
  5
711
331
708
  5
6B4
331
277
  5
27E
331
39C
  5
6BC
331
AD1
  5
AD4
331
9E5
  5
9F4
331
710
  5
695
331
867
  5
935
331
926
  5
49F
331
423
  5
705
331
371
  5
6A2
331
27F
  5
276
331
718
  5
6AA
331
379
  5
69D
331
2CA
  5
648
331
86F
  5
931
331
936
  5
887
331
AE1
  5
246
331
433
  5
70E
331
AAA
  5
AB0
331
9FD
  5
9FB
331
93E
  5
9DE
331
790
  5
872
331
AB2
  5
AB8
331
A9F
  5
AA5
331
87F
  5
87C
331
798
  5
874
331
52A
  5
748
331
ABA
  5
AC0
331
AA7
  5
AAD
331
385
  5
6A1
331
848
  5
88A
331
63A
  5
74C
331
6F9
  5
737
331
43B
  5
70F
331
38D
  5
6B9
331
34A
  5
66F
331
250
  5
2A6
331
AC2
  5
AC8
331
9BE
  5
85C
331
850
  5
87F
331
887
  5
4A0
331
642
  5
790
331
48B
  5
71E
331
858
  5
98D
331
88F
  5
4F7
331
493
  5
722
331
709
  5
6B5
331
3F4
  5
703
331
39D
  5
6A0
331
AD2
  5
6AB
331
49B
  5
729
331
711
  5
696
331
278
  5
27F
331
424
  5
706
331
2BB
  5
495
331
280
  5
277
331
868
  5
937
331
4A3
  5
738
331
42C
  5
709
331
37A
  5
69B
331
2CB
  5
643
331
9F6
  5
9FF
331
870
  5
932
331
937
  5
889
331
749
  5
497
331
AAB
  5
AB1
331
A98
  5
A9D
331
9FE
  5
9F9
331
93F
  5
9E4
331
692
  5
858
331
AB3
  5
AB9
331
AA0
  5
AA6
331
ABB
  5
AC1
331
241
  5
241
331
343
  5
688
331
249
  5
257
331
849
  5
88B
331
880
  5
52C
331
63B
  5
74D
331
6FA
  5
6E7
331
43C
  5
710
331
3E5
  5
702
331
38E
  5
6B2
331
34B
  5
687
331
251
  5
2A7
331
AC3
  5
AC9
331
9BF
  5
862
331
851
  5
880
331
888
  5
4A1
331
643
  5
792
331
702
  5
6CB
331
48C
  5
71F
331
859
  5
98E
331
890
  5
506
331
494
  5
723
331
70A
  5
6B6
331
3F5
  5
704
331
AD3
  5
AD6
331
861
  5
93C
331
49C
  5
72A
331
712
  5
697
331
ADB
  5
247
331
279
  5
280
331
425
  5
707
331
3A6
  5
6BF
331
281
  5
278
331
930
  5
98F
331
869
  5
938
331
42D
  5
70A
331
71A
  5
6AF
331
871
  5
933
331
938
  5
883
331
AAC
  5
AB2
331
A99
  5
A9F
331
9FF
  5
9F8
331
940
  5
9E5
331
693
  5
85A
331
AB4
  5
ABA
331
AA1
  5
AA7
331
ABC
  5
AC2
331
3D6
  5
6FC
331
24A
  5
268
331
84A
  5
88C
331
881
  5
52D
331
63C
  5
74E
331
6FB
  5
6E5
331
38F
  5
69F
331
34C
  5
66A
331
AC4
  5
ACD
331
9C0
  5
869
331
852
  5
881
331
889
  5
4A2
331
48D
  5
720
331
703
  5
6C5
331
3EE
  5
693
331
9E0
  5
9F3
331
495
  5
724
331
70B
  5
6B7
331
891
  5
513
331
AD4
  5
AD7
331
862
  5
93D
331
713
  5
699
331
ADC
  5
A9E
331
2B5
  5
647
331
27A
  5
281
331
426
  5
708
331
3A7
  5
6C2
331
282
  5
279
331
931
  5
990
331
86A
  5
939
331
42E
  5
70B
331
9F8
  5
A02
331
872
  5
934
331
939
  5
884
331
4F5
  5
742
331
3BF
  5
6F9
331
AAD
  5
AB3
331
A9A
  5
AA0
331
941
  5
9F1
331
87A
  5
876
331
AB5
  5
ABB
331
AA2
  5
AA8
331
52D
  5
749
331
ABD
  5
AC3
331
3D7
  5
6FA
331
9B9
  5
870
331
84B
  5
88D
331
882
  5
52F
331
63D
  5
74F
331
6FC
  5
6E4
331
3E7
  5
692
331
AC5
  5
ACE
331
9C1
  5
86C
331
853
  5
882
331
88A
  5
4A3
331
48E
  5
721
331
704
  5
6BD
331
9E1
  5
9F2
331
ACD
  5
6AE
331
70C
  5
6B8
331
892
  5
51A
331
AD5
  5
AD8
331
863
  5
93E
331
49E
  5
72B
331
714
  5
69C
331
ADD
  5
ADE
  0
LAYOUT
  5
D3
102
{ACAD_REACTORS
330
1A
102
}
330
1A
100
AcDbPlotSettings
  1

  2
C:\Documents and Settings\basas\Application Data\Autodesk\AutoCAD 2005\R16.1\enu\plotters\Default Windows System Printer.pc3
  4

  6

 40
0.0
 41
0.0
 42
0.0
 43
0.0
 44
0.0
 45
0.0
 46
0.0
 47
0.0
 48
0.0
 49
0.0
140
0.0
141
0.0
142
1.0
143
1.0
 70
   688
 72
     0
 73
     0
 74
     5
  7

 75
    16
147
1.0
 76
     0
 77
     2
 78
   300
148
0.0
149
0.0
100
AcDbLayout
  1
Layout1
 70
     1
 71
     1
 10
0.0
 20
0.0
 11
12.0
 21
9.0
 12
0.0
 22
0.0
 32
0.0
 14
0.0
 24
0.0
 34
0.0
 15
0.0
 25
0.0
 35
0.0
146
0.0
 13
0.0
 23
0.0
 33
0.0
 16
1.0
 26
0.0
 36
0.0
 17
0.0
 27
1.0
 37
0.0
 76
     0
330
D2
  0
LAYOUT
  5
D7
102
{ACAD_REACTORS
330
1A
102
}
330
1A
100
AcDbPlotSettings
  1

  2
C:\Documents and Settings\basas\Application Data\Autodesk\AutoCAD 2005\R16.1\enu\plotters\Default Windows System Printer.pc3
  4

  6

 40
0.0
 41
0.0
 42
0.0
 43
0.0
 44
0.0
 45
0.0
 46
0.0
 47
0.0
 48
0.0
 49
0.0
140
0.0
141
0.0
142
1.0
143
1.0
 70
   688
 72
     0
 73
     0
 74
     5
  7

 75
    16
147
1.0
 76
     0
 77
     2
 78
   300
148
0.0
149
0.0
100
AcDbLayout
  1
Layout2
 70
     1
 71
     2
 10
0.0
 20
0.0
 11
12.0
 21
9.0
 12
0.0
 22
0.0
 32
0.0
 14
0.0
 24
0.0
 34
0.0
 15
0.0
 25
0.0
 35
0.0
146
0.0
 13
0.0
 23
0.0
 33
0.0
 16
1.0
 26
0.0
 36
0.0
 17
0.0
 27
1.0
 37
0.0
 76
     0
330
D6
  0
LAYOUT
  5
22
102
{ACAD_XDICTIONARY
360
2EB
102
}
102
{ACAD_REACTORS
330
1A
102
}
330
1A
100
AcDbPlotSettings
  1

  2
none_device
  4
ISO_A4_(210.00_x_297.00_MM)
  6

 40
7.5
 41
20.0
 42
7.5
 43
20.0
 44
210.0
 45
297.0
 46
11.54999923706054
 47
-13.65000009536743
 48
0.0
 49
0.0
140
0.0
141
0.0
142
1.0
143
8.704084754739808
 70
 11952
 72
     1
 73
     0
 74
     0
  7

 75
     0
147
0.1148885871608098
 76
     0
 77
     2
 78
   300
148
0.0
149
0.0
100
AcDbLayout
  1
Model
 70
     1
 71
     0
 10
0.0
 20
0.0
 11
12.0
 21
9.0
 12
0.0
 22
0.0
 32
0.0
 14
0.0
 24
0.0
 34
0.0
 15
0.0
 25
0.0
 35
0.0
146
0.0
 13
0.0
 23
0.0
 33
0.0
 16
1.0
 26
0.0
 36
0.0
 17
0.0
 27
1.0
 37
0.0
 76
     0
330
1F
331
EA
1001
ACAD_PSEXT
1000
None
1000
None
1000
Not applicable
1000
The layout will not be plotted unless a new plotter configuration name is selected.
1070
     0
  0
MATERIAL
  5
ED
102
{ACAD_REACTORS
330
6A
102
}
330
6A
100
AcDbMaterial
  1
ByBlock
 94
       63
  0
MATERIAL
  5
EC
102
{ACAD_REACTORS
330
6A
102
}
330
6A
100
AcDbMaterial
  1
ByLayer
 94
       63
  0
MATERIAL
  5
EE
102
{ACAD_XDICTIONARY
360
173
102
}
102
{ACAD_REACTORS
330
6A
102
}
330
6A
100
AcDbMaterial
  1
Global
 43
0.0007999999797903
 43
0.0
 43
0.0
 43
0.0
 43
0.0
 43
0.0007999999797903
 43
0.0
 43
0.0
 43
0.0
 43
0.0
 43
1.0
 43
0.0
 43
0.0
 43
0.0
 43
0.0
 43
1.0
 49
0.0007999999797903
 49
0.0
 49
0.0
 49
0.0
 49
0.0
 49
0.0007999999797903
 49
0.0
 49
0.0
 49
0.0
 49
0.0
 49
1.0
 49
0.0
 49
0.0
 49
0.0
 49
0.0
 49
1.0
142
0.0007999999797903
142
0.0
142
0.0
142
0.0
142
0.0
142
0.0007999999797903
142
0.0
142
0.0
142
0.0
142
0.0
142
1.0
142
0.0
142
0.0
142
0.0
142
0.0
142
1.0
144
0.0007999999797903
144
0.0
144
0.0
144
0.0
144
0.0
144
0.0007999999797903
144
0.0
144
0.0
144
0.0
144
0.0
144
1.0
144
0.0
144
0.0
144
0.0
144
0.0
144
1.0
 94
       63
1001
ACAD
1070
    -1
1070
     3
1070
     0
1000

1071
        0
1070
     0
  0
MLEADERSTYLE
  5
13B
102
{ACAD_REACTORS
330
12D
102
}
330
12D
100
AcDbMLeaderStyle
179
     2
170
     2
171
     1
172
     0
 90
        2
 40
0.0
 41
0.0
173
     1
 91
-1056964608
340
14
 92
       -2
290
     1
 42
2.0
291
     1
 43
8.0
  3
Standard
 44
4.0
300

342
11
174
     1
178
     1
175
     1
176
     0
 93
-1056964608
 45
4.0
292
     0
297
     0
 46
4.0
 94
-1056964608
 47
1.0
 49
1.0
140
1.0
293
     1
141
0.0
294
     1
177
     0
142
1.0
295
     0
296
     1
143
3.75
271
     0
272
     9
273
     9
  0
MLEADERSTYLE
  5
12E
102
{ACAD_REACTORS
330
12D
102
}
330
12D
100
AcDbMLeaderStyle
179
     2
170
     2
171
     1
172
     0
 90
        2
 40
0.0
 41
0.0
173
     1
 91
-1056964608
340
14
 92
       -2
290
     1
 42
2.0
291
     1
 43
8.0
  3
Standard
 44
4.0
300

342
11
174
     1
178
     1
175
     1
176
     0
 93
-1056964608
 45
4.0
292
     0
297
     0
 46
4.0
 94
-1056964608
 47
1.0
 49
1.0
140
1.0
293
     1
141
0.0
294
     1
177
     0
142
1.0
295
     0
296
     0
143
3.75
271
     0
272
     9
273
     9
  0
MLINESTYLE
  5
18
102
{ACAD_REACTORS
330
17
102
}
330
17
100
AcDbMlineStyle
  2
STANDARD
 70
     0
  3

 62
   256
 51
90.0
 52
90.0
 71
     2
 49
0.5
 62
   256
  6
BYLAYER
 49
-0.5
 62
   256
  6
BYLAYER
  0
ACDBPLACEHOLDER
  5
F
102
{ACAD_REACTORS
330
E
102
}
330
E
  0
SCALE
  5
10D
102
{ACAD_REACTORS
330
10C
102
}
330
10C
100
AcDbScale
 70
     0
300
1:1
140
1.0
141
1.0
290
     1
  0
SCALE
  5
1BE
102
{ACAD_REACTORS
330
10C
102
}
330
10C
100
AcDbScale
 70
     0
300
1:2
140
1.0
141
2.0
290
     0
  0
SCALE
  5
1BF
102
{ACAD_REACTORS
330
10C
102
}
330
10C
100
AcDbScale
 70
     0
300
1:4
140
1.0
141
4.0
290
     0
  0
SCALE
  5
1C0
102
{ACAD_REACTORS
330
10C
102
}
330
10C
100
AcDbScale
 70
     0
300
1:5
140
1.0
141
5.0
290
     0
  0
SCALE
  5
1C1
102
{ACAD_REACTORS
330
10C
102
}
330
10C
100
AcDbScale
 70
     0
300
1:8
140
1.0
141
8.0
290
     0
  0
SCALE
  5
1C2
102
{ACAD_REACTORS
330
10C
102
}
330
10C
100
AcDbScale
 70
     0
300
1:10
140
1.0
141
10.0
290
     0
  0
SCALE
  5
1C3
102
{ACAD_REACTORS
330
10C
102
}
330
10C
100
AcDbScale
 70
     0
300
1:16
140
1.0
141
16.0
290
     0
  0
SCALE
  5
1C4
102
{ACAD_REACTORS
330
10C
102
}
330
10C
100
AcDbScale
 70
     0
300
1:20
140
1.0
141
20.0
290
     0
  0
SCALE
  5
1C5
102
{ACAD_REACTORS
330
10C
102
}
330
10C
100
AcDbScale
 70
     0
300
1:30
140
1.0
141
30.0
290
     0
  0
SCALE
  5
1C6
102
{ACAD_REACTORS
330
10C
102
}
330
10C
100
AcDbScale
 70
     0
300
1:40
140
1.0
141
40.0
290
     0
  0
SCALE
  5
1C7
102
{ACAD_REACTORS
330
10C
102
}
330
10C
100
AcDbScale
 70
     0
300
1:50
140
1.0
141
50.0
290
     0
  0
SCALE
  5
1C8
102
{ACAD_REACTORS
330
10C
102
}
330
10C
100
AcDbScale
 70
     0
300
1:100
140
1.0
141
100.0
290
     0
  0
SCALE
  5
1C9
102
{ACAD_REACTORS
330
10C
102
}
330
10C
100
AcDbScale
 70
     0
300
2:1
140
2.0
141
1.0
290
     0
  0
SCALE
  5
1CA
102
{ACAD_REACTORS
330
10C
102
}
330
10C
100
AcDbScale
 70
     0
300
4:1
140
4.0
141
1.0
290
     0
  0
SCALE
  5
1CB
102
{ACAD_REACTORS
330
10C
102
}
330
10C
100
AcDbScale
 70
     0
300
8:1
140
8.0
141
1.0
290
     0
  0
SCALE
  5
1CC
102
{ACAD_REACTORS
330
10C
102
}
330
10C
100
AcDbScale
 70
     0
300
10:1
140
10.0
141
1.0
290
     0
  0
SCALE
  5
1CD
102
{ACAD_REACTORS
330
10C
102
}
330
10C
100
AcDbScale
 70
     0
300
100:1
140
100.0
141
1.0
290
     0
  0
TABLESTYLE
  5
7F
102
{ACAD_XDICTIONARY
360
162
102
}
102
{ACAD_REACTORS
330
7E
102
}
330
7E
100
AcDbTableStyle
280
     0
  3
Standard
 70
     0
 71
     0
 40
1.5
 41
1.5
280
     0
281
     0
  7
Standard
140
4.5
170
     2
 62
     0
 63
     7
283
     0
 90
      512
 91
        0
  1

274
    -2
284
     1
 64
     0
275
    -2
285
     1
 65
     0
276
    -2
286
     1
 66
     0
277
    -2
287
     1
 67
     0
278
    -2
288
     1
 68
     0
279
    -2
289
     1
 69
     0
  7
Standard
140
6.0
170
     5
 62
     0
 63
     7
283
     0
 90
      512
 91
        0
  1

274
    -2
284
     1
 64
     0
275
    -2
285
     1
 65
     0
276
    -2
286
     1
 66
     0
277
    -2
287
     1
 67
     0
278
    -2
288
     1
 68
     0
279
    -2
289
     1
 69
     0
  7
Standard
140
4.5
170
     5
 62
     0
 63
     7
283
     0
 90
      512
 91
        0
  1

274
    -2
284
     1
 64
     0
275
    -2
285
     1
 65
     0
276
    -2
286
     1
 66
     0
277
    -2
287
     1
 67
     0
278
    -2
288
     1
 68
     0
279
    -2
289
     1
 69
     0
  0
VISUALSTYLE
  5
F5
102
{ACAD_REACTORS
330
EF
102
}
330
EF
100
AcDbVisualStyle
  2
2dWireframe
 70
     4
177
     2
291
     0
 71
     0
176
     1
 72
     2
176
     1
 73
     1
176
     1
 90
        0
176
     1
 40
0.6
176
     1
 41
30.0
176
     1
 63
     7
421
 16777215
176
     1
 74
     1
176
     1
 91
        4
176
     1
 64
     7
176
     1
 65
   257
176
     1
 75
     1
176
     1
175
     1
176
     1
 42
1.0
176
     1
 92
        0
176
     1
 66
   257
176
     1
 43
1.0
176
     1
 76
     1
176
     1
 77
     6
176
     1
 78
     2
176
     1
 67
     7
176
     1
 79
     5
176
     1
170
     0
176
     1
171
     0
176
     1
290
     0
176
     1
 93
        1
176
     1
 44
0.0
176
     1
173
     0
176
     1
  0
VISUALSTYLE
  5
F7
102
{ACAD_REACTORS
330
EF
102
}
330
EF
100
AcDbVisualStyle
  2
3D Hidden
 70
     6
177
     2
291
     0
 71
     1
176
     1
 72
     2
176
     1
 73
     2
176
     1
 90
        0
176
     1
 40
0.6
176
     1
 41
30.0
176
     1
 63
     7
421
 16777215
176
     1
 74
     2
176
     1
 91
        2
176
     1
 64
     7
176
     1
 65
   257
176
     1
 75
     2
176
     1
175
     1
176
     1
 42
40.0
176
     1
 92
        0
176
     1
 66
   257
176
     1
 43
1.0
176
     1
 76
     1
176
     1
 77
     6
176
     1
 78
     2
176
     1
 67
     7
176
     1
 79
     3
176
     1
170
     0
176
     1
171
     0
176
     1
290
     0
176
     1
 93
        1
176
     1
 44
0.0
176
     1
173
     0
176
     1
  0
VISUALSTYLE
  5
F6
102
{ACAD_REACTORS
330
EF
102
}
330
EF
100
AcDbVisualStyle
  2
3dWireframe
 70
     5
177
     2
291
     0
 71
     0
176
     1
 72
     2
176
     1
 73
     1
176
     1
 90
        0
176
     1
 40
0.6
176
     1
 41
30.0
176
     1
 63
     7
421
 16777215
176
     1
 74
     1
176
     1
 91
        4
176
     1
 64
     7
176
     1
 65
   257
176
     1
 75
     1
176
     1
175
     1
176
     1
 42
1.0
176
     1
 92
        0
176
     1
 66
   257
176
     1
 43
1.0
176
     1
 76
     1
176
     1
 77
     6
176
     1
 78
     2
176
     1
 67
     7
176
     1
 79
     5
176
     1
170
     0
176
     1
171
     0
176
     1
290
     0
176
     1
 93
        1
176
     1
 44
0.0
176
     1
173
     0
176
     1
  0
VISUALSTYLE
  5
F4
102
{ACAD_REACTORS
330
EF
102
}
330
EF
100
AcDbVisualStyle
  2
Basic
 70
     7
177
     2
291
     1
 71
     1
176
     1
 72
     0
176
     1
 73
     1
176
     1
 90
        0
176
     1
 40
0.6
176
     1
 41
30.0
176
     1
 63
     7
421
 16777215
176
     1
 74
     0
176
     1
 91
        4
176
     1
 64
     7
176
     1
 65
   257
176
     1
 75
     1
176
     1
175
     1
176
     1
 42
1.0
176
     1
 92
        8
176
     1
 66
     7
176
     1
 43
1.0
176
     1
 76
     1
176
     1
 77
     6
176
     1
 78
     2
176
     1
 67
     7
176
     1
 79
     5
176
     1
170
     0
176
     1
171
     0
176
     1
290
     0
176
     1
 93
        1
176
     1
 44
0.0
176
     1
173
     0
176
     1
  0
VISUALSTYLE
  5
FB
102
{ACAD_REACTORS
330
EF
102
}
330
EF
100
AcDbVisualStyle
  2
Brighten
 70
    12
177
     2
291
     1
 71
     2
176
     1
 72
     2
176
     1
 73
     1
176
     1
 90
        0
176
     1
 40
0.6
176
     1
 41
30.0
176
     1
 63
     7
421
 16777215
176
     1
 74
     1
176
     1
 91
        4
176
     1
 64
     7
176
     1
 65
   257
176
     1
 75
     1
176
     1
175
     1
176
     1
 42
1.0
176
     1
 92
        8
176
     1
 66
     7
176
     1
 43
1.0
176
     1
 76
     1
176
     1
 77
     6
176
     1
 78
     2
176
     1
 67
     7
176
     1
 79
     5
176
     1
170
     0
176
     1
171
     0
176
     1
290
     0
176
     1
 93
        1
176
     1
 44
50.0
176
     1
173
     0
176
     1
  0
VISUALSTYLE
  5
FF
102
{ACAD_REACTORS
330
EF
102
}
330
EF
100
AcDbVisualStyle
  2
ColorChange
 70
    16
177
     2
291
     1
 71
     2
176
     1
 72
     2
176
     1
 73
     3
176
     1
 90
        0
176
     1
 40
0.6
176
     1
 41
30.0
176
     1
 63
     8
421
  8421504
176
     1
 74
     1
176
     1
 91
        4
176
     1
 64
     7
176
     1
 65
   257
176
     1
 75
     1
176
     1
175
     1
176
     1
 42
1.0
176
     1
 92
        8
176
     1
 66
     8
424
  8421504
176
     1
 43
1.0
176
     1
 76
     1
176
     1
 77
     6
176
     1
 78
     2
176
     1
 67
     7
176
     1
 79
     5
176
     1
170
     0
176
     1
171
     0
176
     1
290
     0
176
     1
 93
        1
176
     1
 44
0.0
176
     1
173
     0
176
     1
  0
VISUALSTYLE
  5
F8
102
{ACAD_REACTORS
330
EF
102
}
330
EF
100
AcDbVisualStyle
  2
Conceptual
 70
     9
177
     2
291
     0
 71
     3
176
     1
 72
     2
176
     1
 73
     1
176
     1
 90
        0
176
     1
 40
0.6
176
     1
 41
30.0
176
     1
 63
     7
421
 16777215
176
     1
 74
     2
176
     1
 91
        2
176
     1
 64
     7
176
     1
 65
   257
176
     1
 75
     1
176
     1
175
     1
176
     1
 42
40.0
176
     1
 92
        8
176
     1
 66
     7
176
     1
 43
1.0
176
     1
 76
     1
176
     1
 77
     6
176
     1
 78
     2
176
     1
 67
     7
176
     1
 79
     3
176
     1
170
     0
176
     1
171
     0
176
     1
290
     0
176
     1
 93
        1
176
     1
 44
0.0
176
     1
173
     0
176
     1
  0
VISUALSTYLE
  5
FA
102
{ACAD_REACTORS
330
EF
102
}
330
EF
100
AcDbVisualStyle
  2
Dim
 70
    11
177
     2
291
     1
 71
     2
176
     1
 72
     2
176
     1
 73
     1
176
     1
 90
        0
176
     1
 40
0.6
176
     1
 41
30.0
176
     1
 63
     7
421
 16777215
176
     1
 74
     1
176
     1
 91
        4
176
     1
 64
     7
176
     1
 65
   257
176
     1
 75
     1
176
     1
175
     1
176
     1
 42
1.0
176
     1
 92
        8
176
     1
 66
     7
176
     1
 43
1.0
176
     1
 76
     1
176
     1
 77
     6
176
     1
 78
     2
176
     1
 67
     7
176
     1
 79
     5
176
     1
170
     0
176
     1
171
     0
176
     1
290
     0
176
     1
 93
        1
176
     1
 44
-50.0
176
     1
173
     0
176
     1
  0
VISUALSTYLE
  5
1E6
102
{ACAD_REACTORS
330
EF
102
}
330
EF
100
AcDbVisualStyle
  2
EdgeColorOff
 70
    22
177
     2
291
     1
 71
     2
176
     0
 72
     2
176
     0
 73
     0
176
     0
 90
        0
176
     0
 40
0.6
176
     0
 41
30.0
176
     0
 63
     7
421
 16777215
176
     0
 74
     1
176
     0
 91
        4
176
     0
 64
     7
176
     0
 65
   257
176
     0
 75
     1
176
     0
175
     1
176
     0
 42
1.0
176
     0
 92
        8
176
     2
 66
     7
176
     0
 43
1.0
176
     0
 76
     1
176
     0
 77
     6
176
     0
 78
     2
176
     0
 67
     7
176
     0
 79
     5
176
     0
170
     0
176
     0
171
     0
176
     0
290
     0
176
     0
 93
        1
176
     0
 44
0.0
176
     0
173
     0
176
     0
  0
VISUALSTYLE
  5
FE
102
{ACAD_REACTORS
330
EF
102
}
330
EF
100
AcDbVisualStyle
  2
Facepattern
 70
    15
177
     2
291
     1
 71
     2
176
     1
 72
     2
176
     1
 73
     1
176
     1
 90
        0
176
     1
 40
0.6
176
     1
 41
30.0
176
     1
 63
     7
421
 16777215
176
     1
 74
     1
176
     1
 91
        4
176
     1
 64
     7
176
     1
 65
   257
176
     1
 75
     1
176
     1
175
     1
176
     1
 42
1.0
176
     1
 92
        8
176
     1
 66
     7
176
     1
 43
1.0
176
     1
 76
     1
176
     1
 77
     6
176
     1
 78
     2
176
     1
 67
     7
176
     1
 79
     5
176
     1
170
     0
176
     1
171
     0
176
     1
290
     0
176
     1
 93
        1
176
     1
 44
0.0
176
     1
173
     0
176
     1
  0
VISUALSTYLE
  5
F0
102
{ACAD_REACTORS
330
EF
102
}
330
EF
100
AcDbVisualStyle
  2
Flat
 70
     0
177
     2
291
     1
 71
     2
176
     1
 72
     1
176
     1
 73
     1
176
     1
 90
        2
176
     1
 40
0.6
176
     1
 41
30.0
176
     1
 63
     7
421
 16777215
176
     1
 74
     0
176
     1
 91
        4
176
     1
 64
     7
176
     1
 65
   257
176
     1
 75
     1
176
     1
175
     1
176
     1
 42
1.0
176
     1
 92
        8
176
     1
 66
     7
176
     1
 43
1.0
176
     1
 76
     1
176
     1
 77
     6
176
     1
 78
     2
176
     1
 67
     7
176
     1
 79
     5
176
     1
170
     0
176
     1
171
     0
176
     1
290
     0
176
     1
 93
        1
176
     1
 44
0.0
176
     1
173
     0
176
     1
  0
VISUALSTYLE
  5
F1
102
{ACAD_REACTORS
330
EF
102
}
330
EF
100
AcDbVisualStyle
  2
FlatWithEdges
 70
     1
177
     2
291
     1
 71
     2
176
     1
 72
     1
176
     1
 73
     1
176
     1
 90
        2
176
     1
 40
0.6
176
     1
 41
30.0
176
     1
 63
     7
421
 16777215
176
     1
 74
     1
176
     1
 91
        4
176
     1
 64
     7
176
     1
 65
   257
176
     1
 75
     1
176
     1
175
     1
176
     1
 42
1.0
176
     1
 92
        0
176
     1
 66
   257
176
     1
 43
1.0
176
     1
 76
     1
176
     1
 77
     6
176
     1
 78
     2
176
     1
 67
     7
176
     1
 79
     5
176
     1
170
     0
176
     1
171
     0
176
     1
290
     0
176
     1
 93
        1
176
     1
 44
0.0
176
     1
173
     0
176
     1
  0
VISUALSTYLE
  5
F2
102
{ACAD_REACTORS
330
EF
102
}
330
EF
100
AcDbVisualStyle
  2
Gouraud
 70
     2
177
     2
291
     1
 71
     2
176
     1
 72
     2
176
     1
 73
     1
176
     1
 90
        2
176
     1
 40
0.6
176
     1
 41
30.0
176
     1
 63
     7
421
 16777215
176
     1
 74
     0
176
     1
 91
        4
176
     1
 64
     7
176
     1
 65
   257
176
     1
 75
     1
176
     1
175
     1
176
     1
 42
1.0
176
     1
 92
        0
176
     1
 66
     7
176
     1
 43
1.0
176
     1
 76
     1
176
     1
 77
     6
176
     1
 78
     2
176
     1
 67
     7
176
     1
 79
     5
176
     1
170
     0
176
     1
171
     0
176
     1
290
     0
176
     1
 93
        1
176
     1
 44
0.0
176
     1
173
     0
176
     1
  0
VISUALSTYLE
  5
F3
102
{ACAD_REACTORS
330
EF
102
}
330
EF
100
AcDbVisualStyle
  2
GouraudWithEdges
 70
     3
177
     2
291
     1
 71
     2
176
     1
 72
     2
176
     1
 73
     1
176
     1
 90
        2
176
     1
 40
0.6
176
     1
 41
30.0
176
     1
 63
     7
421
 16777215
176
     1
 74
     1
176
     1
 91
        4
176
     1
 64
     7
176
     1
 65
   257
176
     1
 75
     1
176
     1
175
     1
176
     1
 42
1.0
176
     1
 92
        0
176
     1
 66
   257
176
     1
 43
1.0
176
     1
 76
     1
176
     1
 77
     6
176
     1
 78
     2
176
     1
 67
     7
176
     1
 79
     5
176
     1
170
     0
176
     1
171
     0
176
     1
290
     0
176
     1
 93
        1
176
     1
 44
0.0
176
     1
173
     0
176
     1
  0
VISUALSTYLE
  5
1E4
102
{ACAD_REACTORS
330
EF
102
}
330
EF
100
AcDbVisualStyle
  2
JitterOff
 70
    20
177
     2
291
     1
 71
     2
176
     0
 72
     2
176
     0
 73
     0
176
     0
 90
        0
176
     0
 40
0.6
176
     0
 41
30.0
176
     0
 63
     7
421
 16777215
176
     0
 74
     1
176
     0
 91
        4
176
     0
 64
     7
176
     0
 65
   257
176
     0
 75
     1
176
     0
175
     1
176
     0
 42
1.0
176
     0
 92
       10
176
     2
 66
     7
176
     0
 43
1.0
176
     0
 76
     1
176
     0
 77
     6
176
     0
 78
     2
176
     0
 67
     7
176
     0
 79
     5
176
     0
170
     0
176
     0
171
     0
176
     0
290
     0
176
     0
 93
        1
176
     0
 44
0.0
176
     0
173
     0
176
     0
  0
VISUALSTYLE
  5
FD
102
{ACAD_REACTORS
330
EF
102
}
330
EF
100
AcDbVisualStyle
  2
Linepattern
 70
    14
177
     2
291
     1
 71
     2
176
     1
 72
     2
176
     1
 73
     1
176
     1
 90
        0
176
     1
 40
0.6
176
     1
 41
30.0
176
     1
 63
     7
421
 16777215
176
     1
 74
     1
176
     1
 91
        4
176
     1
 64
     7
176
     1
 65
   257
176
     1
 75
     7
176
     1
175
     7
176
     1
 42
1.0
176
     1
 92
        8
176
     1
 66
     7
176
     1
 43
1.0
176
     1
 76
     1
176
     1
 77
     6
176
     1
 78
     2
176
     1
 67
     7
176
     1
 79
     5
176
     1
170
     0
176
     1
171
     0
176
     1
290
     0
176
     1
 93
        1
176
     1
 44
0.0
176
     1
173
     0
176
     1
  0
VISUALSTYLE
  5
1E5
102
{ACAD_REACTORS
330
EF
102
}
330
EF
100
AcDbVisualStyle
  2
OverhangOff
 70
    21
177
     2
291
     1
 71
     2
176
     0
 72
     2
176
     0
 73
     0
176
     0
 90
        0
176
     0
 40
0.6
176
     0
 41
30.0
176
     0
 63
     7
421
 16777215
176
     0
 74
     1
176
     0
 91
        4
176
     0
 64
     7
176
     0
 65
   257
176
     0
 75
     1
176
     0
175
     1
176
     0
 42
1.0
176
     0
 92
        9
176
     2
 66
     7
176
     0
 43
1.0
176
     0
 76
     1
176
     0
 77
     6
176
     0
 78
     2
176
     0
 67
     7
176
     0
 79
     5
176
     0
170
     0
176
     0
171
     0
176
     0
290
     0
176
     0
 93
        1
176
     0
 44
0.0
176
     0
173
     0
176
     0
  0
VISUALSTYLE
  5
F9
102
{ACAD_REACTORS
330
EF
102
}
330
EF
100
AcDbVisualStyle
  2
Realistic
 70
     8
177
     2
291
     0
 71
     2
176
     1
 72
     2
176
     1
 73
     1
176
     1
 90
        0
176
     1
 40
0.6
176
     1
 41
30.0
176
     1
 63
     7
421
 16777215
176
     1
 74
     1
176
     1
 91
        0
176
     1
 64
     7
176
     1
 65
   257
176
     1
 75
     1
176
     1
175
     1
176
     1
 42
1.0
176
     1
 92
        8
176
     1
 66
     8
424
  7895160
176
     1
 43
1.0
176
     1
 76
     1
176
     1
 77
     6
176
     1
 78
     2
176
     1
 67
     7
176
     1
 79
     5
176
     1
170
     0
176
     1
171
     0
176
     1
290
     0
176
     1
 93
       13
176
     1
 44
0.0
176
     1
173
     0
176
     1
  0
VISUALSTYLE
  5
FC
102
{ACAD_REACTORS
330
EF
102
}
330
EF
100
AcDbVisualStyle
  2
Thicken
 70
    13
177
     2
291
     1
 71
     2
176
     1
 72
     2
176
     1
 73
     1
176
     1
 90
        0
176
     1
 40
0.6
176
     1
 41
30.0
176
     1
 63
     7
421
 16777215
176
     1
 74
     1
176
     1
 91
        4
176
     1
 64
     7
176
     1
 65
   257
176
     1
 75
     1
176
     1
175
     1
176
     1
 42
1.0
176
     1
 92
       12
176
     1
 66
     7
176
     1
 43
1.0
176
     1
 76
     1
176
     1
 77
     6
176
     1
 78
     2
176
     1
 67
     7
176
     1
 79
     5
176
     1
170
     0
176
     1
171
     0
176
     1
290
     0
176
     1
 93
        1
176
     1
 44
0.0
176
     1
173
     0
176
     1
  0
DICTIONARYVAR
  5
146
102
{ACAD_REACTORS
330
5E
102
}
330
5E
100
DictionaryVariables
280
     0
  1
1:1
  0
DICTIONARYVAR
  5
145
102
{ACAD_REACTORS
330
5E
102
}
330
5E
100
DictionaryVariables
280
     0
  1
STANDARD
  0
DICTIONARYVAR
  5
84
102
{ACAD_REACTORS
330
5E
102
}
330
5E
100
DictionaryVariables
280
     0
  1
STANDARD
  0
DICTIONARYVAR
  5
5F
102
{ACAD_REACTORS
330
5E
102
}
330
5E
100
DictionaryVariables
280
     0
  1
2
  0
DICTIONARYVAR
  5
63
102
{ACAD_REACTORS
330
5E
102
}
330
5E
100
DictionaryVariables
280
     0
  1
1
  0
DICTIONARYVAR
  5
1AE
102
{ACAD_REACTORS
330
5E
102
}
330
5E
100
DictionaryVariables
280
     0
  1
0
  0
DICTIONARYVAR
  5
1AF
102
{ACAD_REACTORS
330
5E
102
}
330
5E
100
DictionaryVariables
280
     0
  1
0
  0
DICTIONARY
  5
2EB
330
22
100
AcDbDictionary
280
     1
281
     1
  3
ADSK_XREC_LAYOUTTHUMBNAIL
360
2EC
  0
DICTIONARY
  5
173
330
EE
100
AcDbDictionary
280
     1
281
     1
  3
BUMPTILE
360
175
  3
DIFFUSETILE
360
174
  3
OPACITYTILE
360
176
  3
REFLECTIONTILE
360
177
  0
DICTIONARY
  5
162
330
7F
100
AcDbDictionary
280
     1
281
     1
  3
ACAD_ROUNDTRIP_2008_TABLESTYLE_CELLSTYLEMAP
360
B7E
  0
XRECORD
  5
2EC
102
{ACAD_REACTORS
330
2EB
102
}
330
2EB
100
AcDbXrecord
280
     1
310
28000000000100007B0000000100080000000000007B0000000000000000000000010000000000000000000000000000FFFFFF000000000000000000000000000000000000000000000000000000000000000000330000006600000099000000CC000000FF00000000330000333300006633000099330000CC330000FF3300
310
0000660000336600006666000099660000CC660000FF66000000990000339900006699000099990000CC990000FF99000000CC000033CC000066CC000099CC0000CCCC0000FFCC000000FF000033FF000066FF000099FF0000CCFF0000FFFF000000003300330033006600330099003300CC003300FF003300003333003333
310
33006633330099333300CC333300FF33330000663300336633006666330099663300CC663300FF66330000993300339933006699330099993300CC993300FF99330000CC330033CC330066CC330099CC3300CCCC3300FFCC330000FF330033FF330066FF330099FF3300CCFF3300FFFF330000006600330066006600660099
310
006600CC006600FF00660000336600333366006633660099336600CC336600FF33660000666600336666006666660099666600CC666600FF66660000996600339966006699660099996600CC996600FF99660000CC660033CC660066CC660099CC6600CCCC6600FFCC660000FF660033FF660066FF660099FF6600CCFF6600
310
FFFF660000009900330099006600990099009900CC009900FF00990000339900333399006633990099339900CC339900FF33990000669900336699006666990099669900CC669900FF66990000999900339999006699990099999900CC999900FF99990000CC990033CC990066CC990099CC9900CCCC9900FFCC990000FF99
310
0033FF990066FF990099FF9900CCFF9900FFFF99000000CC003300CC006600CC009900CC00CC00CC00FF00CC000033CC003333CC006633CC009933CC00CC33CC00FF33CC000066CC003366CC006666CC009966CC00CC66CC00FF66CC000099CC003399CC006699CC009999CC00CC99CC00FF99CC0000CCCC0033CCCC0066CC
310
CC0099CCCC00CCCCCC00FFCCCC0000FFCC0033FFCC0066FFCC0099FFCC00CCFFCC00FFFFCC000000FF003300FF006600FF009900FF00CC00FF00FF00FF000033FF003333FF006633FF009933FF00CC33FF00FF33FF000066FF003366FF006666FF009966FF00CC66FF00FF66FF000099FF003399FF006699FF009999FF00CC
310
99FF00FF99FF0000CCFF0033CCFF0066CCFF0099CCFF00CCCCFF00FFCCFF0000FFFF0033FFFF0066FFFF0099FFFF00CCFFFF00FFFFFF00000000000D0D0D001A1A1A00282828003535350043434300505050005D5D5D006B6B6B00787878008686860093939300A1A1A100AEAEAE00BBBBBB00C9C9C900D6D6D600E4E4E400
310
F1F1F100FFFFFF0000000000000000000000000000000000000000000000000000000000000000000000000000000000E2E2E2E2E2E2E2E2E2E2E2E2E2E2E2E2E2E2E2E2E2E2E2E2E2E2E2E2E2E2E2E2E2E2E2E2E2E2E2E2E2E2E2E2E2E2E2E2E2E2E2E2E2E2E2E2E2E2E2E2E2E2E2E2E2E2E2E2E2E2E2E2E2E2E2E2E2E2E2
310
E2E2E2E2E2E2E2E2E2E2E2E2E2E2E2E2E2E2E2E2E2E2E2E2E2E2E2E2E2E2E2E2E2E2E2E2E2E2E2E2E2E2E2E2E2E2E2E2E2E2E2E2E2E2E2E2E2E2E2E2E2E2E2E2E2E2E2E2E2E2E2E2E2E2E2E2E2E2E2E2E2E2E2E2E2E2E2E2E2E2E2E2E2E2E2E2E2E2E2E2E2E2E2E2E2E2E2E2E2E2E2E2E2E2E2E2E2E2E2E2E2E2E2E2E2E2E2
310
E2E2E2E2E2E2E2E2E2E2E2E2E2E2E2E2E2E2E2E2E2E2E2E2E2E2E2E2E2E2E2E2E2E2E2E2E2E2E2E2E2E2E2E2E2E2E2E2E2E2E2E2E2E2E2E2E2E2E2E2E2E2E2E2E2E2E2E2E2E2E2E2E2E2E2E2E2E2E2E2E2E2E2E2E2E2E2E2E2E2E2E2E2E2E2E2E2E2E2E2E2E2E2E2E2E2E2E2E2E2E2E2E2E2E2E2E2E2E2E2E2E2E2E2E2E2E2
310
E2E2E2E2E2E2E2E2E2E2E2E2E2E2E2E2E2E2E2E2E2E2E2E2E2E2E2E2E2E2E2E2E2E2E2E2E2E2E2E2E2E2E2E2E2E2E2E2E2E2E2E2E2E2E2E2E2E2E2E2E2E2E2E2E2E2E2E2E2E2E2E2E2E2E2E2E2E2E2E2E2E2E2E2E2E2E2E2E2E2E2E2E2E2E2E2E2E2E2E2E2E2E2E2E2E2E2E2E2E2E2E2E2E2E2E2E2E2E2E2E2E2E2E2E2E2E2
310
E2E2E2E2E2E2E2E2E2E2E2E2E2E2E2E2E2E2E2E2E2E2E2E2E2E2E2E2E2E2E2E2E2E2E2E2E2E2E2E2E2E2E2E2E2E2E2E2E2E2E2E2E2E2E2E2E2E2E2E2E2E2E2E2E2E2E2E2E2E2E2E2E2E2E2E2E2E2E2E2E2E2E2E2E2E2E2E2E2E2E2E2E2E2E2E2E2E2E2E2E2E2E2E2E2E2E2E2E2E2E2E2E2E2E2E2E2E2E2E2E2E2E2E2E2E2E2
310
E2E2E2E2E2E2E2E2E2E2E2E2E2E2E2E2E2E2E2E2E2E2E2E2E2E2E2E2E2E2E2E2E2E2E2E2E2E2E2E2E2E2E2E2E2E2E2E2E2E2E2E2E2E2E2E2E2E2E2E2E2E2E2E2E2E2E2E2E2E2E2E2E2E2E2E2E2E2E2E2E2E2E2E2E2E2E2E2E2E2E2E2E2E2E2E2E2E2E2E2E2E2E2E2E2E2E2E2E2E2E2E2E2E2E2E2E2E2E2E2E2E2E2E2E2E2E2
310
E2E2E2E2E2E2E2E2E2E2E2E2E2E2E2E2E2E2E2E2E2E2E2E2E2E2E2E2E2E2E2E2E2E2E2E2E2E2E2E2E2E2E2E2E2E2E2E2E2E2E2E2E2E2E2E2E2E2E2E2E2E2E2E2E2E2E2E2E2E2E2E2E2E2E2E2E2E2E2E2E2E2E2E2E2E2E2E2E2E2E2E2E2E2E2E2E2E2E2E2E2E2E2E2E2E2E2E2E2E2E2E2E2E2E2E2E2E2E2E2E2E2E2E2E2E2E2
310
E2E2E2E2E2E2E2E2E2E2E2E2E2E2E2E2E2E2E2E2E2E2E2E2E2E2E2E2E2E2E2E2E2E2E2E2E2E2E2E2E2E2E2E2E2E2E2E2E2E2E2E2E2E2E2E2E2E2E2E2E2E2E2E2E2E2E2E2E2E2E2E2E2E2E2E2E2E2E2E2E2E2E2E2E2E2E2E2E2E2E2E2E2E2E2E2E2E2E2E2E2E2E2E2E2E2E2E2E2E2E2E2E2E2E2E2E2E2E2E2E2E2E2E2E2E2E2
310
E2E2E2E2E2E2E2E2E2E2E2E2E2E2E2E2E2E2E2E2E2E2E2E2E2E2E2E2E2E2E2E2E2E2E2E2E2E2E2E2E2E2E2E2E2E2E2E2E2E2E2E2E2E2E2E2E2E2E2E2E2E2E2E2E2E2E2E2E2E2E2E2E2E2E2E2E2E2E2E2E2E2E2E2E2E2E2E2E2E2E2E2E2E2E2E2E2E2E2E2E2E2E2E2E2E2E2E2E2E2E2E2E2E2E2E2E2E2E2E2E2E2E2E2E2E2E2
310
E2E2E2E2E2E2E2E2E2E2E2E2E2E2E2E2E2E2E2E2E2E2E2E2E2E2E2E2E2E2E2E2E2E2E2E2E2E2E2E2E2E2E2E2E2E2E2E2E2E2E2E2E2E2E2E2E2E2E2E2E2E2E2E2E2E2E2E2E2E2E2E2E2E2E2E2E2E2E2E2E2E2E2E2E2E2E2E2E2E2E2E2E2E2E2E2E2E2E2E2E2E2E2E2E2E2E2E2E2E2E2E2E2E2E2E2E2E2E2E2E2E2E2E2E2E2E2
310
E2E2E2E2E2E2E2E2E2E2E2E2E2E2E2E2E2E2E2E2E2E2E2E2E2E2E2E2E2E2E2E2E2E2E2E2E2E2E2E2E2E2E2E2E2E2E2E2E2E2E2E2E2E2E2E2E2E2E2E2E2E2E2E2E2E2E2E2E2E2E2E2E2E2E2E2E2E2E2E2E2E2E2E2E2E2E2E2E2E2E2E2E2E2E2E2E2E2E2E2E2E2E2E2E2E2E2E2E2E2E2E2E2E2E2E2E2E2E2E2E2E2E2E2E2E2E2
310
E2E2E2E2E2E2E2E2E2E2E2E2E2E2E2E2E2E2E2E2E2E2E2E2E2E2E2E2E2E2E2E2E2E2E2E2E2E2E2E2E2E2E2E2E2E2E2E2E2E2E2E2E2E2E2E2E2E2E2E2E2E2E2E2E2E2E2E2E2E2E2E2E2E2E2E2E2E2E2E2E2E2E2E2E2E2E2E2E2E2E2E2E2E2E2E2E2E2E2E2E2E2E2E2E2E2E2E2E2E2E2E2E2E2E2E2E2E2E2E2E2E2E2E2E2E2E2
310
E2E2E2E2E2E2E2E2E2E2E2E2E2E2E2E2E2E2E2E2E2E2E2E2E2E2E2E2E2E2E2E2E2E2E2E2E2E2E2E2E2E2E2E2E2E2E2E2E2E2E2E2E2E2E2E2E2E2E2E2E2E2E2E2E2E2E2E2E2E2E2E2E2E2E2E2E2E2E2E2E2E2E2E2E2E2E2E2E2E2E2E2E2E2E2E2E2E2E2E2E2E2E2E2E2E2E2E2E2E2E2E2E2E2E2E2E2E2E2E2E2E2E2E2E2E2E2
310
E2E2E2E2E2E2E2E2E2E2E2E2E2E2E2E2E2E2E2E2E2E2E2E2E2E2E2E2E2E2E2E2E2E2E2E2E2E2E2E2E2E2E2E2E2E2E2E2E2E2E2E2E2E2E2E2E2E2E2E2E2E2E2E2E2E2E2E2E2E2E2E2E2E2E2E2E2E2E2E2E2E2E2E2E2E2E2E2E2E2E2E2E2E2E2E2E2E2E2E2E2E2E2E2E2E2E2E2E2E2E2E2E2E2E2E2E2E2E2E2E2E2E2E2E2E2E2
310
E2E2E2E2E2E2E2E2E2E2E2E2E2E2E2E2E2E2E2E2E2E2E2E2E2E2E2E2E2E2E2E2E2E2E2E2E2E2E2E2E2E2E2E2E2E2E2E2E2E2E2E2E2E2E2E2E2E2E2E2E2E2E2E2E2E2E2E2E2E2E2E2E2E2E2E2E2E2E2E2E2E2E2E2E2E2E2E2E2E2E2E2E2E2E2E2E2E2E2E2E2E2E2E2E2E2E2E2E2E2E2E2E2E2E2E2E2E2E2E2E2E2E2E2E2E2E2
310
E2E2E2E2E2E2E2E2E2E2E2E2E2E2E2E2E2E2E2E2E2E2E2E2E2E2E2E2E2E2E2E2E2E2E2E2E2E2E2E2E2E2E2E2E2E2E2E2E2E2E2E2E2E2E2E2E2E2E2E2E2E2E2E2E2E2E2E2E2E2E2E2E2E2E2E2E2E2E2E2E2E2E2E2E2E2E2E2E2E2E2E2E2E2E2E2E2E2E2E2E2E2E2E2E2E2E2E2E2E2E2E2E2E2E2E2E2E2E2E2E2E2E2E2E2E2E2
310
E2E2E2E2E2E2E2E2E2E2E2E2E2E2E2E2E2E2E2E2E2E2E2E2E2E2E2E2E2E2E2E2E2E2E2E2E2E2E2E2E2E2E2E2E2E2E2E2E2E2E2E2E2E2E2E2E2E2E2E2E2E2E2E2E2E2E2E2E2E2E2E2E2E2E2E2E2E2E2E2E2E2E2E2E2E2E2E2E2E2E2E2E2E2E2E2E2E2E2E2E2E2E2E2E2E2E2E2E2E2E2E2E2E2E2E2E2E2E2E2E2E2E2E2E2E2E2
310
E2E2E2E2E2E2E2E2E2E2E2E2E2E2E2E2E2E2E2E2E2E2E2E2E2E2E2E2E2E2E2E2E2E2E2E2E2E2E2E2E2E2E2E2E2E2E2E2E2E2E2E2E2E2E2E2E2E2E2E2E2E2E2E2E2E2E2E2E2E2E2E2E2E2E2E2E2E2E2E2E2E2E2E2E2E2E2E2E2E2E2E2E2E2E2E2E2E2E2E2E2E2E2E2E2E2E2E2E2E2E2E2E2E2E2E2E2E2E2E2E2E2E2E2E2E2E2
310
E2E2E2E2E2E2E2E2E2E2E2E2E2E2E2E2E2E2E2E2E2E2E2E2E2E2E2E2E2E2E2E2E2E2E2E2E2E2E2E2E2E2E2E2E2E2E2E2E2E2E2E2E2E2E2E2E2E2E2E2E2E2E2E2E2E2E2E2E2E2E2E2E2E2E2E2E2E2E2E2E2E2E2E2E2E2E2E2E2E2E2E2E2E2E2E2E2E2E2E2E2E2E2E2E2E2E2E2E2E2E2E2E2E2E2E2E2E2E2E2E2E2E2E2E2E2E2
310
E2E2E2E2E2E2E2E2E2E2E2E2E2E2E2E2E2E2E2E2E2E2E2E2E2E2E2E2E2E2E2E2E2E2E2E2E2E2E2E2E2E2E2E2E2E2E2E2E2E2E2E2E2E2E2E2E2E2E2E2E2E2E2E2E2E2E2E2E2E2E2E2E2E2E2E2E2E2E2E2E2E2E2E2E2E2E2E2E2E2E2E2E2E2E2E2E2E2E2E2E2E2E2E2E2E2E2E2E2E2E2E2E2E2E2E2E2E2E2E2E2E2E2E2E2E2E2
310
E2E2E2E2E2E2E2E2E2E2E2E2E2E2E2E2E2E2E2E2E2E2E2E2E2E2E2E2E2E2E2E2E2E2E2E2E2E2E2E2E2E2E2E2E2E2E2E2E2E2E2E2E2E2E2E2E2E2E2E2E2E2E2E2E2E2E2E2E2E2E2E2E2E2E2E2E2E2E2E2E2E2E2E2E2E2E2E2E2E2E2E2E2E2E2E2E2E2E2E2E2E2E2E2E2E2E2E2E2E2E2E2E2E2E2E2E2E2E2E2E2E2E2E2E2E2E2
310
E2E2E2E2E2E2E2E2E2E2E2E2E2E2E2E2E2E2E2E2E2E2E2E2E2E2E2E2E2E2E2E2E2E2E2E2E2E2E2E2E2E2E2E2E2E2E2E2E2E2E2E2E2E2E2E2E2E2E2E2E2E2E2E2E2E2E2E2E2E2E2E2E2E2E2E2E2E2E2E2E2E2E2E2E2E2E2E2E2E2E2E2E2E2E2E2E2E2E2E2E2E2E2E2E2E2E2E2E2E2E2E2E2E2E2E2E2E2E2E2E2E2E2E2E2E2E2
310
E2E2E2E2E2E2E2E2E2E2E2E2E2E2E2E2E2E2E2E2E2E2E2E2E2E2E2E2E2E2E2E2E2E2E2E2E2E2E2E2E2E2E2E2E2E2E2E2E2E2E2E2E2E2E2E2E2E2E2E2E2E2E2E2E2E2E2E2E2E2E2E2E2E2E2E2E2E2E2E2E2E2E2E2E2E2E2E2E2E2E2E2E2E2E2E2E2E2E2E2E2E2E2E2E2E2E2E2E2E2E2E2E2E2E2E2E2E2E2E2E2E2E2E2E2E2E2
310
E2E2E2E2E2E2E2E2E2E2E2E2E2E2E2E2E2E2E2E2E2E2E2E2E2E2E2E2E2E2E2E2E2E2E2E2E2E2E2E2E2E2E2E2E2E2E2E2E2E2E2E2E2E2E2E2E2E2E2E2E2E2E2E2E2E2E2E2E2E2E2E2E2E2E2E2E2E2E2E2E2E2E2E2E2E2E2E2E2E2E2E2E2E2E2E2E2E2E2E2E2E2E2E2E2E2E2E2E2E2E2E2E2E2E2E2E2E2E2E2E2E2E2E2E2E2E2
310
E2E2E2E2E2E2E2E2E2E2E2E2E2E2E2E2E2E2E2E2E2E2E2E2E2E2E2E2E2E2E2E2E2E2E2E2E2E2E2E2E2E2E2E2E2E2E2E2E2E2E2E2E2E2E2E2E2E2E2E2E2E2E2E2E2E2E2E2E2E2E2E2E2E2E2E2E2E2E2E2E2E2E2E2E2E2E2E2E2E2E2E2E2E2E2E2E2E2E2E2E2E2E2E2E2E2E2E2E2E2E2E2E2E2E2E2E2E2E2E2E2E2E2E2E2E2E2
310
E2E2E2E2E2E2E2E2E2E2E2E2E2E2E2E2E2E2E2E2E2E2E2E2E2E2E2E2E2E2E2E2E2E2E2E2E2E2E2E2E2E2E2E2E2E2E2E2E2E2E2E2E2E2E2E2E2E2E2E2E2E2E2E2E2E2E2E2E2E2E2E2E2E2E2E2E2E2E2E2E2E2E2E2E2E2E2E2E2E2E2E2E2E2E2E2E2E2E2E2E2E2E2E2E2E2E2E2E2E2E2E2E2E2E2E2E2E2E2E2E2E2E2E2E2E2E2
310
E2E2E2E2E2E2E2E2E2E2E2E2E2E2E2E2E2E2E2E2E2E2E2E2E2E2E2E2E2E2E2E2E2E2E2E2E2E2E2E2E2E2E2E2E2E2E2E2E2E2E2E2E2E2E2E2E2E2E2E2E2E2E2E2E2E2E2E2E2E2E2E2E2E2E2E2E2E2E2E2E2E2E2E2E2E2E2E2E2E2E2E2E2E2E2E2E2E2E2E2E2E2E2E2E2E2E2E2E2E2E2E2E2E2E2E2E2E2E2E2E2E2E2E2E2E2E2
310
E2E2E2E2E2E2E2E2E2E2E2E2E2E2E2E2E2E2E2E2E2E2E2E2E2E2E2E2E2E2E2E2E2E2E2E2E2E2E2E2E2E2E2E2E2E2E2E2E2E2E2E2E2E2E2E2E2E2E2E2E2E2E2E2E2E2E2E2E2E2E2E2E2E2E2E2E2E2E2E2E2E2E2E2E2E2E2E2E2E2E2E2E2E2E2E2E2E2E2E2E2E2E2E2E2E2E2E2E2E2E2E2E2E2E2E2E2E2E2E2E2E2E2E2E2E2E2
310
E2E2E2E2E2E2E2E2E2E2E2E2E2E2E2E2E2E2E2E2E2E2E2E2E2E2E2E2E2E2E2E2E2E2E2E2E2E2E2E2E2E2E2E2E2E2E2E2E2E2E2E2E2E2E2E2E2E2E2E2E2E2E2E2E2E2E2E2E2E2E2E2E2E2E2E2E2E2E2E2E2E2E2E2E2E2E2E2E2E2E2E2E2E2E2E2E2E2E2E2E2E2E2E2E2E2E2E2E2E2E2E2E2E2E2E2E2E2E2E2E2E2E2E2E2E2E2
310
E2E2E2E2E2E2E2E2E2E2E2E2E2E2E2E2E2E2E2E2E2E2E2E2E2E2E2E2E2E2E2E2E2E2E2E2E2E2E2E2E2E2E2E2E2E2E2E2E2E2E2E2E2E2E2E2E2E2E2E2E2E2E2E2E2E2E2E2E2E2E2E2E2E2E2E2E2E2E2E2E2E2E2E2E2E2E2E2E2E2E2E2E2E2E2E2E2E2E2E2E2E2E2E2E2E2E2E2E2E2E2E2E2E2E2E2E2E2E2E2E2E2E2E2E2E2E2
310
E2E2E2E2E2E2E2E2E2E2E2E2E2E2E2E2E2E2E2E2E2E2E2E2E2E2E2E2E2E2E2E2E2E2E2E2E2E2E2E2E2E2E2E2E2E2E2E2E2E2E2E2E2E2E2E2E2E2E2E2E2E2E2E2E2E2E2E2E2E2E2E2E2E2E2E2E2E2E2E2E2E2E2E2E2E2E2E2E2E2E2E2E2E2E2E2E2E2E2E2E2E2E2E2E2E2E2E2E2E2E2E2E2E2E2E2E2E2E2E2E2E2E2E2E2E2E2
310
E2E2E2E2E2E2E2E2E2E2E2E2E2E2E2E2E2E2E2E2E2E2E2E2E2E2E2E2E2E2E2E2E2E2E2E2E2E2E2E2E2E2E2E2E2E2E2E2E2E2E2E2E2E2E2E2E2E2E2E2E2E2E2E2E2E2E2E2E2E2E2E2E2E2E2E2E2E2E2E2E2E2E2E2E2E2E2E2E2E2E2E2E2E2E2E2E2E2E2E2E2E2E2E2E2E2E2E2E2E2E2E2E2E2E2E2E2E2E2E2E2E2E2E2E2E2E2
310
E2E2E2E2E2E2E2E2E2E2E2E2E2E2E2E2E2E2E2E2E2E2E2E2E2E2E2E2E2E2E2E2E2E2E2E2E2E2E2E2E2E2E2E2E2E2E2E2E2E2E2E2E2E2E2E2E2E2E2E2E2E2E2E2E2E2E2E2E2E2E2E2E2E2E2E2E2E2E2E2E2E2E2E2E2E2E2E2E2E2E2E2E2E2E2E2E2E2E2E2E2E2E2E2E2E2E2E2E2E2E2E2E2E2E2E2E2E2E2E2E2E2E2E2E2E2E2
310
E2E2E2E2E2E2E2E2E2E2E2E2E2E2E2E2E2E2E2E2E2E2E2E2E2E2E2E2E2E2E2E2E2E2E2E2E2E2E2E2E2E2E2E2E2E2E2E2E2E2E2E2E2E2E2E2E2E2E2E2E2E2E2E2E2E2E2E2E2E2E2E2E2E2E2E2E2E2E2E2E2E2E2E2E2E2E2E2E2E2E2E2E2E2E2E2E2E2E2E2E2E2E2E2E2E2E2E2E2E2E2E2E2E2E2E2E2E2E2E2E2E2E2E2E2E2E2
310
E2E2E2E2E2E2E2E2E2E2E2E2E2E2E2E2E2E2E2E2E2E2E2E2E2E2E2E2E2E2E2E2E2E2E2E2E2E2E2E2E2E2E2E2E2E2E2E2E2E2E2E2E2E2E2E2E2E2E2E2E2E2E2E2E2E2E2E2E2E2E2E2E2E2E2E2E2E2E2E2E2E2E2E2E2E2E2E2E2E2E2E2E2E2E2E2E2E2E2E2E2E2E2E2E2E2E2E2E2E2E2E2E2E2E2E2E2E2E2E2E2E2E2E2E2E2E2
310
E2E2E2E2E2E2E2E2E2E2E2E2E2E2E2E2E2E2E2E2E2E2E2E2E2E2E2E2E2E2E2E2E2E2E2E2E2E2E2E2E2E2E2E2E2E2E2E2E2E2E2E2E2E2E2E2E2E2E2E2E2E2E2E2E2E2E2E2E2E2E2E2E2E2E2E2E2E2E2E2E2E2E2E2E2E2E2E2E2E2E2E2E2E2E2E2E2E2E2E2E2E2E2E2E2E2E2E2E2E2E2E2E2E2E2E2E2E2E2E2E2E2E2E2E2E2E2
310
E2E2E2E2E2E2E2E2E2E2E2E2E2E2E2E2E2E2E2E2E2E2E2E2E2E2E2E2E2E2E2E2E2E2E2E2E2E2E2E2E2E2E2E2E2E2E2E2E2E2E2E2E2E2E2E2E2E2E2E2E2E2E2E2E2E2E2E2E2E2E2E2E2E2E2E2E2E2E2E2E2E2E2E2E2E2E2E2E2E2E2E2E2E2E2E2E2E2E2E2E2E2E2E2E2E2E2E2E2E2E2E2E2E2E2E2E2E2E2E2E2E2E2E2E2E2E2
310
E2E2E2E2E2E2E2E2E2E2E2E2E2E2E2E2E2E2E2E2E2E2E2E2E2E2E2E2E2E2E2E2E2E2E2E2E2E2E2E2E2E2E2E2E2E2E2E2E2E2E2E2E2E2E2E2E2E2E2E2E2E2E2E2E2E2E2E2E2E2E2E2E2E2E2E2E2E2E2E2E2E2E2E2E2E2E2E2E2E2E2E2E2E2E2E2E2E2E2E2E2E2E2E2E2E2E2E2E2E2E2E2E2E2E2E2E2E2E2E2E2E2E2E2E2E2E2
310
E2E2E2E2E2E2E2E2E2E2E2E2E2E2E2E2E2E2E2E2E2E2E2E2E2E2E2E2E2E2E2E2E2E2E2E2E2E2E2E2E2E2E2E2E2E2E2E2E2E2E2E2E2E2E2E2E2E2E2E2E2E2E2E2E2E2E2E2E2E2E2E2E2E2E2E2E2E2E2E2E2E2E2E2E2E2E2E2E2E2E2E2E2E2E2E2E2E2E2E2E2E2E2E2E2E2E2E2E2E2E2E2E2E2E2E2E2E2E2E2E2E2E2E2E2E2E2
310
E2E2E2E2E2E2E2E2E2E2E2E2E2E2E2E2E2E2E2E2E2E2E2E2E2E2E2E2E2E2E2E2E2E2E2E2E2E2E2E2E2E2E2E2E2E2E2E2E2E2E2E2E2E2E2E2E2E2E2E2E2E2E2E2E2E2E2E2E2E2E2E2E2E2E2E2E2E2E2E2E2E2E2E2E2E2E2E2E2E2E2E2E2E2E2E2E2E2E2E2E2E2E2E2E2E2E2E2E2E2E2E2E2E2E2E2E2E2E2E2E2E2E2E2E2E2E2
310
E2E2E2E2E2E2E2E2E2E2E2E2E2E2E2E2E2E2E2E2E2E2E2E2E2E2E2E2E2E2E2E2E2E2E2E2E2E2E2E2E2E2E2E2E2E2E2E2E2E2E2E2E2E2E2E2E2E2E2E2E2E2E2E2E2E2E2E2E2E2E2E2E2E2E2E2E2E2E2E2E2E2E2E2E2E2E2E2E2E2E2E2E2E2E2E2E2E2E2E2E2E2E2E2E2E2E2E2E2E2E2E2E2E2E2E2E2E2E2E2E2E2E2E2E2E2E2
310
E2E2E2E2E2E2E2E2E2E2E2E2E2E2E2E2E2E2E2E2E2E2E2E2E2E2E2E2E2E2E2E2E2E2E2E2E2E2E2E2E2E2E2E2E2E2E2E2E2E2E2E2E2E2E2E2E2E2E2E2E2E2E2E2E2E2E2E2E2E2E2E2E2E2E2E2E2E2E2E2E2E2E2E2E2E2E2E2E2E2E2E2E2E2E2E2E2E2E2E2E2E2E2E2E2E2E2E2E2E2E2E2E2E2E2E2E2E2E2E2E2E2E2E2E2E2E2
310
E2E2E2E2E2E2E2E2E2E2E2E2E2E2E2E2E2E2E2E2E2E2E2E2E2E2E2E2E2E2E2E2E2E2E2E2E2E2E2E2E2E2E2E2E2E2E2E2E2E2E2E2E2E2E2E2E2E2E2E2E2E2E2E2E2E2E2E2E2E2E2E2E2E2E2E2E2E2E2E2E2E2E2E2E2E2E2E2E2E2E2E2E2E2E2E2E2E2E2E2E2E2E2E2E2E2E2E2E2E2E2E2E2E2E2E2E2E2E2E2E2E2E2E2E2E2E2
310
E2E2E2E2E2E2E2E2E2E2E2E2E2E2E2E2E2E2E2E2E2E2E2E2E2E2E2E2E2E2E2E2E2E2E2E2E2E2E2E2E2E2E2E2E2E2E2E2E2E2E2E2E2E2E2E2E2E2E2E2E2E2E2E2E2E2E2F5F5F5F5F5F5F5F5F5F5F5E2E2F5F5F5F5F5F5F5F5F5F5F5E2E2E2E2E2E2E2E2E2E2E2E2E2E2E2E2E2E2E2E2E2E2E2E2E2E2E2E2E2E2E2E2E2E2E2E2
310
E2E2E2E2E2E2E2E2E2E2E2E2E2E2E2E2E2E2E2E2E2E2E2E2E2E2E2E2E2E2E2E2E2E2E2E2E2E2E2E2E2E2E2E2E2E2E2E2E2E2E2E2E2E2E2E2E2E2E2E2E2E2E2E2E2E2E2E2E2E2E2E2E2E2E2E2E2E2E2E2E2E2E2E2E2E2E2E2E2E2E2E2E2E2E2E2E2E2E2E2E2E2E2E2E2E2E2E2E2E2E2E2E2E2E2E2E2E2E2E2E2E2E2E2E2E2E2
310
E2E2E2E2E2E2E2E2E2E2E2E2E2E2E2E2E2E2E2E2E2E2E2E2E2E2E2E2E2E2E2E2E2E2E2E2E2E2E2E2E2E2E2E2E2E2E2E2E2E2E2E2E2E2E2E2E2E2E2E2E2E2E2E2F5F5F5F5F5E2F5F5F5F5F5F5F5F5F5F5F5F5F5E2E2E2E2E2E2E2E2E2E2F5F5F5F5F5F5F5F5F5F5F5F5E2E2E2E2E2E2E2E2E2E2E2E2E2E2E2E2E2E2E2E2E2E2
310
E2E2E2E2E2E2E2E2E2E2E2E2E2E2E2E2E2E2E2E2E2E2E2E2E2E2E2E2E2E2E2E2E2E2E2E2E2E2E2E2E2E2E2E2E2E2E2E2E2E2E2E2E2E2E2E2E2E2E2E2E2E2E2E2E2E2E2E2E2E2E2E2E2E2E2E2E2E2E2E2E2E2E2E2E2E2E2E2E2E2E2E2E2E2E2E2E2E2E2E2E2E2E2E2E2E2E2E2E2E2E2E2E2E2E2E2E2E2E2E2E2E2E2E2E2E2E2
310
E2E2E2E2E2E2E2E2E2E2E2E2E2E2E2E2E2E2E2E2E2E2E2E2E2E2E2E2E2E2E2E2E2E2E2E2E2E2E2E2E2E2E2E2E2E2E2E2E2E2E2E2E2E2E2E2E2E2E2E2E2E2E2E2F5F5F5F5F5F5F5F5E2E2E2E2E2E2E2E2E2E2E2E2F5E2E2E2E2E2E2E2E2E2E2E2F5F5F5F5F5F5F5F5F5F5F5E2E2E2E2E2E2E2E2E2E2E2E2E2E2E2E2E2E2E2E2
310
E2E2E2E2E2E2E2E2E2E2E2E2E2E2E2E2E2E2E2E2E2E2E2E2E2E2E2E2E2E2E2E2E2E2E2E2E2E2E2E2E2E2E2E2E2E2E2E2E2E2E2E2E2E2E2E2E2E2E2E2E2E2E2E2E2E2E2E2E2E2E2E2E2E2E2E2E2E2E2E2E2E2E2E2E2E2E2E2E2E2E2E2E2E2E2E2E2E2E2E2E2E2E2E2E2E2E2E2E2E2E2E2E2E2E2E2E2E2E2E2E2E2E2E2E2E2E2
310
E2E2E2E2E2E2E2E2E2E2E2E2E2E2E2E2E2E2E2E2E2E2E2E2E2E2E2E2E2E2E2E2E2E2E2E2E2E2E2E2E2E2E2E2E2E2E2E2E2E2E2E2E2E2E2E2E2E2E2E2E2E2E2E2E2E2E2E2E2E2E2E2E2E2E2E2E2E2E2E2E2E2E2E2E2E2F5F5F5F5F5F5F5F5F5F5F5F5F5F5F5F5F5E2E2E2E2E2F5E2E2E2E2E2E2E2E2E2E2E2E2E2E2E2E2E2E2
310
E2E2E2E2E2E2E2E2E2E2E2E2E2E2E2E2E2E2E2E2E2E2E2E2E2E2E2E2E2E2E2E2E2E2E2E2E2E2E2E2E2E2E2E2E2E2E2E2E2E2E2E2E2E2E2E2E2E2E2E2E2E2E2E2E2E2E2E2E2E2E2E2E2E2E2E2E2E2E2E2E2E2E2E2E2E2E2E2E2E2E2E2E2E2E2E2E2E2E2E2E2E2E2E2E2E2E2E2E2E2E2E2E2E2E2E2E2E2E2E2E2E2E2E2E2E2E2
310
E2E2E2E2E2E2E2E2E2E2E2E2E2E2E2E2E2E2E2E2E2E2E2E2E2E2E2E2E2E2E2E2E2E2E2E2E2E2E2E2E2E2E2E2E2E2E2E2E2E2E2E2E2E2E2E2E2E2E2E2E2E2E2E2E2E2E2E2E2E2E2E2E2E2E2E2E2E2E2E2E2E2E2E2E2E2E2E2E2E2E2E2E2E2E2E2E2E2E2E2F5E2E2E2E2E2E2E2E2E2F5E2E2E2E2E2E2E2E2E2E2E2E2E2E2E2E2
310
E2E2E2E2E2E2E2E2E2E2E2E2E2E2E2E2E2E2E2E2E2E2E2E2E2E2E2E2E2E2E2E2E2E2E2E2E2E2E2E2E2E2E2E2E2E2E2E2E2E2E2E2E2E2E2E2E2E2E2E2E2E2E2E2E2E2E2E2E2E2E2E2E2E2E2E2E2E2E2E2E2E2E2E2E2E2E2E2E2E2E2E2E2E2E2E2E2E2E2E2E2E2E2E2E2E2E2E2E2E2E2E2E2E2E2E2E2E2E2E2E2E2E2E2E2E2E2
310
E2E2E2E2E2E2E2E2E2E2E2E2E2E2E2E2E2E2E2E2E2E2E2E2E2E2E2E2E2E2E2E2E2E2E2E2E2E2E2E2E2E2E2E2E2E2E2E2E2E2E2E2E2E2E2E2E2E2E2E2E2E2E2E2E2E2E2E2E2E2E2F5F5F5F5F5F5F5F5F5F5F5F5F5F5F5F5F5F5F5F5F5F5F5F5F5F5F5F5F5F5E2F5F5F5F5F5E2E2E2E2E2F5E2E2E2E2E2E2E2E2E2E2E2E2E2E2
310
E2E2E2E2E2E2E2E2E2E2E2E2E2E2E2E2E2E2E2E2E2E2E2E2E2E2E2E2E2E2E2E2E2E2E2E2E2E2E2E2E2E2E2E2E2E2E2E2E2E2E2E2E2E2E2E2E2E2E2E2E2E2E2E2E2E2E2E2E2E2E2E2E2E2E2E2E2E2E2E2E2E2E2E2E2E2E2E2E2E2E2E2E2E2E2E2E2E2E2E2E2E2E2E2E2E2E2E2E2E2E2E2E2E2E2E2E2E2E2E2E2E2E2E2E2E2E2
310
E2E2E2E2E2E2E2E2E2E2E2E2E2E2E2E2E2E2E2E2E2E2E2E2E2E2E2E2E2E2E2E2E2E2E2E2E2E2E2E2E2E2E2E2E2E2E2E2E2E2E2E2E2E2E2E2E2E2E2E2E2E2E2E2E2E2E2E2E2E2E2E2E2F5E2E2E2E2E2E2E2E2E2E2E2E2E2E2E2E2E2E2E2E2E2E2E2E2E2E2E2E2E2F5F5F5F5F5F5F5F5F5F5F5F5E2E2E2E2E2E2E2E2E2E2E2E2
310
E2E2E2E2E2E2E2E2E2E2E2E2E2E2E2E2E2E2E2E2E2E2E2E2E2E2E2E2E2E2E2E2E2E2E2E2E2E2E2E2E2E2E2E2E2E2E2E2E2E2E2E2E2E2E2E2E2E2E2E2E2E2E2E2E2E2E2E2E2E2E2E2E2E2E2E2E2E2E2E2E2E2E2E2E2E2E2E2E2E2E2E2E2E2E2E2E2E2E2E2E2E2E2E2E2E2E2E2E2E2E2E2E2E2E2E2E2E2E2E2E2E2E2E2E2E2E2
310
E2E2E2E2E2E2E2E2E2E2E2E2E2E2E2E2E2E2E2E2E2E2E2E2E2E2E2E2E2E2E2E2E2E2E2E2E2E2E2E2E2E2E2E2E2E2E2E2E2E2E2E2E2E2E2E2E2E2E2E2E2E2E2E2E2E2E2E2E2E2E2E2E2E2E2F5F5F5F5F5E2E2E2E2E2E2E2E2E2E2E2E2E2E2E2E2E2E2E2E2E2E2E2E2E2E2F5F5F5F5F5F5F5F5F5F5F5E2E2E2E2E2E2E2E2E2E2
310
E2E2E2E2E2E2E2E2E2E2E2E2E2E2E2E2E2E2E2E2E2E2E2E2E2E2E2E2E2E2E2E2E2E2E2E2E2E2E2E2E2E2E2E2E2E2E2E2E2E2E2E2E2E2E2E2E2E2E2E2E2E2E2E2E2E2E2E2E2E2E2E2E2E2E2E2E2E2E2E2E2E2E2E2E2E2E2E2E2E2E2E2E2E2E2E2E2E2E2E2E2E2E2E2E2E2E2E2E2E2E2E2E2E2E2E2E2E2E2E2E2E2E2E2E2E2E2
310
E2E2E2E2E2E2E2E2E2E2E2E2E2E2E2E2E2E2E2E2E2E2E2E2E2E2E2E2E2E2E2E2E2E2E2E2E2E2E2E2E2E2E2E2E2E2E2E2E2E2E2E2E2E2E2E2E2E2E2E2E2E2E2E2E2E2E2E2E2E2E2E2E2E2E2E2E2E2E2E2E2E2F5F5F5F5F5F5F5F5F5F5F5F5F5F5F5F5F5F5F5F5F5F5F5F5F5F5E2E2E2E2E2E2E2E2E2E2E2E2E2E2E2E2E2E2E2
310
E2E2E2E2E2E2E2E2E2E2E2E2E2E2E2E2E2E2E2E2E2E2E2E2E2E2E2E2E2E2E2E2E2E2E2E2E2E2E2E2E2E2E2E2E2E2E2E2E2E2E2E2E2E2E2E2E2E2E2E2E2E2E2E2E2E2E2E2E2E2E2E2E2E2E2E2E2E2E2E2E2E2E2E2E2E2E2E2E2E2E2E2E2E2E2E2E2E2E2E2E2E2E2E2E2E2E2E2E2E2E2E2E2E2E2E2E2E2E2E2E2E2E2E2E2E2E2
310
E2E2E2E2E2E2E2E2E2E2E2E2E2E2E2E2E2E2E2E2E2E2E2E2E2E2E2E2E2E2E2E2E2E2E2E2E2E2E2E2E2E2E2E2E2E2E2E2E2E2E2E2E2E2E2E2E2E2E2E2E2E2E2E2E2E2E2E2E2E2E2E2E2E2E2E2E2E2E2E2E2E2F5F5F5F5F5E2F5F5F5F5F5F5F5F5F5F5F5F5F5F5F5F5F5F5F5F5E2E2E2E2E2E2E2E2E2E2E2E2E2E2E2E2E2E2E2
310
E2E2E2E2E2E2E2E2E2E2E2E2E2E2E2E2E2E2E2E2E2E2E2E2E2E2E2E2E2E2E2E2E2E2E2E2E2E2E2E2E2E2E2E2E2E2E2E2E2E2E2E2E2E2E2E2E2E2E2E2E2E2E2E2E2E2E2E2E2E2E2E2E2E2E2E2E2E2E2E2E2E2E2E2E2E2E2E2E2E2E2E2E2E2E2E2E2E2E2E2E2E2E2E2E2E2E2E2E2E2E2E2E2E2E2E2E2E2E2E2E2E2E2E2E2E2E2
310
E2E2E2E2E2E2E2E2E2E2E2E2E2E2E2E2E2E2E2E2E2E2E2E2E2E2E2E2E2E2E2E2E2E2E2E2E2E2E2E2E2E2E2E2E2E2E2E2E2E2E2E2E2E2E2E2E2E2E2E2E2E2E2E2E2E2E2E2E2E2E2E2E2E2E2E2E2E2E2E2E2F5F5F5E2E2E2E2E2E2F5F5E2E2E2E2E2E2E2E2F5F5F5F5F5F5F5F5F5F5F5F5F5F5F5F5F5F5F5F5F5F5F5E2E2E2E2
310
E2E2E2E2E2E2E2E2E2E2E2E2E2E2E2E2E2E2E2E2E2E2E2E2E2E2E2E2E2E2E2E2E2E2E2E2E2E2E2E2E2E2E2E2E2E2E2E2E2E2E2E2E2E2E2E2E2E2E2E2E2E2E2E2E2E2E2E2E2E2E2E2E2E2E2E2E2E2E2E2E2E2E2E2E2E2E2E2E2E2E2E2E2E2E2E2E2E2E2E2E2E2E2E2E2E2E2E2E2E2E2E2E2E2E2E2E2E2E2E2E2E2E2E2E2E2E2
310
E2E2E2E2E2E2E2E2E2E2E2E2E2E2E2E2E2E2E2E2E2E2E2E2E2E2E2E2E2E2E2E2E2E2E2E2E2E2E2E2E2E2E2E2E2E2E2E2E2E2E2E2E2E2E2E2E2E2E2E2E2E2E2E2E2E2E2E2E2E2E2E2E2E2E2E2E2E2E2E2E2E2E2F5E2E2E2E2E2E2E2E2F5F5E2E2E2E2E2E2E2E2F5F5E2E2E2E2F5F5F5F5F5F5F5F5F5F5F5F5F5F5F5F5F5E2E2
310
E2E2E2E2E2E2E2E2E2E2E2E2E2E2E2E2E2E2E2E2E2E2E2E2E2E2E2E2E2E2E2E2E2E2E2E2E2E2E2E2E2E2E2E2E2E2E2E2E2E2E2E2E2E2E2E2E2E2E2E2E2E2E2E2E2E2E2E2E2E2E2E2E2E2E2E2E2E2E2E2E2E2E2E2E2E2E2E2E2E2E2E2E2E2E2E2E2E2E2E2E2E2E2E2E2E2E2E2E2E2E2E2E2E2E2E2E2E2E2E2E2E2E2E2E2E2E2
310
E2E2E2E2E2E2E2E2E2E2E2E2E2E2E2E2E2E2E2E2E2E2E2E2E2E2E2E2E2E2E2E2E2E2E2E2E2E2E2E2E2E2E2E2E2E2E2E2E2E2E2E2E2E2E2E2E2E2E2E2E2E2E2E2E2E2E2E2E2E2E2E2E2E2E2E2E2E2E2E2E2E2E2E2E2E2F5F5F5F5F5F5F5F5F5F5E2E2E2E2E2E2E2E2F5F5F5F5F5F5F5F5F5F5F5F5F5F5F5F5F5E2E2E2E2E2E2
310
E2E2E2E2E2E2E2E2E2E2E2E2E2E2E2E2E2E2E2E2E2E2E2E2E2E2E2E2E2E2E2E2E2E2E2E2E2E2E2E2E2E2E2E2E2E2E2E2E2E2E2E2E2E2E2E2E2E2E2E2E2E2E2E2E2E2E2E2E2E2E2E2E2E2E2E2E2E2E2E2E2E2E2E2E2E2E2E2E2E2E2E2E2E2E2E2E2E2E2E2E2E2E2E2E2E2E2E2E2E2E2E2E2E2E2E2E2E2E2E2E2E2E2E2E2E2E2
310
E2E2E2E2E2E2E2E2E2E2E2E2E2E2E2E2E2E2E2E2E2E2E2E2E2E2E2E2E2E2E2E2E2E2E2E2E2E2E2E2E2E2E2E2E2E2E2E2E2E2E2E2E2E2E2E2E2E2E2E2E2E2E2E2E2E2E2E2E2E2E2E2E2E2E2E2E2E2E2E2E2E2E2E2E2E2E2E2E2E2E2E2E2E2E2F5F5F5F5F5F5F5F5F5F5F5F5F5F5F5F5F5E2E2E2E2E2E2E2E2E2E2E2E2E2E2E2
310
E2E2E2E2E2E2E2E2E2E2E2E2E2E2E2E2E2E2E2E2E2E2E2E2E2E2E2E2E2E2E2E2E2E2E2E2E2E2E2E2E2E2E2E2E2E2E2E2E2E2E2E2E2E2E2E2E2E2E2E2E2E2E2E2E2E2E2E2E2E2E2E2E2E2E2E2E2E2E2E2E2E2E2E2E2E2E2E2E2E2E2E2E2E2E2E2E2E2E2E2E2E2E2E2E2E2E2E2E2E2E2E2E2E2E2E2E2E2E2E2E2E2E2E2E2E2E2
310
E2E2E2E2E2E2E2E2E2E2E2E2E2E2E2E2E2E2E2E2E2E2E2E2E2E2E2E2E2E2E2E2E2E2E2E2E2E2E2E2E2E2E2E2E2E2E2E2E2E2E2E2E2E2E2E2E2E2E2E2E2E2E2E2E2E2E2E2E2E2E2E2E2E2E2E2E2E2E2E2E2E2E2E2E2E2E2E2E2F5F5F5F5F5F5F5F5E2F5F5E2E2E2E2E2E2E2E2F5F5F5F5F5E2F5F5F5F5F5F5F5F5F5F5F5E2E2
310
E2E2E2E2E2E2E2E2E2E2E2E2E2E2E2E2E2E2E2E2E2E2E2E2E2E2E2E2E2E2E2E2E2E2E2E2E2E2E2E2E2E2E2E2E2E2E2E2E2E2E2E2E2E2E2E2E2E2E2E2E2E2E2E2E2E2E2E2E2E2E2E2E2E2E2E2E2E2E2E2E2E2E2E2E2E2E2E2E2E2E2E2E2E2E2E2E2E2E2E2E2E2E2E2E2E2E2E2E2E2E2E2E2E2E2E2E2E2E2E2E2E2E2E2E2E2E2
310
E2E2E2E2E2E2E2E2E2E2E2E2E2E2E2E2E2E2E2E2E2E2E2E2E2E2E2E2E2E2E2E2E2E2E2E2E2E2E2E2E2E2E2E2E2E2E2E2E2E2E2E2E2E2E2E2E2E2E2E2E2E2E2E2E2E2E2E2E2E2E2E2E2E2E2E2E2E2E2E2E2E2E2E2E2E2E2E2E2E2E2F5E2E2E2E2E2E2E2E2F5F5E2E2E2E2E2E2E2E2F5F5E2E2E2F5F5F5F5F5F5F5F5F5F5F5F5
310
F5F5F5F5F5F5E2E2E2E2E2E2E2E2E2E2E2E2E2E2E2E2E2E2E2E2E2E2E2E2E2E2E2E2E2E2E2E2E2E2E2E2E2E2E2E2E2E2E2E2E2E2E2E2E2E2E2E2E2E2E2E2E2E2E2E2E2E2E2E2E2E2E2E2E2E2E2E2E2E2E2E2E2E2E2E2E2E2E2E2E2E2E2E2E2E2E2E2E2E2E2E2E2E2E2E2E2E2E2E2E2E2E2E2E2E2E2E2E2E2E2E2E2E2E2E2E2
310
E2E2E2E2E2E2E2E2E2E2E2E2E2E2E2E2E2E2E2E2E2E2E2E2E2E2E2E2E2E2E2E2E2E2E2E2E2E2E2E2E2E2E2E2E2E2E2E2E2E2E2E2E2E2E2E2E2E2E2E2E2E2E2E2E2E2E2E2E2E2E2E2E2E2E2E2E2E2E2E2E2E2E2E2E2E2E2E2E2E2E2E2E2F5F5F5E2E2E2E2E2E2F5F5E2E2E2E2E2E2E2E2F5F5F5F5F5F5F5F5F5F5F5F5F5F5F5
310
F5F5F5F5F5F5F5F5E2E2E2E2F5F5E2E2E2E2E2E2E2E2E2E2E2E2E2E2E2E2E2E2E2E2E2E2E2E2E2E2E2E2E2E2E2E2E2E2E2E2E2E2E2E2E2E2E2E2E2E2E2E2E2E2E2E2E2E2E2E2E2E2E2E2E2E2E2E2E2E2E2E2E2E2E2E2E2E2E2E2E2E2E2E2E2E2E2E2E2E2E2E2E2E2E2E2E2E2E2E2E2E2E2E2E2E2E2E2E2E2E2E2E2E2E2E2E2
310
E2E2E2E2E2E2E2E2E2E2E2E2E2E2E2E2E2E2E2E2E2E2E2E2E2E2E2E2E2E2E2E2E2E2E2E2E2E2E2E2E2E2E2E2E2E2E2E2E2E2E2E2E2E2E2E2E2E2E2E2E2E2E2E2E2E2E2E2E2E2E2E2E2E2E2E2E2E2E2E2E2E2E2E2E2E2E2E2E2E2E2E2E2E2E2E2E2E2F5F5F5F5F5E2F5F5F5F5F5F5F5F5F5F5F5F5F5F5F5F5F5F5F5F5E2E2E2
310
E2E2E2E2F5F5E2E2E2E2F5F5F5F5F5F5F5F5F5E2E2E2E2E2E2E2E2E2E2E2E2E2E2E2E2E2E2E2E2E2E2E2E2E2E2E2E2E2E2E2E2E2E2E2E2E2E2E2E2E2E2E2E2E2E2E2E2E2E2E2E2E2E2E2E2E2E2E2E2E2E2E2E2E2E2E2E2E2E2E2E2E2E2E2E2E2E2E2E2E2E2E2E2E2E2E2E2E2E2E2E2E2E2E2E2E2E2E2E2E2E2E2E2E2E2E2E2
310
E2E2E2E2E2E2E2E2E2E2E2E2E2E2E2E2E2E2E2E2E2E2E2E2E2E2E2E2E2E2E2E2E2E2E2E2E2E2E2E2E2E2E2E2E2E2E2E2E2E2E2E2E2E2E2E2E2E2E2E2E2E2E2E2E2E2E2E2E2E2E2E2E2E2E2E2E2E2E2E2E2E2E2E2E2E2E2E2E2E2E2E2E2E2E2E2E2E2E2E2E2E2E2E2E2F5F5F5E2E2E2E2E2E2E2E2E2E2E2E2E2E2E2E2E2E2E2
310
E2E2F5F5F5F5F5F5F5F5F5E2E2F5E2E2E2F5E2E2F5E2E2E2E2E2E2E2E2E2E2E2E2E2E2E2E2E2E2E2E2E2E2E2E2E2E2E2E2E2E2E2E2E2E2E2E2E2E2E2E2E2E2E2E2E2E2E2E2E2E2E2E2E2E2E2E2E2E2E2E2E2E2E2E2E2E2E2E2E2E2E2E2E2E2E2E2E2E2E2E2E2E2E2E2E2E2E2E2E2E2E2E2E2E2E2E2E2E2E2E2E2E2E2E2E2E2
310
E2E2E2E2E2E2E2E2E2E2E2E2E2E2E2E2E2E2E2E2E2E2E2E2E2E2E2E2E2E2E2E2E2E2E2E2E2E2E2E2E2E2E2E2E2E2E2E2E2E2E2E2E2E2E2E2E2E2E2E2E2E2E2E2E2E2E2E2E2E2E2E2E2E2E2E2E2E2E2E2E2E2E2E2E2E2E2E2E2E2E2E2E2E2E2E2E2E2E2E2E2F5F5E2E2F5F5F5F5E2F5F5F5E2F5F5F5F5E2E2E2E2E2E2E2E2E2
310
E2E2E2E2E2F5E2E2F5F5F5E2F5E2E2E2F5E2E2E2F5E2F5E2E2E2E2E2E2E2E2E2E2E2E2E2E2E2E2E2E2E2E2E2E2E2E2E2E2E2E2E2E2E2E2E2E2E2E2E2E2E2E2E2E2E2E2E2E2E2E2E2E2E2E2E2E2E2E2E2E2E2E2E2E2E2E2E2E2E2E2E2E2E2E2E2E2E2E2E2E2E2E2E2E2E2E2E2E2E2E2E2E2E2E2E2E2E2E2E2E2E2E2E2E2E2E2
310
E2E2E2E2E2E2E2E2E2E2E2E2E2E2E2E2E2E2E2E2E2E2E2E2E2E2E2E2E2E2E2E2E2E2E2E2E2E2E2E2E2E2E2E2E2E2E2E2E2E2E2E2E2E2E2E2E2E2E2E2E2E2E2E2E2E2E2E2E2E2E2E2E2E2E2E2E2E2E2E2E2E2E2E2E2E2E2E2E2E2E2E2E2E2E2E2E2E2E2E2E2E2E2F5F5F5E2F5F5E2F5F5F5F5F5E2F5F5E2F5E2E2E2E2E2E2E2
310
E2E2E2E2E2E2E2E2F5E2E2E2F5E2F5E2E2E2E2F5E2E2F5E2F5E2E2E2E2E2E2E2E2E2E2E2E2E2E2E2E2E2E2E2E2E2E2E2E2E2E2E2E2E2E2E2E2E2E2E2E2E2E2E2E2E2E2E2E2E2E2E2E2E2E2E2E2E2E2E2E2E2E2E2E2E2E2E2E2E2E2E2E2E2E2E2E2E2E2E2E2E2E2E2E2E2E2E2E2E2E2E2E2E2E2E2E2E2E2E2E2E2E2E2E2E2E2
310
E2E2E2E2E2E2E2E2E2E2E2E2E2E2E2E2E2E2E2E2E2E2E2E2E2E2E2E2E2E2E2E2E2E2E2E2E2E2E2E2E2E2E2E2E2E2E2E2E2E2E2E2E2E2E2E2E2E2E2E2E2E2E2E2E2E2E2E2E2E2E2E2E2E2E2E2E2E2E2E2E2E2E2E2E2E2E2E2E2E2E2E2E2E2E2E2E2E2E2E2E2E2E2E2E2F5F5E2E2F5F5E2F5E2F5F5F5E2F5F5F5F5E2E2E2E2E2
310
E2E2E2E2E2E2E2E2E2E2E2F5E2F5F5F5F5E2E2E2E2F5E2E2E2F5E2F5E2E2E2E2E2E2E2E2E2E2E2E2E2E2E2E2E2E2E2E2E2E2E2E2E2E2E2E2E2E2E2E2E2E2E2E2E2E2E2E2E2E2E2E2E2E2E2E2E2E2E2E2E2E2E2E2E2E2E2E2E2E2E2E2E2E2E2E2E2E2E2E2E2E2E2E2E2E2E2E2E2E2E2E2E2E2E2E2E2E2E2E2E2E2E2E2E2E2E2
310
E2E2E2E2E2E2E2E2E2E2E2E2E2E2E2E2E2E2E2E2E2E2E2E2E2E2E2E2E2E2E2E2E2E2E2E2E2E2E2E2E2E2E2E2E2E2E2E2E2E2E2E2E2E2E2E2E2E2E2E2E2E2E2E2E2E2E2E2E2E2E2E2E2E2E2E2E2E2E2E2E2E2E2E2E2E2E2E2E2E2E2E2E2E2E2E2E2E2E2E2E2E2E2E2E2E2E2E2E2E2E2F5F5E2F5F5F5F5F5E2F5F5F5F5E2E2E2
310
E2E2E2E2E2E2E2E2E2E2E2E2E2F5E2E2F5F5E2F5E2E2E2E2F5E2E2F5E2F5E2E2E2E2E2E2E2E2E2E2E2E2E2E2E2E2E2E2E2E2E2E2E2E2E2E2E2E2E2E2E2E2E2E2E2E2E2E2E2E2E2E2E2E2E2E2E2E2E2E2E2E2E2E2E2E2E2E2E2E2E2E2E2E2E2E2E2E2E2E2E2E2E2E2E2E2E2E2E2E2E2E2E2E2E2E2E2E2E2E2E2E2E2E2E2E2E2
310
E2E2E2E2E2E2E2E2E2E2E2E2E2E2E2E2E2E2E2E2E2E2E2E2E2E2E2E2E2E2E2E2E2E2E2E2E2E2E2E2E2E2E2E2E2E2E2E2E2E2E2E2E2E2E2E2E2E2E2E2E2E2E2E2E2E2E2E2E2E2E2E2E2E2E2E2E2E2E2E2E2E2E2E2E2E2E2E2E2E2E2E2E2E2E2E2E2E2E2E2E2E2E2E2E2E2E2E2E2E2E2E2E2F5F5F5F5E2E2E2E2E2E2E2E2E2E2
310
E2E2E2E2E2E2E2E2E2E2E2E2E2E2E2E2F5E2F5F5F5F5E2E2E2E2E2F5E2E2F5F5E2E2E2E2E2E2E2E2E2E2E2E2E2E2E2E2E2E2E2E2E2E2E2E2E2E2E2E2E2E2E2E2E2E2E2E2E2E2E2E2E2E2E2E2E2E2E2E2E2E2E2E2E2E2E2E2E2E2E2E2E2E2E2E2E2E2E2E2E2E2E2E2E2E2E2E2E2E2E2E2E2E2E2E2E2E2E2E2E2E2E2E2E2E2E2
310
E2E2E2E2E2E2E2E2E2E2E2E2E2E2E2E2E2E2E2E2E2E2E2E2E2E2E2E2E2E2E2E2E2E2E2E2E2E2E2E2E2E2E2E2E2E2E2E2E2E2E2E2E2E2E2E2E2E2E2E2E2E2E2E2E2E2E2E2E2E2E2E2E2E2E2E2E2E2E2E2E2E2E2E2E2E2E2E2E2E2E2E2E2E2E2E2E2E2E2E2E2E2E2E2E2E2E2E2E2E2E2E2E2E2E2E2E2E2E2E2E2E2E2E2E2E2E2
310
E2E2E2E2E2E2E2E2E2E2E2E2E2E2E2E2E2E2E2F5E2F5F5F5E2E2E2E2E2E2F5F5F5F5E2E2E2E2E2E2E2E2E2E2E2E2E2E2E2E2E2E2E2E2E2E2E2E2E2E2E2E2E2E2E2E2E2E2E2E2E2E2E2E2E2E2E2E2E2E2E2E2E2E2E2E2E2E2E2E2E2E2E2E2E2E2E2E2E2E2E2E2E2E2E2E2E2E2E2E2E2E2E2E2E2E2E2E2E2E2E2E2E2E2E2E2E2
310
E2E2E2E2E2E2E2E2E2E2E2E2E2E2E2E2E2E2E2E2E2E2E2E2E2E2E2E2E2E2E2E2E2E2E2E2E2E2E2E2E2E2E2E2E2E2E2E2E2E2E2E2E2E2E2E2E2E2E2E2E2E2E2E2E2E2E2E2E2E2E2E2E2E2E2E2E2E2E2E2E2E2E2E2E2E2E2E2E2E2E2E2E2E2E2E2E2E2E2E2E2E2E2E2E2E2E2E2E2E2E2E2E2E2E2E2E2E2E2E2E2E2E2E2E2E2E2
310
E2E2E2E2F5F5F5F5F5E2F5F5F5F5F5F5E2E2E2E2E2E2F5F5F5F5E2E2E2E2E2E2E2E2E2E2E2E2E2E2E2E2E2E2E2E2E2E2E2E2E2E2E2E2E2E2E2E2E2E2E2E2E2E2E2E2E2E2E2E2E2E2E2E2E2E2E2E2E2E2E2E2E2E2E2E2E2E2E2E2E2E2E2E2E2E2E2E2E2E2E2E2E2E2E2E2E2E2E2E2E2E2E2E2E2E2E2E2E2E2E2E2E2E2E2E2E2
310
E2E2E2E2E2E2E2E2E2E2E2E2E2E2E2E2E2E2E2E2E2E2E2E2E2E2E2E2E2E2E2E2E2E2E2E2E2E2E2E2E2E2E2E2E2E2E2E2E2E2E2E2E2E2E2E2E2E2E2E2E2E2E2E2E2E2E2E2E2E2E2E2E2E2E2E2E2E2E2E2E2E2E2E2E2E2E2E2E2E2E2E2E2E2E2E2E2E2E2E2F5F5F5F5F5F5F5F5F5F5F5E2E2F5F5F5F5F5F5F5F5F5F5F5E2E2E2
310
F5F5F5F5F5F5E2F5F5E2E2F5F5E2E2F5E2E2F5F5F5F5F5F5E2E2E2E2E2E2E2E2E2E2E2E2E2E2E2E2E2E2E2E2E2E2E2E2E2E2E2E2E2E2E2E2E2E2E2E2E2E2E2E2E2E2E2E2E2E2E2E2E2E2E2E2E2E2E2E2E2E2E2E2E2E2E2E2E2E2E2E2E2E2E2E2E2E2E2E2E2E2E2E2E2E2E2E2E2E2E2E2E2E2E2E2E2E2E2E2E2E2E2E2E2E2E2
310
E2E2E2E2E2E2E2E2E2E2E2E2E2E2E2E2E2E2E2E2E2E2E2E2E2E2E2E2E2E2E2E2E2E2E2E2E2E2E2E2E2E2E2E2E2E2E2E2E2E2E2E2E2E2E2E2E2E2E2E2E2E2E2E2E2E2E2E2E2E2E2E2E2E2E2E2E2E2E2E2E2E2E2E2E2E2E2E2E2E2E2E2E2E2E2E2E2E2E2E2E2E2F5E2E2E2E2E2E2E2E2F5F5F5F5F5F5E2E2E2E2E2E2E2E2F5E2
310
E2E2F5F5F5F5F5F5F5F5F5F5F5F5F5F5F5F5F5F5F5F5F5F5F5F5E2E2E2E2E2E2E2E2E2E2E2E2E2E2E2E2E2E2E2E2E2E2E2E2E2E2E2E2E2E2E2E2E2E2E2E2E2E2E2E2E2E2E2E2E2E2E2E2E2E2E2E2E2E2E2E2E2E2E2E2E2E2E2E2E2E2E2E2E2E2E2E2E2E2E2E2E2E2E2E2E2E2E2E2E2E2E2E2E2E2E2E2E2E2E2E2E2E2E2E2E2
310
E2E2E2E2E2E2E2E2E2E2E2E2E2E2E2E2E2E2E2E2E2E2E2E2E2E2E2E2E2E2E2E2E2E2E2E2E2E2E2E2E2E2E2E2E2E2E2E2E2E2E2E2E2E2E2E2E2E2E2E2E2E2E2E2E2E2E2E2E2E2E2E2E2E2E2E2E2E2E2E2E2E2E2E2E2E2E2E2E2E2E2E2E2E2E2E2E2E2E2E2E2E2E2E2F5F5F5F5F5F5F5F5F5F5F5F5F5F5F5F5F5F5F5F5F5F5F5
310
F5E2E2E2F5F5F5F5F5F5F5F5F5F5F5E2E2F5F5F5F5F5F5F5F5F5F5F5E2E2E2E2E2E2E2E2E2E2E2E2E2E2E2E2E2E2E2E2E2E2E2E2E2E2E2E2E2E2E2E2E2E2E2E2E2E2E2E2E2E2E2E2E2E2E2E2E2E2E2E2E2E2E2E2E2E2E2E2E2E2E2E2E2E2E2E2E2E2E2E2E2E2E2E2E2E2E2E2E2E2E2E2E2E2E2E2E2E2E2E2E2E2E2E2E2E2E2
310
E2E2E2E2E2E2E2E2E2E2E2E2E2E2E2E2E2E2E2E2E2E2E2E2E2E2E2E2E2E2E2E2E2E2E2E2E2E2E2E2E2E2E2E2E2E2E2E2E2E2E2E2E2E2E2E2E2E2E2E2E2E2E2E2E2E2E2E2E2E2E2E2E2E2E2E2E2E2E2E2E2E2E2E2E2E2E2E2E2E2E2E2E2E2E2E2E2E2E2E2E2E2E2E2E2E2F5E2E2E2E2E2E2E2E2E2E2E2E2E2E2E2E2E2E2E2E2
310
E2E2F5E2E2E2F5F5F5E2F5F5F5F5E2F5F5E2E2F5F5F5F5F5E2F5E2F5F5E2E2E2E2E2E2E2E2E2E2E2E2E2E2E2E2E2E2E2E2E2E2E2E2E2E2E2E2E2E2E2E2E2E2E2E2E2E2E2E2E2E2E2E2E2E2E2E2E2E2E2E2E2E2E2E2E2E2E2E2E2E2E2E2E2E2E2E2E2E2E2E2E2E2E2E2E2E2E2E2E2E2E2E2E2E2E2E2E2E2E2E2E2E2E2E2E2E2
310
E2E2E2E2E2E2E2E2E2E2E2E2E2E2E2E2E2E2E2E2E2E2E2E2E2E2E2E2E2E2E2E2E2E2E2E2E2E2E2E2E2E2E2E2E2E2E2E2E2E2E2E2E2E2E2E2E2E2E2E2E2E2E2E2E2E2E2E2E2E2E2E2E2E2E2E2E2E2E2E2E2E2E2E2E2E2E2E2E2E2E2E2E2E2E2E2E2E2E2E2E2E2E2E2E2E2E2E2E2F5E2E2E2E2E2E2E2E2E2E2E2E2E2E2E2E2E2
310
E2E2E2F5E2E2E2E2E2F5F5F5F5F5F5F5F5F5F5E2E2F5F5E2F5E2F5F5F5F5F5E2E2E2E2E2E2E2E2E2E2E2E2E2E2E2E2E2E2E2E2E2E2E2E2E2E2E2E2E2E2E2E2E2E2E2E2E2E2E2E2E2E2E2E2E2E2E2E2E2E2E2E2E2E2E2E2E2E2E2E2E2E2E2E2E2E2E2E2E2E2E2E2E2E2E2E2E2E2E2E2E2E2E2E2E2E2E2E2E2E2E2E2E2E2E2E2
310
E2E2E2E2E2E2E2E2E2E2E2E2E2E2E2E2E2E2E2E2E2E2E2E2E2E2E2E2E2E2E2E2E2E2E2E2E2E2E2E2E2E2E2E2E2E2E2E2E2E2E2E2E2E2E2E2E2E2E2E2E2E2E2E2E2E2E2E2E2E2E2E2E2E2E2E2E2E2E2E2E2E2E2E2E2E2E2E2E2E2E2E2E2E2E2E2E2E2E2E2E2E2E2E2E2E2E2E2E2E2E2F5F5F5F5F5F5E2E2E2E2E2E2E2E2E2E2
310
F5F5F5F5F5F5E2E2E2E2E2F5F5F5F5F5E2E2F5F5E2E2E2E2F5F5E2F5F5F5F5F5E2E2E2E2E2E2E2E2E2E2E2E2E2E2E2E2E2E2E2E2E2E2E2E2E2E2E2E2E2E2E2E2E2E2E2E2E2E2E2E2E2E2E2E2E2E2E2E2E2E2E2E2E2E2E2E2E2E2E2E2E2E2E2E2E2E2E2E2E2E2E2E2E2E2E2E2E2E2E2E2E2E2E2E2E2E2E2E2E2E2E2E2E2E2E2
310
E2E2E2E2E2E2E2E2E2E2E2E2E2E2E2E2E2E2E2E2E2E2E2E2E2E2E2E2E2E2E2E2E2E2E2E2E2E2E2E2E2E2E2E2E2E2E2E2E2E2E2E2E2E2E2E2E2E2E2E2E2E2E2E2E2E2E2E2E2E2E2E2E2E2E2E2E2E2E2E2E2E2E2E2E2E2E2E2E2E2E2E2E2E2E2E2E2E2E2E2E2E2E2E2E2E2E2E2E2E2E2E2E2E2E2E2E2E2E2F5F5F5F5F5F5F5F5
310
F5F5E2E2E2E2E2E2E2E2E2E2E2E2E2E2E2E2F5F5F5F5F5F5F5F5F5F5F5E2E2E2E2E2E2E2E2E2E2E2E2E2E2E2E2E2E2E2E2E2E2E2E2E2E2E2E2E2E2E2E2E2E2E2E2E2E2E2E2E2E2E2E2E2E2E2E2E2E2E2E2E2E2E2E2E2E2E2E2E2E2E2E2E2E2E2E2E2E2E2E2E2E2E2E2E2E2E2E2E2E2E2E2E2E2E2E2E2E2E2E2E2E2E2E2E2E2
310
E2E2E2E2E2E2E2E2E2E2E2E2E2E2E2E2E2E2E2E2E2E2E2E2E2E2E2E2E2E2E2E2E2E2E2E2E2E2E2E2E2E2E2E2E2E2E2E2E2E2E2E2E2E2E2E2E2E2E2E2E2E2E2E2E2E2E2E2E2E2E2E2E2E2E2E2E2E2E2E2E2E2E2E2E2E2E2E2E2E2E2E2E2E2E2E2E2E2E2E2E2E2E2E2E2E2E2E2E2E2E2E2E2E2E2E2E2E2E2E2E2E2E2E2E2E2E2
310
E2E2E2E2E2E2E2E2E2E2E2E2E2E2E2E2E2E2E2E2E2E2E2E2E2E2E2E2E2E2E2E2E2E2E2E2E2E2E2E2E2E2E2E2E2E2E2E2E2E2E2E2E2E2E2E2E2E2E2E2E2E2E2E2E2E2E2E2E2E2E2E2E2E2E2E2E2E2E2E2E2E2E2E2E2E2E2E2E2E2E2E2E2E2E2E2E2E2E2E2E2E2E2E2E2E2E2E2E2E2E2E2E2E2E2E2E2E2E2E2E2E2E2E2E2E2E2
310
E2E2E2E2E2E2E2E2E2E2E2E2E2E2E2E2E2E2E2E2E2E2E2E2E2E2E2E2E2E2E2E2E2E2E2E2E2E2E2E2E2E2E2E2E2E2E2E2E2E2E2E2E2E2E2E2E2E2E2E2E2E2E2E2E2E2E2E2E2E2E2E2E2E2E2E2E2E2E2E2E2E2E2E2E2E2E2E2E2E2E2E2E2E2E2E2E2E2E2E2E2E2E2E2E2E2E2E2E2E2E2E2E2E2E2E2E2E2E2E2E2E2E2E2E2E2E2
310
E2E2E2E2E2E2E2E2E2E2E2E2E2E2E2E2E2E2E2E2E2E2E2E2E2E2E2E2E2E2E2E2E2E2E2E2E2E2E2E2E2E2E2E2E2E2E2E2E2E2E2E2E2E2E2E2E2E2E2E2E2E2E2E2E2E2E2E2E2E2E2E2E2E2E2E2E2E2E2E2E2E2E2E2E2E2E2E2E2E2E2E2E2E2E2E2E2E2E2E2E2E2E2E2E2E2E2E2E2E2E2E2E2E2E2E2E2E2E2E2E2E2E2E2E2E2E2
310
E2E2E2E2E2E2E2E2E2E2E2E2E2E2E2E2E2E2E2E2E2E2E2E2E2E2E2E2E2E2E2E2E2E2E2E2E2E2E2E2E2E2E2E2E2E2E2E2E2E2E2E2E2E2E2E2E2E2E2E2E2E2E2E2E2E2E2E2E2E2E2E2E2E2E2E2E2E2E2E2E2E2E2E2E2E2E2E2E2E2E2E2E2E2E2E2E2E2E2E2E2E2E2E2E2E2E2E2E2E2E2E2E2E2E2E2E2E2E2E2E2E2E2E2E2E2E2
310
E2E2E2E2E2E2E2E2E2E2E2E2E2E2E2E2E2E2E2E2E2E2E2E2E2E2E2E2E2E2E2E2E2E2E2E2E2E2E2E2E2E2E2E2E2E2E2E2E2E2E2E2E2E2E2E2E2E2E2E2E2E2E2E2E2E2E2E2E2E2E2E2E2E2E2E2E2E2E2E2E2E2E2E2E2E2E2E2E2E2E2E2E2E2E2E2E2E2E2E2E2E2E2E2E2E2E2E2E2E2E2E2E2E2E2E2E2E2E2E2E2E2E2E2E2E2E2
310
E2E2E2E2E2E2E2E2E2E2E2E2E2E2E2E2E2E2E2E2E2E2E2E2E2E2E2E2E2E2E2E2E2E2E2E2E2E2E2E2E2E2E2E2E2E2E2E2E2E2E2E2E2E2E2E2E2E2E2E2E2E2E2E2E2E2E2E2E2E2E2E2E2E2E2E2E2E2E2E2E2E2E2E2E2E2E2E2E2E2E2E2E2E2E2E2E2E2E2E2E2E2E2E2E2E2E2E2E2E2E2E2E2E2E2E2E2E2E2E2E2E2E2E2E2E2E2
310
E2E2E2E2E2E2E2E2E2E2E2E2E2E2E2E2E2E2E2E2E2E2E2E2E2E2E2E2E2E2E2E2E2E2E2E2E2E2E2E2E2E2E2E2E2E2E2E2E2E2E2E2E2E2E2E2E2E2E2E2E2E2E2E2E2E2E2E2E2E2E2E2E2E2E2E2E2E2E2E2E2E2E2E2E2E2E2E2E2E2E2E2E2E2E2E2E2E2E2E2E2E2E2E2E2E2E2E2E2E2E2E2E2E2E2E2E2E2E2E2E2E2E2E2E2E2E2
310
E2E2E2E2E2E2E2E2E2E2E2E2E2E2E2E2E2E2E2E2E2E2E2E2E2E2E2E2E2E2E2E2E2E2E2E2E2E2E2E2E2E2E2E2E2E2E2E2E2E2E2E2E2E2E2E2E2E2E2E2E2E2E2E2E2E2E2E2E2E2E2E2E2E2E2E2E2E2E2E2E2E2E2E2E2E2E2E2E2E2E2E2E2E2E2E2E2E2E2E2E2E2E2E2E2E2E2E2E2E2E2E2E2E2E2E2E2E2E2E2E2E2E2E2E2E2E2
310
E2E2E2E2E2E2E2E2E2E2E2E2E2E2E2E2E2E2E2E2E2E2E2E2E2E2E2E2E2E2E2E2E2E2E2E2E2E2E2E2E2E2E2E2E2E2E2E2E2E2E2E2E2E2E2E2E2E2E2E2E2E2E2E2E2E2E2E2E2E2E2E2E2E2E2E2E2E2E2E2E2E2E2E2E2E2E2E2E2E2E2E2E2E2E2E2E2E2E2E2E2E2E2E2E2E2E2E2E2E2E2E2E2E2E2E2E2E2E2E2E2E2E2E2E2E2E2
310
E2E2E2E2E2E2E2E2E2E2E2E2E2E2E2E2E2E2E2E2E2E2E2E2E2E2E2E2E2E2E2E2E2E2E2E2E2E2E2E2E2E2E2E2E2E2E2E2E2E2E2E2E2E2E2E2E2E2E2E2E2E2E2E2E2E2E2E2E2E2E2E2E2E2E2E2E2E2E2E2E2E2E2E2E2E2E2E2E2E2E2E2E2E2E2E2E2E2E2E2E2E2E2E2E2E2E2E2E2E2E2E2E2E2E2E2E2E2E2E2E2E2E2E2E2E2E2
310
E2E2E2E2E2E2E2E2E2E2E2E2E2E2E2E2E2E2E2E2E2E2E2E2E2E2E2E2E2E2E2E2E2E2E2E2E2E2E2E2E2E2E2E2E2E2E2E2E2E2E2E2E2E2E2E2E2E2E2E2E2E2E2E2E2E2E2E2E2E2E2E2E2E2E2E2E2E2E2E2E2E2E2E2E2E2E2E2E2E2E2E2E2E2E2E2E2E2E2E2E2E2E2E2E2E2E2E2E2E2E2E2E2E2E2E2E2E2E2E2E2E2E2E2E2E2E2
310
E2E2E2E2E2E2E2E2E2E2E2E2E2E2E2E2E2E2E2E2E2E2E2E2E2E2E2E2E2E2E2E2E2E2E2E2E2E2E2E2E2E2E2E2E2E2E2E2E2E2E2E2E2E2E2E2E2E2E2E2E2E2E2E2E2E2E2E2E2E2E2E2E2E2E2E2E2E2E2E2E2E2E2E2E2E2E2E2E2E2E2E2E2E2E2E2E2E2E2E2E2E2E2E2E2E2E2E2E2E2E2E2E2E2E2E2E2E2E2E2E2E2E2E2E2E2E2
310
E2E2E2E2E2E2E2E2E2E2E2E2E2E2E2E2E2E2E2E2E2E2E2E2E2E2E2E2E2E2E2E2E2E2E2E2E2E2E2E2E2E2E2E2E2E2E2E2E2E2E2E2E2E2E2E2E2E2E2E2E2E2E2E2E2E2E2E2E2E2E2E2E2E2E2E2E2E2E2E2E2E2E2E2E2E2E2E2E2E2E2E2E2E2E2E2E2E2E2E2E2E2E2E2E2E2E2E2E2E2E2E2E2E2E2E2E2E2E2E2E2E2E2E2E2E2E2
310
E2E2E2E2E2E2E2E2E2E2E2E2E2E2E2E2E2E2E2E2E2E2E2E2E2E2E2E2E2E2E2E2E2E2E2E2E2E2E2E2E2E2E2E2E2E2E2E2E2E2E2E2E2E2E2E2E2E2E2E2E2E2E2E2E2E2E2E2E2E2E2E2E2E2E2E2E2E2E2E2E2E2E2E2E2E2E2E2E2E2E2E2E2E2E2E2E2E2E2E2E2E2E2E2E2E2E2E2E2E2E2E2E2E2E2E2E2E2E2E2E2E2E2E2E2E2E2
310
E2E2E2E2E2E2E2E2E2E2E2E2E2E2E2E2E2E2E2E2E2E2E2E2E2E2E2E2E2E2E2E2E2E2E2E2E2E2E2E2E2E2E2E2E2E2E2E2E2E2E2E2E2E2E2E2E2E2E2E2E2E2E2E2E2E2E2E2E2E2E2E2E2E2E2E2E2E2E2E2E2E2E2E2E2E2E2E2E2E2E2E2E2E2E2E2E2E2E2E2E2E2E2E2E2E2E2E2E2E2E2E2E2E2E2E2E2E2E2E2E2E2E2E2E2E2E2
310
E2E2E2E2E2E2E2E2E2E2E2E2E2E2E2E2E2E2E2E2E2E2E2E2E2E2E2E2E2E2E2E2E2E2E2E2E2E2E2E2E2E2E2E2E2E2E2E2E2E2E2E2E2E2E2E2E2E2E2E2E2E2E2E2E2E2E2E2E2E2E2E2E2E2E2E2E2E2E2E2E2E2E2E2E2E2E2E2E2E2E2E2E2E2E2E2E2E2E2E2E2E2E2E2E2E2E2E2E2E2E2E2E2E2E2E2E2E2E2E2E2E2E2E2E2E2E2
310
E2E2E2E2E2E2E2E2E2E2E2E2E2E2E2E2E2E2E2E2E2E2E2E2E2E2E2E2E2E2E2E2E2E2E2E2E2E2E2E2E2E2E2E2E2E2E2E2E2E2E2E2E2E2E2E2E2E2E2E2E2E2E2E2E2E2E2E2E2E2E2E2E2E2E2E2E2E2E2E2E2E2E2E2E2E2E2E2E2E2E2E2E2E2E2E2E2E2E2E2E2E2E2E2E2E2E2E2E2E2E2E2E2E2E2E2E2E2E2E2E2E2E2E2E2E2E2
310
E2E2E2E2E2E2E2E2E2E2E2E2E2E2E2E2E2E2E2E2E2E2E2E2E2E2E2E2E2E2E2E2E2E2E2E2E2E2E2E2E2E2E2E2E2E2E2E2E2E2E2E2E2E2E2E2E2E2E2E2E2E2E2E2E2E2E2E2E2E2E2E2E2E2E2E2E2E2E2E2E2E2E2E2E2E2E2E2E2E2E2E2E2E2E2E2E2E2E2E2E2E2E2E2E2E2E2E2E2E2E2E2E2E2E2E2E2E2E2E2E2E2E2E2E2E2E2
310
E2E2E2E2E2E2E2E2E2E2E2E2E2E2E2E2E2E2E2E2E2E2E2E2E2E2E2E2E2E2E2E2E2E2E2E2E2E2E2E2E2E2E2E2E2E2E2E2E2E2E2E2E2E2E2E2E2E2E2E2E2E2E2E2E2E2E2E2E2E2E2E2E2E2E2E2E2E2E2E2E2E2E2E2E2E2E2E2E2E2E2E2E2E2E2E2E2E2E2E2E2E2E2E2E2E2E2E2E2E2E2E2E2E2E2E2E2E2E2E2E2E2E2E2E2E2E2
310
E2E2E2E2E2E2E2E2E2E2E2E2E2E2E2E2E2E2E2E2E2E2E2E2E2E2E2E2E2E2E2E2E2E2E2E2E2E2E2E2E2E2E2E2E2E2E2E2E2E2E2E2E2E2E2E2E2E2E2E2E2E2E2E2E2E2E2E2E2E2E2E2E2E2E2E2E2E2E2E2E2E2E2E2E2E2E2E2E2E2E2E2E2E2E2E2E2E2E2E2E2E2E2E2E2E2E2E2E2E2E2E2E2E2E2E2E2E2E2E2E2E2E2E2E2E2E2
310
E2E2E2E2E2E2E2E2E2E2E2E2E2E2E2E2E2E2E2E2E2E2E2E2E2E2E2E2E2E2E2E2E2E2E2E2E2E2E2E2E2E2E2E2E2E2E2E2E2E2E2E2E2E2E2E2E2E2E2E2E2E2E2E2E2E2E2E2E2E2E2E2E2E2E2E2E2E2E2E2E2E2E2E2E2E2E2E2E2E2E2E2E2E2E2E2E2E2E2E2E2E2E2E2E2E2E2E2E2E2E2E2E2E2E2E2E2E2E2E2E2E2E2E2E2E2E2
310
E2E2E2E2E2E2E2E2E2E2E2E2E2E2E2E2E2E2E2E2E2E2E2E2E2E2E2E2E2E2E2E2E2E2E2E2E2E2E2E2E2E2E2E2E2E2E2E2E2E2E2E2E2E2E2E2E2E2E2E2E2E2E2E2E2E2E2E2E2E2E2E2E2E2E2E2E2E2E2E2E2E2E2E2E2E2E2E2E2E2E2E2E2E2E2E2E2E2E2E2E2E2E2E2E2E2E2E2E2E2E2E2E2E2E2E2E2E2E2E2E2E2E2E2E2E2E2
310
E2E2E2E2E2E2E2E2E2E2E2E2E2E2E2E2E2E2E2E2E2E2E2E2E2E2E2E2E2E2E2E2E2E2E2E2E2E2E2E2E2E2E2E2E2E2E2E2E2E2E2E2E2E2E2E2E2E2E2E2E2E2E2E2E2E2E2E2E2E2E2E2E2E2E2E2E2E2E2E2E2E2E2E2E2E2E2E2E2E2E2E2E2E2E2E2E2E2E2E2E2E2E2E2E2E2E2E2E2E2E2E2E2E2E2E2E2E2E2E2E2E2E2E2E2E2E2
310
E2E2E2E2E2E2E2E2E2E2E2E2E2E2E2E2E2E2E2E2E2E2E2E2E2E2E2E2E2E2E2E2E2E2E2E2E2E2E2E2E2E2E2E2E2E2E2E2E2E2E2E2E2E2E2E2E2E2E2E2E2E2E2E2E2E2E2E2E2E2E2E2E2E2E2E2E2E2E2E2E2E2E2E2E2E2E2E2E2E2E2E2E2E2E2E2E2E2E2E2E2E2E2E2E2E2E2E2E2E2E2E2E2E2E2E2E2E2E2E2E2E2E2E2E2E2E2
310
E2E2E2E2E2E2E2E2E2E2E2E2E2E2E2E2E2E2E2E2E2E2E2E2E2E2E2E2E2E2E2E2E2E2E2E2E2E2E2E2E2E2E2E2E2E2E2E2E2E2E2E2E2E2E2E2E2E2E2E2E2E2E2E2E2E2E2E2E2E2E2E2E2E2E2E2E2E2E2E2E2E2E2E2E2E2E2E2E2E2E2E2E2E2E2E2E2E2E2E2E2E2E2E2E2E2E2E2E2E2E2E2E2E2E2E2E2E2E2E2E2E2E2E2E2E2E2
310
E2E2E2E2E2E2E2E2E2E2E2E2E2E2E2E2E2E2E2E2E2E2E2E2E2E2E2E2E2E2E2E2E2E2E2E2E2E2E2E2E2E2E2E2E2E2E2E2E2E2E2E2E2E2E2E2E2E2E2E2E2E2E2E2E2E2E2E2E2E2E2E2E2E2E2E2E2E2E2E2E2E2E2E2E2E2E2E2E2E2E2E2E2E2E2E2E2E2E2E2E2E2E2E2E2E2E2E2E2E2E2E2E2E2E2E2E2E2E2E2E2E2E2E2E2E2E2
310
E2E2E2E2E2E2E2E2E2E2E2E2E2E2E2E2E2E2E2E2E2E2E2E2E2E2E2E2E2E2E2E2E2E2E2E2E2E2E2E2E2E2E2E2E2E2E2E2E2E2E2E2E2E2E2E2E2E2E2E2E2E2E2E2E2E2E2E2E2E2E2E2E2E2E2E2E2E2E2E2E2E2E2E2E2E2E2E2E2E2E2E2E2E2E2E2E2E2E2E2E2E2E2E2E2E2E2E2E2E2E2E2E2E2E2E2E2E2E2E2E2E2E2E2E2E2E2
310
E2E2E2E2E2E2E2E2E2E2E2E2E2E2E2E2E2E2E2E2E2E2E2E2E2E2E2E2E2E2E2E2E2E2E2E2E2E2E2E2E2E2E2E2E2E2E2E2E2E2E2E2E2E2E2E2E2E2E2E2E2E2E2E2E2E2E2E2E2E2E2E2E2E2E2E2E2E2E2E2E2E2E2E2E2E2E2E2E2E2E2E2E2E2E2E2E2E2E2E2E2E2E2E2E2E2E2E2E2E2E2E2E2E2E2E2E2E2E2E2E2E2E2E2E2E2E2
310
E2E2E2E2E2E2E2E2E2E2E2E2E2E2E2E2E2E2E2E2E2E2E2E2E2E2E2E2E2E2E2E2E2E2E2E2E2E2E2E2E2E2E2E2E2E2E2E2E2E2E2E2E2E2E2E2E2E2E2E2E2E2E2E2E2E2E2E2E2E2E2E2E2E2E2E2E2E2E2E2E2E2E2E2E2E2E2E2E2E2E2E2E2E2E2E2E2E2E2E2E2E2E2E2E2E2E2E2E2E2E2E2E2E2E2E2E2E2E2E2E2E2E2E2E2E2E2
310
E2E2E2E2E2E2E2E2E2E2E2E2E2E2E2E2E2E2E2E2E2E2E2E2E2E2E2E2E2E2E2E2E2E2E2E2E2E2E2E2E2E2E2E2E2E2E2E2E2E2E2E2E2E2E2E2E2E2E2E2E2E2E2E2E2E2E2E2E2E2E2E2E2E2E2E2E2E2E2E2E2E2E2E2E2E2E2E2E2E2E2E2E2E2E2E2E2E2E2E2E2E2E2E2E2E2E2E2E2E2E2E2E2E2E2E2E2E2E2E2E2E2E2E2E2E2E2
310
E2E2E2E2E2E2E2E2E2E2E2E2E2E2E2E2E2E2E2E2E2E2E2E2E2E2E2E2E2E2E2E2E2E2E2E2E2E2E2E2E2E2E2E2E2E2E2E2E2E2E2E2E2E2E2E2E2E2E2E2E2E2E2E2E2E2E2E2E2E2E2E2E2E2E2E2E2E2E2E2E2E2E2E2E2E2E2E2E2E2E2E2E2E2E2E2E2E2E2E2E2E2E2E2E2E2E2E2E2E2E2E2E2E2E2E2E2E2E2E2E2E2E2E2E2E2E2
310
E2E2E2E2E2E2E2E2E2E2E2E2E2E2E2E2E2E2E2E2E2E2E2E2E2E2E2E2E2E2E2E2E2E2E2E2E2E2E2E2E2E2E2E2E2E2E2E2E2E2E2E2E2E2E2E2E2E2E2E2E2E2E2E2E2E2E2E2E2E2E2E2E2E2E2E2E2E2E2E2E2E2E2E2E2E2E2E2E2E2E2E2E2E2E2E2E2E2E2E2E2E2E2E2E2E2E2E2E2E2E2E2E2E2E2E2E2E2E2E2E2E2E2E2E2E2E2
310
E2E2E2E2E2E2E2E2E2E2E2E2E2E2E2E2E2E2E2E2E2E2E2E2E2E2E2E2E2E2E2E2E2E2E2E2E2E2E2E2E2E2E2E2E2E2E2E2E2E2E2E2E2E2E2E2E2E2E2E2E2E2E2E2E2E2E2E2E2E2E2E2E2E2E2E2E2E2E2E2E2E2E2E2E2E2E2E2E2E2E2E2E2E2E2E2E2E2E2E2E2E2E2E2E2E2E2E2E2E2E2E2E2E2E2E2E2E2E2E2E2E2E2E2E2E2E2
310
E2E2E2E2E2E2E2E2E2E2E2E2E2E2E2E2E2E2E2E2E2E2E2E2E2E2E2E2E2E2E2E2E2E2E2E2E2E2E2E2E2E2E2E2E2E2E2E2E2E2E2E2E2E2E2E2E2E2E2E2E2E2E2E2E2E2E2E2E2E2E2E2E2E2E2E2E2E2E2E2E2E2E2E2E2E2E2E2E2E2E2E2E2E2E2E2E2E2E2E2E2E2E2E2E2E2E2E2E2E2E2E2E2E2E2E2E2E2E2E2E2E2E2E2E2E2E2
310
E2E2E2E2E2E2E2E2E2E2E2E2E2E2E2E2E2E2E2E2E2E2E2E2E2E2E2E2E2E2E2E2E2E2E2E2E2E2E2E2E2E2E2E2E2E2E2E2E2E2E2E2E2E2E2E2E2E2E2E2E2E2E2E2E2E2E2E2E2E2E2E2E2E2E2E2E2E2E2E2E2E2E2E2E2E2E2E2E2E2E2E2E2E2E2E2E2E2E2E2E2E2E2E2E2E2E2E2E2E2E2E2E2E2E2E2E2E2E2E2E2E2E2E2E2E2E2
310
E2E2E2E2E2E2E2E2E2E2E2E2E2E2E2E2E2E2E2E2E2E2E2E2E2E2E2E2E2E2E2E2E2E2E2E2E2E2E2E2E2E2E2E2E2E2E2E2E2E2E2E2E2E2E2E2E2E2E2E2E2E2E2E2E2E2E2E2E2E2E2E2E2E2E2E2E2E2E2E2E2E2E2E2E2E2E2E2E2E2E2E2E2E2E2E2E2E2E2E2E2E2E2E2E2E2E2E2E2E2E2E2E2E2E2E2E2E2E2E2E2E2E2E2E2E2E2
310
E2E2E2E2E2E2E2E2E2E2E2E2E2E2E2E2E2E2E2E2E2E2E2E2E2E2E2E2E2E2E2E2E2E2E2E2E2E2E2E2E2E2E2E2E2E2E2E2E2E2E2E2E2E2E2E2E2E2E2E2E2E2E2E2E2E2E2E2E2E2E2E2E2E2E2E2E2E2E2E2E2E2E2E2E2E2E2E2E2E2E2E2E2E2E2E2E2E2E2E2E2E2E2E2E2E2E2E2E2E2E2E2E2E2E2E2E2E2E2E2E2E2E2E2E2E2E2
310
E2E2E2E2E2E2E2E2E2E2E2E2E2E2E2E2E2E2E2E2E2E2E2E2E2E2E2E2E2E2E2E2E2E2E2E2E2E2E2E2E2E2E2E2E2E2E2E2E2E2E2E2E2E2E2E2E2E2E2E2E2E2E2E2E2E2E2E2E2E2E2E2E2E2E2E2E2E2E2E2E2E2E2E2E2E2E2E2E2E2E2E2E2E2E2E2E2E2E2E2E2E2E2E2E2E2E2E2E2E2E2E2E2E2E2E2E2E2E2E2E2E2E2E2E2E2E2
310
E2E2E2E2E2E2E2E2E2E2E2E2E2E2E2E2E2E2E2E2E2E2E2E2E2E2E2E2E2E2E2E2E2E2E2E2E2E2E2E2E2E2E2E2E2E2E2E2E2E2E2E2E2E2E2E2E2E2E2E2E2E2E2E2E2E2E2E2E2E2E2E2E2E2E2E2E2E2E2E2E2E2E2E2E2E2E2E2E2E2E2E2E2E2E2E2E2E2E2E2E2E2E2E2E2E2E2E2E2E2E2E2E2E2E2E2E2E2E2E2E2E2E2E2E2E2E2
310
E2E2E2E2E2E2E2E2E2E2E2E2E2E2E2E2E2E2E2E2E2E2E2E2E2E2E2E2E2E2E2E2E2E2E2E2E2E2E2E2E2E2E2E2E2E2E2E2E2E2E2E2E2E2E2E2E2E2E2E2E2E2E2E2E2E2E2E2E2E2E2E2E2E2E2E2E2E2E2E2E2E2E2E2E2E2E2E2E2E2E2E2E2E2E2E2E2E2E2E2E2E2E2E2E2E2E2E2E2E2E2E2E2E2E2E2E2E2E2E2E2E2E2E2E2E2E2
310
E2E2E2E2E2E2E2E2E2E2E2E2E2E2E2E2E2E2E2E2E2E2E2E2E2E2E2E2E2E2E2E2E2E2E2E2E2E2E2E2E2E2E2E2E2E2E2E2E2E2E2E2E2E2E2E2E2E2E2E2E2E2E2E2E2E2E2E2E2E2E2E2E2E2E2E2E2E2E2E2E2E2E2E2E2E2E2E2E2E2E2E2E2E2E2E2E2E2E2E2E2E2E2E2E2E2E2E2E2E2E2E2E2E2E2E2E2E2E2E2E2E2E2E2E2E2E2
310
E2E2E2E2E2E2E2E2E2E2E2E2E2E2E2E2E2E2E2E2E2E2E2E2E2E2E2E2E2E2E2E2E2E2E2E2E2E2E2E2E2E2E2E2E2E2E2E2E2E2E2E2E2E2E2E2E2E2E2E2E2E2E2E2E2E2E2E2E2E2E2E2E2E2E2E2E2E2E2E2E2E2E2E2E2E2E2E2E2E2E2E2E2E2E2E2E2E2E2E2E2E2E2E2E2E2E2E2E2E2E2E2E2E2E2E2E2E2E2E2E2E2E2E2E2E2E2
310
E2E2E2E2E2E2E2E2E2E2E2E2E2E2E2E2E2E2E2E2E2E2E2E2E2E2E2E2E2E2E2E2E2E2E2E2E2E2E2E2E2E2E2E2E2E2E2E2E2E2E2E2E2E2E2E2E2E2E2E2E2E2E2E2E2E2E2E2E2E2E2E2E2E2E2E2E2E2E2E2E2E2E2E2E2E2E2E2E2E2E2E2E2E2E2E2E2E2E2E2E2E2E2E2E2E2E2E2E2E2E2E2E2E2E2E2E2E2E2E2E2E2E2E2E2E2E2
310
E2E2E2E2E2E2E2E2E2E2E2E2E2E2E2E2E2E2E2E2E2E2E2E2E2E2E2E2E2E2E2E2E2E2E2E2E2E2E2E2E2E2E2E2E2E2E2E2E2E2E2E2E2E2E2E2E2E2E2E2E2E2E2E2E2E2E2E2E2E2E2E2E2E2E2E2E2E2E2E2E2E2E2E2E2E2E2E2E2E2E2E2E2E2E2E2E2E2E2E2E2E2E2E2E2E2E2E2E2E2E2E2E2E2E2E2E2E2E2E2E2E2E2E2E2E2E2
310
E2E2E2E2E2E2E2E2E2E2E2E2E2E2E2E2E2E2E2E2E2E2E2E2E2E2E2E2E2E2E2E2E2E2E2E2E2E2E2E2E2E2E2E2E2E2E2E2E2E2E2E2E2E2E2E2E2E2E2E2E2E2E2E2E2E2E2E2E2E2E2E2E2E2E2E2E2E2E2E2E2E2E2E2E2E2E2E2E2E2E2E2E2E2E2E2E2E2E2E2E2E2E2E2E2E2E2E2E2E2E2E2E2E2E2E2E2E2E2E2E2E2E2E2E2E2E2
310
E2E2E2E2E2E2E2E2E2E2E2E2E2E2E2E2E2E2E2E2E2E2E2E2E2E2E2E2E2E2E2E2E2E2E2E2E2E2E2E2E2E2E2E2E2E2E2E2E2E2E2E2E2E2E2E2E2E2E2E2E2E2E2E2E2E2E2E2E2E2E2E2E2E2E2E2E2E2E2E2E2E2E2E2E2E2E2E2E2E2E2E2E2E2E2E2E2E2E2E2E2E2E2E2E2E2E2E2E2E2E2E2E2E2E2E2E2E2E2E2E2E2E2E2E2E2E2
310
E2E2E2E2E2E2E2E2E2E2E2E2E2E2E2E2E2E2E2E2E2E2E2E2E2E2E2E2E2E2E2E2E2E2E2E2E2E2E2E2E2E2E2E2E2E2E2E2E2E2E2E2E2E2E2E2E2E2E2E2E2E2E2E2E2E2E2E2E2E2E2E2E2E2E2E2E2E2E2E2E2E2E2E2E2E2E2E2E2E2E2E2E2E2E2E2E2E2E2E2E2E2E2E2E2E2E2E2E2E2E2E2E2E2E2E2E2E2E2E2E2E2E2E2E2E2E2
310
E2E2E2E2E2E2E2E2E2E2E2E2E2E2E2E2E2E2E2E2E2E2E2E2E2E2E2E2E2E2E2E2E2E2E2E2E2E2E2E2E2E2E2E2E2E2E2E2E2E2E2E2E2E2E2E2E2E2E2E2E2E2E2E2E2E2E2E2E2E2E2E2E2E2E2E2E2E2E2E2E2E2E2E2E2E2E2E2E2E2E2E2E2E2E2E2E2E2E2E2E2E2E2E2E2E2E2E2E2E2E2E2E2E2E2E2E2E2E2E2E2E2E2E2E2E2E2
310
E2E2E2E2E2E2E2E2E2E2E2E2E2E2E2E2E2E2E2E2E2E2E2E2E2E2E2E2E2E2E2E2E2E2E2E2E2E2E2E2E2E2E2E2E2E2E2E2E2E2E2E2E2E2E2E2E2E2E2E2E2E2E2E2E2E2E2E2E2E2E2E2E2E2E2E2E2E2E2E2E2E2E2E2E2E2E2E2E2E2E2E2E2E2E2E2E2E2E2E2E2E2E2E2E2E2E2E2E2E2E2E2E2E2E2E2E2E2E2E2E2E2E2E2E2E2E2
310
E2E2E2E2E2E2E2E2E2E2E2E2E2E2E2E2E2E2E2E2E2E2E2E2E2E2E2E2E2E2E2E2E2E2E2E2E2E2E2E2E2E2E2E2E2E2E2E2E2E2E2E2E2E2E2E2E2E2E2E2E2E2E2E2E2E2E2E2E2E2E2E2E2E2E2E2E2E2E2E2E2E2E2E2E2E2E2E2E2E2E2E2E2E2E2E2E2E2E2E2E2E2E2E2E2E2E2E2E2E2E2E2E2E2E2E2E2E2E2E2E2E2E2E2E2E2E2
310
E2E2E2E2E2E2E2E2E2E2E2E2E2E2E2E2E2E2E2E2E2E2E2E2E2E2E2E2E2E2E2E2E2E2E2E2E2E2E2E2E2E2E2E2E2E2E2E2E2E2E2E2E2E2E2E2E2E2E2E2E2E2E2E2E2E2E2E2E2E2E2E2E2E2E2E2E2E2E2E2E2E2E2E2E2E2E2E2E2E2E2E2E2E2E2E2E2E2E2E2E2E2E2E2E2E2E2E2E2E2E2E2E2E2E2E2E2E2E2E2E2E2E2E2E2E2E2
310
E2E2E2E2E2E2E2E2E2E2E2E2E2E2E2E2E2E2E2E2E2E2E2E2E2E2E2E2E2E2E2E2E2E2E2E2E2E2E2E2E2E2E2E2E2E2E2E2E2E2E2E2E2E2E2E2E2E2E2E2E2E2E2E2E2E2E2E2E2E2E2E2E2E2E2E2E2E2E2E2E2E2E2E2E2E2E2E2E2E2E2E2E2E2E2E2E2E2E2E2E2E2E2E2E2E2E2E2E2E2E2E2E2E2E2E2E2E2E2E2E2E2E2E2E2E2E2
310
E2E2E2E2E2E2E2E2E2E2E2E2E2E2E2E2E2E2E2E2E2E2E2E2E2E2E2E2E2E2E2E2E2E2E2E2E2E2E2E2E2E2E2E2E2E2E2E2E2E2E2E2E2E2E2E2E2E2E2E2E2E2E2E2E2E2E2E2E2E2E2E2E2E2E2E2E2E2E2E2E2E2E2E2E2E2E2E2E2E2E2E2E2E2E2E2E2E2E2E2E2E2E2E2E2E2E2E2E2E2E2E2E2E2E2E2E2E2E2E2E2E2E2E2E2E2E2
310
E2E2E2E2E2E2E2E2E2E2E2E2E2E2E2E2E2E2E2E2E2E2E2E2E2E2E2E2E2E2E2E2E2E2E2E2E2E2E2E2E2E2E2E2E2E2E2E2E2E2E2E2E2E2E2E2E2E2E2E2E2E2E2E2E2E2E2E2E2E2E2E2E2E2E2E2E2E2E2E2E2E2E2E2E2E2E2E2E2E2E2E2E2E2E2E2E2E2E2E2E2E2E2E2E2E2E2E2E2E2E2E2E2E2E2E2E2E2E2E2E2E2E2E2E2E2E2
310
E2E2E2E2E2E2E2E2E2E2E2E2E2E2E2E2E2E2E2E2E2E2E2E2E2E2E2E2E2E2E2E2E2E2E2E2E2E2E2E2E2E2E2E2E2E2E2E2E2E2E2E2E2E2E2E2E2E2E2E2E2E2E2E2E2E2E2E2E2E2E2E2E2E2E2E2E2E2E2E2E2E2E2E2E2E2E2E2E2E2E2E2E2E2E2E2E2E2E2E2E2E2E2E2E2E2E2E2E2E2E2E2E2E2E2E2E2E2E2E2E2E2E2E2E2E2E2
310
E2E2E2E2E2E2E2E2E2E2E2E2E2E2E2E2E2E2E2E2E2E2E2E2E2E2E2E2E2E2E2E2E2E2E2E2E2E2E2E2E2E2E2E2E2E2E2E2E2E2E2E2E2E2E2E2E2E2E2E2E2E2E2E2E2E2E2E2E2E2E2E2E2E2E2E2E2E2E2E2E2E2E2E2E2E2E2E2E2E2E2E2E2E2E2E2E2E2E2E2E2E2E2E2E2E2E2E2E2E2E2E2E2E2E2E2E2E2E2E2E2E2E2E2E2E2E2
310
E2E2E2E2E2E2E2E2E2E2E2E2E2E2E2E2E2E2E2E2E2E2E2E2E2E2E2E2E2E2E2E2E2E2E2E2E2E2E2E2E2E2E2E2E2E2E2E2E2E2E2E2E2E2E2E2E2E2E2E2E2E2E2E2E2E2E2E2E2E2E2E2E2E2E2E2E2E2E2E2E2E2E2E2E2E2E2E2E2E2E2E2E2E2E2E2E2E2E2E2E2E2E2E2E2E2E2E2E2E2E2E2E2E2E2E2E2E2E2E2E2E2E2E2E2E2E2
310
E2E2E2E2E2E2E2E2E2E2E2E2E2E2E2E2E2E2E2E2E2E2E2E2E2E2E2E2E2E2E2E2E2E2E2E2E2E2E2E2E2E2E2E2E2E2E2E2E2E2E2E2E2E2E2E2E2E2E2E2E2E2E2E2E2E2E2E2E2E2E2E2E2E2E2E2E2E2E2E2E2E2E2E2E2E2E2E2E2E2E2E2E2E2E2E2E2E2E2E2E2E2E2E2E2E2E2E2E2E2E2E2E2E2E2E2E2E2E2E2E2E2E2E2E2E2E2
310
E2E2E2E2E2E2E2E2E2E2E2E2E2E2E2E2E2E2E2E2E2E2E2E2E2E2E2E2E2E2E2E2E2E2E2E2E2E2E2E2E2E2E2E2E2E2E2E2E2E2E2E2E2E2E2E2E2E2E2E2E2E2E2E2E2E2E2E2E2E2E2E2E2E2E2E2E2E2E2E2E2E2E2E2E2E2E2E2E2E2E2E2E2E2E2E2E2E2E2E2E2E2E2E2E2E2E2E2E2E2E2E2E2E2E2E2E2E2E2E2E2E2E2E2E2E2E2
310
E2E2E2E2E2E2E2E2E2E2E2E2E2E2E2E2E2E2E2E2E2E2E2E2E2E2E2E2E2E2E2E2E2E2E2E2E2E2E2E2E2E2E2E2E2E2E2E2E2E2E2E2E2E2E2E2E2E2E2E2E2E2E2E2E2E2E2E2E2E2E2E2E2E2E2E2E2E2E2E2E2E2E2E2E2E2E2E2E2E2E2E2E2E2E2E2E2E2E2E2E2E2E2E2E2E2E2E2E2E2E2E2E2E2E2E2E2E2E2E2E2E2E2E2E2E2E2
310
E2E2E2E2E2E2E2E2E2E2E2E2E2E2E2E2E2E2E2E2E2E2E2E2E2E2E2E2E2E2E2E2E2E2E2E2E2E2E2E2E2E2E2E2E2E2E2E2E2E2E2E2E2E2E2E2E2E2E2E2E2E2E2E2E2E2E2E2E2E2E2E2E2E2E2E2E2E2E2E2E2E2E2E2E2E2E2E2E2E2E2E2E2E2E2E2E2E2E2E2E2E2E2E2E2E2E2E2E2E2E2E2E2E2E2E2E2E2E2E2E2E2E2E2E2E2E2
310
E2E2E2E2E2E2E2E2E2E2E2E2E2E2E2E2E2E2E2E2E2E2E2E2E2E2E2E2E2E2E2E2E2E2E2E2E2E2E2E2E2E2E2E2E2E2E2E2E2E2E2E2E2E2E2E2E2E2E2E2E2E2E2E2E2E2E2E2E2E2E2E2E2E2E2E2E2E2E2E2E2E2E2E2E2E2E2E2E2E2E2E2E2E2E2E2E2E2E2E2E2E2E2E2E2E2E2E2E2E2E2E2E2E2E2E2E2E2E2E2E2E2E2E2E2E2E2
310
E2E2E2E2E2E2E2E2E2E2E2E2E2E2E2E2E2E2E2E2E2E2E2E2E2E2E2E2E2E2E2E2E2E2E2E2E2E2E2E2E2E2E2E2E2E2E2E2E2E2E2E2E2E2E2E2E2E2E2E2E2E2E2E2E2E2E2E2E2E2E2E2E2E2E2E2E2E2E2E2E2E2E2E2E2E2E2E2E2E2E2E2E2E2E2E2E2E2E2E2E2E2E2E2E2E2E2E2E2E2E2E2E2E2E2E2E2E2E2E2E2E2E2E2E2E2E2
310
E2E2E2E2E2E2E2E2E2E2E2E2E2E2E2E2E2E2E2E2E2E2E2E2E2E2E2E2E2E2E2E2E2E2E2E2E2E2E2E2E2E2E2E2E2E2E2E2E2E2E2E2E2E2E2E2E2E2E2E2E2E2E2E2E2E2E2E2E2E2E2E2E2E2E2E2E2E2E2E2E2E2E2E2E2E2E2E2E2E2E2E2E2E2E2E2E2E2E2E2E2E2E2E2E2E2E2E2E2E2E2E2E2E2E2E2E2E2E2E2E2E2E2E2E2E2E2
310
E2E2E2E2E2E2E2E2E2E2E2E2E2E2E2E2E2E2E2E2E2E2E2E2E2E2E2E2E2E2E2E2E2E2E2E2E2E2E2E2E2E2E2E2E2E2E2E2E2E2E2E2E2E2E2E2E2E2E2E2E2E2E2E2E2E2E2E2E2E2E2E2E2E2E2E2E2E2E2E2E2E2E2E2E2E2E2E2E2E2E2E2E2E2E2E2E2E2E2E2E2E2E2E2E2E2E2E2E2E2E2E2E2E2E2E2E2E2E2E2E2E2E2E2E2E2E2
310
E2E2E2E2E2E2E2E2E2E2E2E2E2E2E2E2E2E2E2E2E2E2E2E2E2E2E2E2E2E2E2E2E2E2E2E2E2E2E2E2E2E2E2E2E2E2E2E2E2E2E2E2E2E2E2E2E2E2E2E2E2E2E2E2E2E2E2E2E2E2E2E2E2E2E2E2E2E2E2E2E2E2E2E2E2E2E2E2E2E2E2E2E2E2E2E2E2E2E2E2E2E2E2E2E2E2E2E2E2E2E2E2E2E2E2E2E2E2E2E2E2E2E2E2E2E2E2
310
E2E2E2E2E2E2E2E2E2E2E2E2E2E2E2E2E2E2E2E2E2E2E2E2E2E2E2E2E2E2E2E2E2E2E2E2E2E2E2E2E2E2E2E2E2E2E2E2E2E2E2E2E2E2E2E2E2E2E2E2E2E2E2E2E2E2E2E2E2E2E2E2E2E2E2E2E2E2E2E2E2E2E2E2E2E2E2E2E2E2E2E2E2E2E2E2E2E2E2E2E2E2E2E2E2E2E2E2E2E2E2E2E2E2E2E2E2E2E2E2E2E2E2E2E2E2E2
310
E2E2E2E2E2E2E2E2E2E2E2E2E2E2E2E2E2E2E2E2E2E2E2E2E2E2E2E2E2E2E2E2E2E2E2E2E2E2E2E2E2E2E2E2E2E2E2E2E2E2E2E2E2E2E2E2E2E2E2E2E2E2E2E2E2E2E2E2E2E2E2E2E2E2E2E2E2E2E2E2E2E2E2E2E2E2E2E2E2E2E2E2E2E2E2E2E2E2E2E2E2E2E2E2E2E2E2E2E2E2E2E2E2E2E2E2E2E2E2E2E2E2E2E2E2E2E2
310
E2E2E2E2E2E2E2E2E2E2E2E2E2E2E2E2E2E2E2E2E2E2E2E2E2E2E2E2E2E2E2E2E2E2E2E2E2E2E2E2E2E2E2E2E2E2E2E2E2E2E2E2E2E2E2E2E2E2E2E2E2E2E2E2E2E2E2E2E2E2E2E2E2E2E2E2E2E2E2E2E2E2E2E2E2E2E2E2E2E2E2E2E2E2E2E2E2E2E2E2E2E2E2E2E2E2E2E2E2E2E2E2E2E2E2E2E2E2E2E2E2E2E2E2E2E2E2
310
E2E2E2E2E2E2E2E2E2E2E2E2E2E2E2E2E2E2E2E2E2E2E2E2E2E2E2E2E2E2E2E2E2E2E2E2E2E2E2E2E2E2E2E2E2E2E2E2E2E2E2E2E2E2E2E2E2E2E2E2E2E2E2E2E2E2E2E2E2E2E2E2E2E2E2E2E2E2E2E2E2E2E2E2E2E2E2E2E2E2E2E2E2E2E2E2E2E2E2E2E2E2E2E2E2E2E2E2E2E2E2E2E2E2E2E2E2E2E2E2E2E2E2E2E2E2E2
310
E2E2E2E2E2E2E2E2E2E2E2E2E2E2E2E2E2E2E2E2E2E2E2E2E2E2E2E2E2E2E2E2E2E2E2E2E2E2E2E2E2E2E2E2E2E2E2E2E2E2E2E2E2E2E2E2E2E2E2E2E2E2E2E2E2E2E2E2E2E2E2E2E2E2E2E2E2E2E2E2E2E2E2E2E2E2E2E2E2E2E2E2E2E2E2E2E2E2E2E2E2E2E2E2E2E2E2E2E2E2E2E2E2E2E2E2E2E2E2E2E2E2E2E2E2E2E2
310
E2E2E2E2E2E2E2E2E2E2E2E2E2E2E2E2E2E2E2E2E2E2E2E2E2E2E2E2E2E2E2E2E2E2E2E2E2E2E2E2E2E2E2E2E2E2E2E2E2E2E2E2E2E2E2E2E2E2E2E2E2E2E2E2E2E2E2E2E2E2E2E2E2E2E2E2E2E2E2E2E2E2E2E2E2E2E2E2E2E2E2E2E2E2E2E2E2E2E2E2E2E2E2E2E2E2E2E2E2E2E2E2E2E2E2E2E2E2E2E2E2E2E2E2E2E2E2
310
E2E2E2E2E2E2E2E2E2E2E2E2E2E2E2E2E2E2E2E2E2E2E2E2E2E2E2E2E2E2E2E2E2E2E2E2E2E2E2E2E2E2E2E2E2E2E2E2E2E2E2E2E2E2E2E2E2E2E2E2E2E2E2E2E2E2E2E2E2E2E2E2E2E2E2E2E2E2E2E2E2E2E2E2E2E2E2E2E2E2E2E2E2E2E2E2E2E2E2E2E2E2E2E2E2E2E2E2E2E2E2E2E2E2E2E2E2E2E2E2E2E2E2E2E2E2E2
310
E2E2E2E2E2E2E2E2E2E2E2E2E2E2E2E2E2E2E2E2E2E2E2E2E2E2E2E2E2E2E2E2E2E2E2E2E2E2E2E2E2E2E2E2E2E2E2E2E2E2E2E2E2E2E2E2E2E2E2E2E2E2E2E2E2E2E2E2E2E2E2E2E2E2E2E2E2E2E2E2E2E2E2E2E2E2E2E2E2E2E2E2E2E2E2E2E2E2E2E2E2E2E2E2E2E2E2E2E2E2E2E2E2E2E2E2E2E2E2E2E2E2E2E2E2E2E2
310
E2E2E2E2E2E2E2E2E2E2E2E2E2E2E2E2E2E2E2E2E2E2E2E2E2E2E2E2E2E2E2E2E2E2E2E2E2E2E2E2E2E2E2E2E2E2E2E2E2E2E2E2E2E2E2E2E2E2E2E2E2E2E2E2E2E2E2E2E2E2E2E2E2E2E2E2E2E2E2E2E2E2E2E2E2E2E2E2E2E2E2E2E2E2E2E2E2E2E2E2E2E2E2E2E2E2E2E2E2E2E2E2E2E2E2E2E2E2E2E2E2E2E2E2E2E2E2
310
E2E2E2E2E2E2E2E2E2E2E2E2E2E2E2E2E2E2E2E2E2E2E2E2E2E2E2E2E2E2E2E2E2E2E2E2E2E2E2E2E2E2E2E2E2E2E2E2E2E2E2E2E2E2E2E2E2E2E2E2E2E2E2E2E2E2E2E2E2E2E2E2E2E2E2E2E2E2E2E2E2E2E2E2E2E2E2E2E2E2E2E2E2E2E2E2E2E2E2E2E2E2E2E2E2E2E2E2E2E2E2E2E2E2E2E2E2E2E2E2E2E2E2E2E2E2E2
310
E2E2E2E2E2E2E2E2E2E2E2E2E2E2E2E2E2E2E2E2E2E2E2E2E2E2E2E2E2E2E2E2E2E2E2E2E2E2E2E2E2E2E2E2E2E2E2E2E2E2E2E2E2E2E2E2E2E2E2E2E2E2E2E2E2E2E2E2E2E2E2E2E2E2E2E2E2E2E2E2E2E2E2E2E2E2E2E2E2E2E2E2E2E2E2E2E2E2E2E2E2E2E2E2E2E2E2E2E2E2E2E2E2E2E2E2E2E2E2E2E2E2E2E2E2E2E2
310
E2E2E2E2E2E2E2E2E2E2E2E2E2E2E2E2E2E2E2E2E2E2E2E2E2E2E2E2E2E2E2E2E2E2E2E2E2E2E2E2E2E2E2E2E2E2E2E2E2E2E2E2E2E2E2E2E2E2E2E2E2E2E2E2E2E2E2E2E2E2E2E2E2E2E2E2E2E2E2E2E2E2E2E2E2E2E2E2E2E2E2E2E2E2E2E2E2E2E2E2E2E2E2E2E2E2E2E2E2E2E2E2E2E2E2E2E2E2E2E2E2E2E2E2E2E2E2
310
E2E2E2E2E2E2E2E2E2E2E2E2E2E2E2E2E2E2E2E2E2E2E2E2E2E2E2E2E2E2E2E2E2E2E2E2E2E2E2E2E2E2E2E2E2E2E2E2E2E2E2E2E2E2E2E2E2E2E2E2E2E2E2E2E2E2E2E2E2E2E2E2E2E2E2E2E2E2E2E2E2E2E2E2E2E2E2E2E2E2E2E2E2E2E2E2E2E2E2E2E2E2E2E2E2E2E2E2E2E2E2E2E2E2E2E2E2E2E2E2E2E2E2E2E2E2E2
310
E2E2E2E2E2E2E2E2E2E2E2E2E2E2E2E2E2E2E2E2E2E2E2E2E2E2E2E2E2E2E2E2E2E2E2E2E2E2E2E2E2E2E2E2E2E2E2E2E2E2E2E2E2E2E2E2E2E2E2E2E2E2E2E2E2E2E2E2E2E2E2E2E2E2E2E2E2E2E2E2E2E2E2E2E2E2E2E2E2E2E2E2E2E2E2E2E2E2E2E2E2E2E2E2E2E2E2E2E2E2E2E2E2E2E2E2E2E2E2E2E2E2E2E2E2E2E2
310
E2E2E2E2E2E2E2E2E2E2E2E2E2E2E2E2E2E2E2E2E2E2E2E2E2E2E2E2E2E2E2E2E2E2E2E2E2E2E2E2E2E2E2E2E2E2E2E2E2E2E2E2E2E2E2E2E2E2E2E2E2E2E2E2E2E2E2E2E2E2E2E2E2E2E2E2E2E2E2E2E2E2E2E2E2E2E2E2E2E2E2E2E2E2E2E2E2E2E2E2E2E2E2E2E2E2E2E2E2E2E2E2E2E2E2E2E2E2E2E2E2E2E2E2E2E2E2
310
E2E2E2E2E2E2E2E2E2E2E2E2E2E2E2E2E2E2E2E2E2E2E2E2E2E2E2E2E2E2E2E2E2E2E2E2E2E2E2E2E2E2E2E2E2E2E2E2E2E2E2E2E2E2E2E2E2E2E2E2E2E2E2E2E2E2E2E2E2E2E2E2E2E2E2E2E2E2E2E2E2E2E2E2E2E2E2E2E2E2E2E2E2E2E2E2E2E2E2E2E2E2E2E2E2E2E2E2E2E2E2E2E2E2E2E2E2E2E2E2E2E2E2E2E2E2E2
310
E2E2E2E2E2E2E2E2E2E2E2E2E2E2E2E2E2E2E2E2E2E2E2E2E2E2E2E2E2E2E2E2E2E2E2E2E2E2E2E2E2E2E2E2E2E2E2E2E2E2E2E2E2E2E2E2E2E2E2E2E2E2E2E2E2E2E2E2E2E2E2E2E2E2E2E2E2E2E2E2E2E2E2E2E2E2E2E2E2E2E2E2E2E2E2E2E2E2E2E2E2E2E2E2E2E2E2E2E2E2E2E2E2E2E2E2E2E2E2E2E2E2E2E2E2E2E2
310
E2E2E2E2E2E2E2E2E2E2E2E2E2E2E2E2E2E2E2E2E2E2E2E2E2E2E2E2E2E2E2E2E2E2E2E2E2E2E2E2E2E2E2E2E2E2E2E2E2E2E2E2E2E2E2E2E2E2E2E2E2E2E2E2E2E2E2E2E2E2E2E2E2E2E2E2E2E2E2E2E2E2E2E2E2E2E2E2E2E2E2E2E2E2E2E2E2E2E2E2E2E2E2E2E2E2E2E2E2E2E2E2E2E2E2E2E2E2E2E2E2E2E2E2E2E2E2
310
E2E2E2E2E2E2E2E2E2E2E2E2E2E2E2E2E2E2E2E2E2E2E2E2E2E2E2E2E2E2E2E2E2E2E2E2E2E2E2E2E2E2E2E2E2E2E2E2E2E2E2E2E2E2E2E2E2E2E2E2E2E2E2E2E2E2E2E2E2E2E2E2E2E2E2E2E2E2E2E2E2E2E2E2E2E2E2E2E2E2E2E2E2E2E2E2E2E2E2E2E2E2E2E2E2E2E2E2E2E2E2E2E2E2E2E2E2E2E2E2E2E2E2E2E2E2E2
310
E2E2E2E2E2E2E2E2E2E2E2E2E2E2E2E2E2E2E2E2E2E2E2E2E2E2E2E2E2E2E2E2E2E2E2E2E2E2E2E2E2E2E2E2E2E2E2E2E2E2E2E2E2E2E2E2E2E2E2E2E2E2E2E2E2E2E2E2E2E2E2E2E2E2E2E2E2E2E2E2E2E2E2E2E2E2E2E2E2E2E2E2E2E2E2E2E2E2E2E2E2E2E2E2E2E2E2E2E2E2E2E2E2E2E2E2E2E2E2E2E2E2E2E2E2E2E2
310
E2E2E2E2E2E2E2E2E2E2E2E2E2E2E2E2E2E2E2E2E2E2E2E2E2E2E2E2E2E2E2E2E2E2E2E2E2E2E2E2E2E2E2E2E2E2E2E2E2E2E2E2E2E2E2E2E2E2E2E2E2E2E2E2E2E2E2E2E2E2E2E2E2E2E2E2E2E2E2E2E2E2E2E2E2E2E2E2E2E2E2E2E2E2E2E2E2E2E2E2E2E2E2E2E2E2E2E2E2E2E2E2E2E2E2E2E2E2E2E2E2E2E2E2E2E2E2
310
E2E2E2E2E2E2E2E2E2E2E2E2E2E2E2E2E2E2E2E2E2E2E2E2E2E2E2E2E2E2E2E2E2E2E2E2E2E2E2E2E2E2E2E2E2E2E2E2E2E2E2E2E2E2E2E2E2E2E2E2E2E2E2E2E2E2E2E2E2E2E2E2E2E2E2E2E2E2E2E2E2E2E2E2E2E2E2E2E2E2E2E2E2E2E2E2E2E2E2E2E2E2E2E2E2E2E2E2E2E2E2E2E2E2E2E2E2E2E2E2E2E2E2E2E2E2E2
310
E2E2E2E2E2E2E2E2E2E2E2E2E2E2E2E2E2E2E2E2E2E2E2E2E2E2E2E2E2E2E2E2E2E2E2E2E2E2E2E2E2E2E2E2E2E2E2E2E2E2E2E2E2E2E2E2E2E2E2E2E2E2E2E2E2E2E2E2E2E2E2E2E2E2E2E2E2E2E2E2E2E2E2E2E2E2E2E2E2E2E2E2E2E2E2E2E2E2E2E2E2E2E2E2E2E2E2E2E2E2E2E2E2E2E2E2E2E2E2E2E2E2E2E2E2E2E2
310
E2E2E2E2E2E2E2E2E2E2E2E2E2E2E2E2E2E2E2E2E2E2E2E2E2E2E2E2E2E2E2E2E2E2E2E2E2E2E2E2E2E2E2E2E2E2E2E2E2E2E2E2E2E2E2E2E2E2E2E2E2E2E2E2E2E2E2E2E2E2E2E2E2E2E2E2E2E2E2E2E2E2E2E2E2E2E2E2E2E2E2E2E2E2E2E2E2E2E2E2E2E2E2E2E2E2E2E2E2E2E2E2E2E2E2E2E2E2E2E2E2E2E2E2E2E2E2
310
E2E2E2E2E2E2E2E2E2E2E2E2E2E2E2E2E2E2E2E2E2E2E2E2E2E2E2E2E2E2E2E2E2E2E2E2E2E2E2E2E2E2E2E2E2E2E2E2E2E2E2E2E2E2E2E2E2E2E2E2E2E2E2E2E2E2E2E2E2E2E2E2E2E2E2E2E2E2E2E2E2E2E2E2E2E2E2E2E2E2E2E2E2E2E2E2E2E2E2E2E2E2E2E2E2E2E2E2E2E2E2E2E2E2E2E2E2E2E2E2E2E2E2E2E2E2E2
310
E2E2E2E2E2E2E2E2E2E2E2E2E2E2E2E2E2E2E2E2E2E2E2E2E2E2E2E2E2E2E2E2E2E2E2E2E2E2E2E2E2E2E2E2E2E2E2E2E2E2E2E2E2E2E2E2E2E2E2E2E2E2E2E2E2E2E2E2E2E2E2E2E2E2E2E2E2E2E2E2E2E2E2E2E2E2E2E2E2E2E2E2E2E2E2E2E2E2E2E2E2E2E2E2E2E2E2E2E2E2E2E2E2E2E2E2E2E2E2E2E2E2E2E2E2E2E2
310
E2E2E2E2E2E2E2E2E2E2E2E2E2E2E2E2E2E2E2E2E2E2E2E2E2E2E2E2E2E2E2E2E2E2E2E2E2E2E2E2E2E2E2E2E2E2E2E2E2E2E2E2E2E2E2E2E2E2E2E2E2E2E2E2E2E2E2E2E2E2E2E2E2E2E2E2E2E2E2E2E2E2E2E2E2E2E2E2E2E2E2E2E2E2E2E2E2E2E2E2E2E2E2E2E2E2E2E2E2E2E2E2E2E2E2E2E2E2E2E2E2E2E2E2E2E2E2
310
E2E2E2E2E2E2E2E2E2E2E2E2E2E2E2E2E2E2E2E2E2E2E2E2E2E2E2E2E2E2E2E2E2E2E2E2E2E2E2E2E2E2E2E2E2E2E2E2E2E2E2E2E2E2E2E2E2E2E2E2E2E2E2E2E2E2E2E2E2E2E2E2E2E2E2E2E2E2E2E2E2E2E2E2E2E2E2E2E2E2E2E2E2E2E2E2E2E2E2E2E2E2E2E2E2E2E2E2E2E2E2E2E2E2E2E2E2E2E2E2E2E2E2E2E2E2E2
310
E2E2E2E2E2E2E2E2E2E2E2E2E2E2E2E2E2E2E2E2E2E2E2E2E2E2E2E2E2E2E2E2E2E2E2E2E2E2E2E2E2E2E2E2E2E2E2E2E2E2E2E2E2E2E2E2E2E2E2E2E2E2E2E2E2E2E2E2E2E2E2E2E2E2E2E2E2E2E2E2E2E2E2E2E2E2E2E2E2E2E2E2E2E2E2E2E2E2E2E2E2E2E2E2E2E2E2E2E2E2E2E2E2E2E2E2E2E2E2E2E2E2E2E2E2E2E2
310
E2E2E2E2E2E2E2E2E2E2E2E2E2E2E2E2E2E2E2E2E2E2E2E2E2E2E2E2E2E2E2E2E2E2E2E2E2E2E2E2E2E2E2E2E2E2E2E2E2E2E2E2E2E2E2E2E2E2E2E2E2E2E2E2E2E2E2E2E2E2E2E2E2E2E2E2E2E2E2E2E2E2E2E2E2E2E2E2E2E2E2E2E2E2E2E2E2E2E2E2E2E2E2E2E2E2E2E2E2E2E2E2E2E2E2E2E2E2E2E2E2E2E2E2E2E2E2
310
E2E2E2E2E2E2E2E2E2E2E2E2E2E2E2E2E2E2E2E2E2E2E2E2E2E2E2E2E2E2E2E2E2E2E2E2E2E2E2E2E2E2E2E2E2E2E2E2E2E2E2E2E2E2E2E2E2E2E2E2E2E2E2E2E2E2E2E2E2E2E2E2E2E2E2E2E2E2E2E2E2E2E2E2E2E2E2E2E2E2E2E2E2E2E2E2E2E2E2E2E2E2E2E2E2E2E2E2E2E2E2E2E2E2E2E2E2E2E2E2E2E2E2E2E2E2E2
310
E2E2E2E2E2E2E2E2E2E2E2E2E2E2E2E2E2E2E2E2E2E2E2E2E2E2E2E2E2E2E2E2E2E2E2E2E2E2E2E2E2E2E2E2E2E2E2E2E2E2E2E2E2E2E2E2E2E2E2E2E2E2E2E2E2E2E2E2E2E2E2E2E2E2E2E2E2E2E2E2E2E2E2E2E2E2E2E2E2E2E2E2E2E2E2E2E2E2E2E2E2E2E2E2E2E2E2E2E2E2E2E2E2E2E2E2E2E2E2E2E2E2E2E2E2E2E2
310
E2E2E2E2E2E2E2E2E2E2E2E2E2E2E2E2E2E2E2E2E2E2E2E2E2E2E2E2E2E2E2E2E2E2E2E2E2E2E2E2E2E2E2E2E2E2E2E2E2E2E2E2E2E2E2E2E2E2E2E2E2E2E2E2E2E2E2E2E2E2E2E2E2E2E2E2E2E2E2E2E2E2E2E2E2E2E2E2E2E2E2E2E2E2E2E2E2E2E2E2E2E2E2E2E2E2E2E2E2E2E2E2E2E2E2E2E2E2E2E2E2E2E2E2E2E2E2
310
E2E2E2E2E2E2E2E2E2E2E2E2E2E2E2E2E2E2E2E2E2E2E2E2E2E2E2E2E2E2E2E2E2E2E2E2E2E2E2E2E2E2E2E2E2E2E2E2E2E2E2E2E2E2E2E2E2E2E2E2E2E2E2E2E2E2E2E2E2E2E2E2E2E2E2E2E2E2E2E2E2E2E2E2E2E2E2E2E2E2E2E2E2E2E2E2E2E2E2E2E2E2E2E2E2E2E2E2E2E2E2E2E2E2E2E2E2E2E2E2E2E2E2E2E2E2E2
310
E2E2E2E2E2E2E2E2E2E2E2E2E2E2E2E2E2E2E2E2E2E2E2E2E2E2E2E2E2E2E2E2E2E2E2E2E2E2E2E2E2E2E2E2E2E2E2E2E2E2E2E2E2E2E2E2E2E2E2E2E2E2E2E2E2E2E2E2E2E2E2E2E2E2E2E2E2E2E2E2E2E2E2E2E2E2E2E2E2E2E2E2E2E2E2E2E2E2E2E2E2E2E2E2E2E2E2E2E2E2E2E2E2E2E2E2E2E2E2E2E2E2E2E2E2E2E2
310
E2E2E2E2E2E2E2E2E2E2E2E2E2E2E2E2E2E2E2E2E2E2E2E2E2E2E2E2E2E2E2E2E2E2E2E2E2E2E2E2E2E2E2E2E2E2E2E2E2E2E2E2E2E2E2E2E2E2E2E2E2E2E2E2E2E2E2E2E2E2E2E2E2E2E2E2E2E2E2E2E2E2E2E2E2E2E2E2E2E2E2E2E2E2E2E2E2E2E2E2E2E2E2E2E2E2E2E2E2E2E2E2E2E2E2E2E2E2E2E2E2E2E2E2E2E2E2
310
E2E2E2E2E2E2E2E2E2E2E2E2E2E2E2E2E2E2E2E2E2E2E2E2E2E2E2E2E2E2E2E2E2E2E2E2E2E2E2E2E2E2E2E2E2E2E2E2E2E2E2E2E2E2E2E2E2E2E2E2E2E2E2E2E2E2E2E2E2E2E2E2E2E2E2E2E2E2E2E2E2E2E2E2E2E2E2E2E2E2E2E2E2E2E2E2E2E2E2E2E2E2E2E2E2E2E2E2E2E2E2E2E2E2E2E2E2E2E2E2E2E2E2E2E2E2E2
310
E2E2E2E2E2E2E2E2E2E2E2E2E2E2E2E2E2E2E2E2E2E2E2E2E2E2E2E2E2E2E2E2E2E2E2E2E2E2E2E2E2E2E2E2E2E2E2E2E2E2E2E2E2E2E2E2E2E2E2E2E2E2E2E2E2E2E2E2E2E2E2E2E2E2E2E2E2E2E2E2E2E2E2E2E2E2E2E2E2E2E2E2E2E2E2E2E2E2E2E2E2E2E2E2E2E2E2E2E2E2E2E2E2E2E2E2E2E2E2E2E2E2E2E2E2E2E2
310
E2E2E2E2E2E2E2E2E2E2E2E2E2E2E2E2E2E2E2E2E2E2E2E2E2E2E2E2E2E2E2E2E2E2E2E2E2E2E2E2E2E2E2E2E2E2E2E2E2E2E2E2E2E2E2E2E2E2E2E2E2E2E2E2E2E2E2E2E2E2E2E2E2E2E2E2E2E2E2E2E2E2E2E2E2E2E2E2E2E2E2E2E2E2E2E2E2E2E2E2E2E2E2E2E2E2E2E2E2E2E2E2E2E2E2E2E2E2E2E2E2E2E2E2E2E2E2
310
E2E2E2E2E2E2E2E2E2E2E2E2E2E2E2E2E2E2E2E2E2E2E2E2E2E2E2E2E2E2E2E2E2E2E2E2E2E2E2E2E2E2E2E2E2E2E2E2E2E2E2E2E2E2E2E2E2E2E2E2E2E2E2E2E2E2E2E2E2E2E2E2E2E2E2E2E2E2E2E2E2E2E2E2E2E2E2E2E2E2E2E2E2E2E2E2E2E2E2E2E2E2E2E2E2E2E2E2E2E2E2E2E2E2E2E2E2E2E2E2E2E2E2E2E2E2E2
310
E2E2E2E2E2E2E2E2E2E2E2E2E2E2E2E2E2E2E2E2E2E2E2E2E2E2E2E2E2E2E2E2E2E2E2E2E2E2E2E2E2E2E2E2E2E2E2E2E2E2E2E2E2E2E2E2E2E2E2E2E2E2E2E2E2E2E2E2E2E2E2E2E2E2E2E2E2E2E2E2E2E2E2E2E2E2E2E2E2E2E2E2E2E2E2E2E2E2E2E2E2E2E2E2E2E2E2E2E2E2E2E2E2E2E2E2E2E2E2E2E2E2E2E2E2E2E2
310
E2E2E2E2E2E2E2E2E2E2E2E2E2E2E2E2E2E2E2E2E2E2E2E2E2E2E2E2E2E2E2E2E2E2E2E2E2E2E2E2E2E2E2E2E2E2E2E2E2E2E2E2E2E2E2E2E2E2E2E2E2E2E2E2E2E2E2E2E2E2E2E2E2E2E2E2E2E2E2E2E2E2E2E2E2E2E2E2E2E2E2E2E2E2E2E2E2E2E2E2E2E2E2E2E2E2E2E2E2E2E2E2E2E2E2E2E2E2E2E2E2E2E2E2E2E2E2
310
E2E2E2E2E2E2E2E2E2E2E2E2E2E2E2E2E2E2E2E2E2E2E2E2E2E2E2E2E2E2E2E2E2E2E2E2E2E2E2E2E2E2E2E2E2E2E2E2E2E2E2E2E2E2E2E2E2E2E2E2E2E2E2E2E2E2E2E2E2E2E2E2E2E2E2E2E2E2E2E2E2E2E2E2E2E2E2E2E2E2E2E2E2E2E2E2E2E2E2E2E2E2E2E2E2E2E2E2E2E2E2E2E2E2E2E2E2E2E2E2E2E2E2E2E2E2E2
310
E2E2E2E2E2E2E2E2E2E2E2E2E2E2E2E2E2E2E2E2E2E2E2E2E2E2E2E2E2E2E2E2E2E2E2E2E2E2E2E2E2E2E2E2E2E2E2E2E2E2E2E2E2E2E2E2E2E2E2E2E2E2E2E2E2E2E2E2E2E2E2E2E2E2E2E2E2E2E2E2E2E2E2E2E2E2E2E2E2E2E2E2E2E2E2E2E2E2E2E2E2E2E2E2E2E2E2E2E2E2E2E2E2E2E2E2E2E2E2E2E2E2E2E2E2E2E2
310
E2E2E2E2E2E2E2E2E2E2E2E2E2E2E2E2E2E2E2E2E2E2E2E2E2E2E2E2E2E2E2E2E2E2E2E2E2E2E2E2E2E2E2E2E2E2E2E2E2E2E2E2E2E2E2E2E2E2E2E2E2E2E2E2E2E2E2E2E2E2E2E2E2E2E2E2E2E2E2E2E2E2E2E2E2E2E2E2E2E2E2E2E2E2E2E2E2E2E2E2E2E2E2E2E2E2E2E2E2E2E2E2E2E2E2E2E2E2E2E2E2E2E2E2E2E2E2
310
E2E2E2E2E2E2E2E2E2E2E2E2E2E2E2E2E2E2E2E2E2E2E2E2E2E2E2E2E2E2E2E2E2E2E2E2E2E2E2E2E2E2E2E2E2E2E2E2E2E2E2E2E2E2E2E2E2E2E2E2E2E2E2E2E2E2E2E2E2E2E2E2E2E2E2E2E2E2E2E2E2E2E2E2E2E2E2E2E2E2E2E2E2E2E2E2E2E2E2E2E2E2E2E2E2E2E2E2E2E2E2E2E2E2E2E2E2E2E2E2E2E2E2E2E2E2E2
310
E2E2E2E2E2E2E2E2E2E2E2E2E2E2E2E2E2E2E2E2E2E2E2E2E2E2E2E2E2E2E2E2E2E2E2E2E2E2E2E2E2E2E2E2E2E2E2E2E2E2E2E2E2E2E2E2E2E2E2E2E2E2E2E2E2E2E2E2E2E2E2E2E2E2E2E2E2E2E2E2E2E2E2E2E2E2E2E2E2E2E2E2E2E2E2E2E2E2E2E2E2E2E2E2E2E2E2E2E2E2E2E2E2E2E2E2E2E2E2E2E2E2E2E2E2E2E2
310
E2E2E2E2E2E2E2E2E2E2E2E2E2E2E2E2E2E2E2E2E2E2E2E2E2E2E2E2E2E2E2E2E2E2E2E2E2E2E2E2E2E2E2E2E2E2E2E2E2E2E2E2E2E2E2E2E2E2E2E2E2E2E2E2E2E2E2E2E2E2E2E2E2E2E2E2E2E2E2E2E2E2E2E2E2E2E2E2E2E2E2E2E2E2E2E2E2E2E2E2E2E2E2E2E2E2E2E2E2E2E2E2E2E2E2E2E2E2E2E2E2E2E2E2E2E2E2
310
E2E2E2E2E2E2E2E2E2E2E2E2E2E2E2E2E2E2E2E2E2E2E2E2E2E2E2E2E2E2E2E2E2E2E2E2E2E2E2E2E2E2E2E2E2E2E2E2E2E2E2E2E2E2E2E2E2E2E2E2E2E2E2E2E2E2E2E2E2E2E2E2E2E2E2E2E2E2E2E2E2E2E2E2E2E2E2E2E2E2E2E2E2E2E2E2E2E2E2E2E2E2E2E2E2E2E2E2E2E2E2E2E2E2E2E2E2E2E2E2E2E2E2E2E2E2E2
310
E2E2E2E2E2E2E2E2E2E2E2E2E2E2E2E2E2E2E2E2E2E2E2E2E2E2E2E2E2E2E2E2E2E2E2E2E2E2E2E2E2E2E2E2E2E2E2E2E2E2E2E2E2E2E2E2E2E2E2E2E2E2E2E2E2E2E2E2E2E2E2E2E2E2E2E2E2E2E2E2E2E2E2E2E2E2E2E2E2E2E2E2E2E2E2E2E2E2E2E2E2E2E2E2E2E2E2E2E2E2E2E2E2E2E2E2E2E2E2E2E2E2E2E2E2E2E2
310
E2E2E2E2E2E2E2E2E2E2E2E2E2E2E2E2E2E2E2E2E2E2E2E2E2E2E2E2E2E2E2E2E2E2E2E2E2E2E2E2E2E2E2E2E2E2E2E2E2E2E2E2E2E2E2E2E2E2E2E2E2E2E2E2E2E2E2E2E2E2E2E2E2E2E2E2E2E2E2E2E2E2E2E2E2E2E2E2E2E2E2E2E2E2E2E2E2E2E2E2E2E2E2E2E2E2E2E2E2E2E2E2E2E2E2E2E2E2E2E2E2E2E2E2E2E2E2
310
E2E2E2E2E2E2E2E2E2E2E2E2E2E2E2E2E2E2E2E2E2E2E2E2E2E2E2E2E2E2E2E2E2E2E2E2E2E2E2E2E2E2E2E2E2E2E2E2E2E2E2E2E2E2E2E2E2E2E2E2E2E2E2E2E2E2E2E2E2E2E2E2E2E2E2E2E2E2E2E2E2E2E2E2E2E2E2E2E2E2E2E2E2E2E2E2E2E2E2E2E2E2E2E2E2E2E2E2E2E2E2E2E2E2E2E2E2E2E2E2E2E2E2E2E2E2E2
310
E2E2E2E2E2E2E2E2E2E2E2E2E2E2E2E2E2E2E2E2E2E2E2E2E2E2E2E2E2E2E2E2E2E2E2E2E2E2E2E2E2E2E2E2E2E2E2E2E2E2E2E2E2E2E2E2E2E2E2E2E2E2E2E2E2E2E2E2E2E2E2E2E2E2E2E2E2E2E2E2E2E2E2E2E2E2E2E2E2E2E2E2E2E2E2E2E2E2E2E2E2E2E2E2E2E2E2E2E2E2E2E2E2E2E2E2E2E2E2E2E2E2E2E2E2E2E2
310
E2E2E2E2E2E2E2E2E2E2E2E2E2E2E2E2E2E2E2E2E2E2E2E2E2E2E2E2E2E2E2E2E2E2E2E2E2E2E2E2E2E2E2E2E2E2E2E2E2E2E2E2E2E2E2E2E2E2E2E2E2E2E2E2E2E2E2E2E2E2E2E2E2E2E2E2E2E2E2E2E2E2E2E2E2E2E2E2E2E2E2E2E2E2E2E2E2E2E2E2E2E2E2E2E2E2E2E2E2E2E2E2E2E2E2E2E2E2E2E2E2E2E2E2E2E2E2
310
E2E2E2E2E2E2E2E2E2E2E2E2E2E2E2E2E2E2E2E2E2E2E2E2E2E2E2E2E2E2E2E2E2E2E2E2E2E2E2E2E2E2E2E2E2E2E2E2E2E2E2E2E2E2E2E2E2E2E2E2E2E2E2E2E2E2E2E2E2E2E2E2E2E2E2E2E2E2E2E2E2E2E2E2E2E2E2E2E2E2E2E2E2E2E2E2E2E2E2E2E2E2E2E2E2E2E2E2E2E2E2E2E2E2E2E2E2E2E2E2E2E2E2E2E2E2E2
310
E2E2E2E2E2E2E2E2E2E2E2E2E2E2E2E2E2E2E2E2E2E2E2E2E2E2E2E2E2E2E2E2E2E2E2E2E2E2E2E2E2E2E2E2E2E2E2E2E2E2E2E2E2E2E2E2E2E2E2E2E2E2E2E2E2E2E2E2E2E2E2E2E2E2E2E2E2E2E2E2E2E2E2E2E2E2E2E2E2E2E2E2E2E2E2E2E2E2E2E2E2E2E2E2E2E2E2E2E2E2E2E2E2E2E2E2E2E2E2E2E2E2E2E2E2E2E2
310
E2E2E2E2E2E2E2E2E2E2E2E2E2E2E2E2E2E2E2E2E2E2E2E2E2E2E2E2E2E2E2E2E2E2E2E2E2E2E2E2E2E2E2E2E2E2E2E2E2E2E2E2E2E2E2E2E2E2E2E2E2E2E2E2E2E2E2E2E2E2E2E2E2E2E2E2E2E2E2E2E2E2E2E2E2E2E2E2E2E2E2E2E2E2E2E2E2E2E2E2E2E2E2E2E2E2E2E2E2E2E2E2E2E2E2E2E2E2E2E2E2E2E2E2E2E2E2
310
E2E2E2E2E2E2E2E2E2E2E2E2E2E2E2E2E2E2E2E2E2E2E2E2E2E2E2E2E2E2E2E2E2E2E2E2E2E2E2E2E2E2E2E2E2E2E2E2E2E2E2E2E2E2E2E2E2E2E2E2E2E2E2E2E2E2E2E2E2E2E2E2E2E2E2E2E2E2E2E2E2E2E2E2E2E2E2E2E2E2E2E2E2E2E2E2E2E2E2E2E2E2E2E2E2E2E2E2E2E2E2E2E2E2E2E2E2E2E2E2E2E2E2E2E2E2E2
310
E2E2E2E2E2E2E2E2E2E2E2E2E2E2E2E2E2E2E2E2E2E2E2E2E2E2E2E2E2E2E2E2E2E2E2E2E2E2E2E2E2E2E2E2E2E2E2E2E2E2E2E2E2E2E2E2E2E2E2E2E2E2E2E2E2E2E2E2E2E2E2E2E2E2E2E2E2E2E2E2E2E2E2E2E2E2E2E2E2E2E2E2E2E2E2E2E2E2E2E2E2E2E2E2E2E2E2E2E2E2E2E2E2E2E2E2E2E2E2E2E2E2E2E2E2E2E2
310
E2E2E2E2E2E2E2E2E2E2E2E2E2E2E2E2E2E2E2E2E2E2E2E2E2E2E2E2E2E2E2E2E2E2E2E2E2E2E2E2E2E2E2E2E2E2E2E2E2E2E2E2E2E2E2E2E2E2E2E2E2E2E2E2E2E2E2E2E2E2E2E2E2E2E2E2E2E2E2E2E2E2E2E2E2E2E2E2E2E2E2E2E2E2E2E2E2E2E2E2E2E2E2E2E2E2E2E2E2E2E2E2E2E2E2E2E2E2E2E2E2E2E2E2E2E2E2
310
E2E2E2E2E2E2E2E2E2E2E2E2E2E2E2E2E2E2E2E2E2E2E2E2E2E2E2E2E2E2E2E2E2E2E2E2E2E2E2E2E2E2E2E2E2E2E2E2E2E2E2E2E2E2E2E2E2E2E2E2E2E2E2E2E2E2E2E2E2E2E2E2E2E2E2E2E2E2E2E2E2E2E2E2E2E2E2E2E2E2E2E2E2E2E2E2E2E2E2E2E2E2E2E2E2E2E2E2E2E2E2E2E2E2E2E2E2E2E2E2E2E2E2E2E2E2E2
310
E2E2E2E2E2E2E2E2E2E2E2E2E2E2E2E2E2E2E2E2E2E2E2E2E2E2E2E2E2E2E2E2E2E2E2E2E2E2E2E2E2E2E2E2E2E2E2E2E2E2E2E2E2E2E2E2E2E2E2E2E2E2E2E2E2E2E2E2E2E2E2E2E2E2E2E2E2E2E2E2E2E2E2E2E2E2E2E2E2E2E2E2E2E2E2E2E2E2E2E2E2E2E2E2E2E2E2E2E2E2E2E2E2E2E2E2E2E2E2E2E2E2E2E2E2E2E2
310
E2E2E2E2E2E2E2E2E2E2E2E2E2E2E2E2E2E2E2E2E2E2E2E2E2E2E2E2E2E2E2E2E2E2E2E2E2E2E2E2E2E2E2E2E2E2E2E2E2E2E2E2E2E2E2E2E2E2E2E2E2E2E2E2E2E2E2E2E2E2E2E2E2E2E2E2E2E2E2E2E2E2E2E2E2E2E2E2E2E2E2E2E2E2E2E2E2E2E2E2E2E2E2E2E2E2E2E2E2E2E2E2E2E2E2E2E2E2E2E2E2E2E2E2E2E2E2
310
E2E2E2E2E2E2E2E2E2E2E2E2E2E2E2E2E2E2E2E2E2E2E2E2E2E2E2E2E2E2E2E2E2E2E2E2E2E2E2E2E2E2E2E2E2E2E2E2E2E2E2E2E2E2E2E2E2E2E2E2E2E2E2E2E2E2E2E2E2E2E2E2E2E2E2E2E2E2E2E2E2E2E2E2E2E2E2E2E2E2E2E2E2E2E2E2E2E2E2E2E2E2E2E2E2E2E2E2E2E2E2E2E2E2E2E2E2E2E2E2E2E2E2E2E2E2E2
310
E2E2E2E2E2E2E2E2E2E2E2E2E2E2E2E2E2E2E2E2E2E2E2E2E2E2E2E2E2E2E2E2E2E2E2E2E2E2E2E2E2E2E2E2E2E2E2E2E2E2E2E2E2E2E2E2E2E2E2E2E2E2E2E2E2E2E2E2E2E2E2E2E2E2E2E2E2E2E2E2E2E2E2E2E2E2E2E2E2E2E2E2E2E2E2E2E2E2E2E2E2E2E2E2E2E2E2E2E2E2E2E2E2E2E2E2E2E2E2E2E2E2E2E2E2E2E2
310
E2E2E2E2E2E2E2E2E2E2E2E2E2E2E2E2E2E2E2E2E2E2E2E2E2E2E2E2E2E2E2E2E2E2E2E2E2E2E2E2E2E2E2E2E2E2E2E2E2E2E2E2E2E2E2E2E2E2E2E2E2E2E2E2E2E2E2E2E2E2E2E2E2E2E2E2E2E2E2E2E2E2E2E2E2E2E2E2E2E2E2E2E2E2E2E2E2E2E2E2E2E2E2E2E2E2E2E2E2E2E2E2E2E2E2E2E2E2E2E2E2E2E2E2E2E2E2
310
E2E2E2E2E2E2E2E2E2E2E2E2E2E2E2E2E2E2E2E2E2E2E2E2E2E2E2E2E2E2E2E2E2E2E2E2E2E2E2E2E2E2E2E2E2E2E2E2E2E2E2E2E2E2E2E2E2E2E2E2E2E2E2E2E2E2E2E2E2E2E2E2E2E2E2E2E2E2E2E2E2E2E2E2E2E2E2E2E2E2E2E2E2E2E2E2E2E2E2E2E2E2E2E2E2E2E2E2E2E2E2E2E2E2E2E2E2E2E2E2E2E2E2E2E2E2E2
310
E2E2E2E2E2E2E2E2E2E2E2E2E2E2E2E2E2E2E2E2E2E2E2E2E2E2E2E2E2E2E2E2E2E2E2E2E2E2E2E2E2E2E2E2E2E2E2E2E2E2E2E2E2E2E2E2E2E2E2E2E2E2E2E2E2E2E2E2E2E2E2E2E2E2E2E2E2E2E2E2E2E2E2E2E2E2E2E2E2E2E2E2E2E2E2E2E2E2E2E2E2E2E2E2E2E2E2E2E2E2E2E2E2E2E2E2E2E2E2E2E2E2E2E2E2E2E2
310
E2E2E2E2E2E2E2E2E2E2E2E2E2E2E2E2E2E2E2E2E2E2E2E2E2E2E2E2E2E2E2E2E2E2E2E2E2E2E2E2E2E2E2E2E2E2E2E2E2E2E2E2E2E2E2E2E2E2E2E2E2E2E2E2E2E2E2E2E2E2E2E2E2E2E2E2E2E2E2E2E2E2E2E2E2E2E2E2E2E2E2E2E2E2E2E2E2E2E2E2E2E2E2E2E2E2E2E2E2E2E2E2E2E2E2E2E2E2E2E2E2E2E2E2E2E2E2
310
E2E2E2E2E2E2E2E2E2E2E2E2E2E2E2E2E2E2E2E2E2E2E2E2E2E2E2E2E2E2E2E2E2E2E2E2E2E2E2E2E2E2E2E2E2E2E2E2E2E2E2E2E2E2E2E2E2E2E2E2E2E2E2E2E2E2E2E2E2E2E2E2E2E2E2E2E2E2E2E2E2E2E2E2E2E2E2E2E2E2E2E2E2E2E2E2E2E2E2E2E2E2E2E2E2E2E2E2E2E2E2E2E2E2E2E2E2E2E2E2E2E2E2E2E2E2E2
310
E2E2E2E2E2E2E2E2E2E2E2E2E2E2E2E2E2E2E2E2E2E2E2E2E2E2E2E2E2E2E2E2E2E2E2E2E2E2E2E2E2E2E2E2E2E2E2E2E2E2E2E2E2E2E2E2E2E2E2E2E2E2E2E2E2E2E2E2E2E2E2E2E2E2E2E2E2E2E2E2E2E2E2E2E2E2E2E2E2E2E2E2E2E2E2E2E2E2E2E2E2E2E2E2E2E2E2E2E2E2E2E2E2E2E2E2E2E2E2E2E2E2E2E2E2E2E2
310
E2E2E2E2E2E2E2E2E2E2E2E2E2E2E2E2E2E2E2E2E2E2E2E2E2E2E2E2E2E2E2E2E2E2E2E2E2E2E2E2E2E2E2E2E2E2E2E2E2E2E2E2E2E2E2E2E2E2E2E2E2E2E2E2E2E2E2E2E2E2E2E2E2E2E2E2E2E2E2E2E2E2E2E2E2E2E2E2E2E2E2E2E2E2E2E2E2E2E2E2E2E2E2E2E2E2E2E2E2E2E2E2E2E2E2E2E2E2E2E2E2E2E2E2E2E2E2
310
E2E2E2E2E2E2E2E2E2E2E2E2E2E2E2E2E2E2E2E2E2E2E2E2E2E2E2E2E2E2E2E2E2E2E2E2E2E2E2E2
  0
XRECORD
  5
175
102
{ACAD_REACTORS
330
173
102
}
330
173
100
AcDbXrecord
280
     1
270
     1
271
     1
  0
XRECORD
  5
174
102
{ACAD_REACTORS
330
173
102
}
330
173
100
AcDbXrecord
280
     1
270
     1
271
     1
  0
XRECORD
  5
176
102
{ACAD_REACTORS
330
173
102
}
330
173
100
AcDbXrecord
280
     1
270
     1
271
     1
  0
XRECORD
  5
177
102
{ACAD_REACTORS
330
173
102
}
330
173
100
AcDbXrecord
280
     1
270
     1
271
     1
  0
CELLSTYLEMAP
  5
B7E
102
{ACAD_REACTORS
330
162
102
}
330
162
100
AcDbCellStyleMap
 90
        3
300
CELLSTYLE
  1
TABLEFORMAT_BEGIN
 90
        5
170
     1
 91
        0
 92
    32768
 62
   257
 93
        1
300
CONTENTFORMAT
  1
CONTENTFORMAT_BEGIN
 90
        0
 91
        0
 92
      512
 93
        0
300

 40
0.0
140
1.0
 94
        5
 62
     0
340
11
144
6.0
309
CONTENTFORMAT_END
171
     1
301
MARGIN
  1
CELLMARGIN_BEGIN
 40
1.5
 40
1.5
 40
1.5
 40
1.5
 40
0.18
 40
0.18
309
CELLMARGIN_END
 94
        6
 95
        1
302
GRIDFORMAT
  1
GRIDFORMAT_BEGIN
 90
        0
 91
        1
 62
     0
 92
       -2
340
14
 93
        0
 40
1.125
309
GRIDFORMAT_END
 95
        2
302
GRIDFORMAT
  1
GRIDFORMAT_BEGIN
 90
        0
 91
        1
 62
     0
 92
       -2
340
14
 93
        0
 40
1.125
309
GRIDFORMAT_END
 95
        4
302
GRIDFORMAT
  1
GRIDFORMAT_BEGIN
 90
        0
 91
        1
 62
     0
 92
       -2
340
14
 93
        0
 40
1.125
309
GRIDFORMAT_END
 95
        8
302
GRIDFORMAT
  1
GRIDFORMAT_BEGIN
 90
        0
 91
        1
 62
     0
 92
       -2
340
14
 93
        0
 40
1.125
309
GRIDFORMAT_END
 95
       16
302
GRIDFORMAT
  1
GRIDFORMAT_BEGIN
 90
        0
 91
        1
 62
     0
 92
       -2
340
14
 93
        0
 40
1.125
309
GRIDFORMAT_END
 95
       32
302
GRIDFORMAT
  1
GRIDFORMAT_BEGIN
 90
        0
 91
        1
 62
     0
 92
       -2
340
14
 93
        0
 40
1.125
309
GRIDFORMAT_END
309
TABLEFORMAT_END
  1
CELLSTYLE_BEGIN
 90
        1
 91
        1
300
_TITLE
309
CELLSTYLE_END
300
CELLSTYLE
  1
TABLEFORMAT_BEGIN
 90
        5
170
     1
 91
        0
 92
        0
 62
   257
 93
        1
300
CONTENTFORMAT
  1
CONTENTFORMAT_BEGIN
 90
        0
 91
        0
 92
      512
 93
        0
300

 40
0.0
140
1.0
 94
        5
 62
     0
340
11
144
4.5
309
CONTENTFORMAT_END
171
     1
301
MARGIN
  1
CELLMARGIN_BEGIN
 40
1.5
 40
1.5
 40
1.5
 40
1.5
 40
0.18
 40
0.18
309
CELLMARGIN_END
 94
        6
 95
        1
302
GRIDFORMAT
  1
GRIDFORMAT_BEGIN
 90
        0
 91
        1
 62
     0
 92
       -2
340
14
 93
        0
 40
1.125
309
GRIDFORMAT_END
 95
        2
302
GRIDFORMAT
  1
GRIDFORMAT_BEGIN
 90
        0
 91
        1
 62
     0
 92
       -2
340
14
 93
        0
 40
1.125
309
GRIDFORMAT_END
 95
        4
302
GRIDFORMAT
  1
GRIDFORMAT_BEGIN
 90
        0
 91
        1
 62
     0
 92
       -2
340
14
 93
        0
 40
1.125
309
GRIDFORMAT_END
 95
        8
302
GRIDFORMAT
  1
GRIDFORMAT_BEGIN
 90
        0
 91
        1
 62
     0
 92
       -2
340
14
 93
        0
 40
1.125
309
GRIDFORMAT_END
 95
       16
302
GRIDFORMAT
  1
GRIDFORMAT_BEGIN
 90
        0
 91
        1
 62
     0
 92
       -2
340
14
 93
        0
 40
1.125
309
GRIDFORMAT_END
 95
       32
302
GRIDFORMAT
  1
GRIDFORMAT_BEGIN
 90
        0
 91
        1
 62
     0
 92
       -2
340
14
 93
        0
 40
1.125
309
GRIDFORMAT_END
309
TABLEFORMAT_END
  1
CELLSTYLE_BEGIN
 90
        2
 91
        1
300
_HEADER
309
CELLSTYLE_END
300
CELLSTYLE
  1
TABLEFORMAT_BEGIN
 90
        5
170
     1
 91
        0
 92
        0
 62
   257
 93
        1
300
CONTENTFORMAT
  1
CONTENTFORMAT_BEGIN
 90
        0
 91
        0
 92
      512
 93
        0
300

 40
0.0
140
1.0
 94
        2
 62
     0
340
11
144
4.5
309
CONTENTFORMAT_END
171
     1
301
MARGIN
  1
CELLMARGIN_BEGIN
 40
1.5
 40
1.5
 40
1.5
 40
1.5
 40
0.18
 40
0.18
309
CELLMARGIN_END
 94
        6
 95
        1
302
GRIDFORMAT
  1
GRIDFORMAT_BEGIN
 90
        0
 91
        1
 62
     0
 92
       -2
340
14
 93
        0
 40
1.125
309
GRIDFORMAT_END
 95
        2
302
GRIDFORMAT
  1
GRIDFORMAT_BEGIN
 90
        0
 91
        1
 62
     0
 92
       -2
340
14
 93
        0
 40
1.125
309
GRIDFORMAT_END
 95
        4
302
GRIDFORMAT
  1
GRIDFORMAT_BEGIN
 90
        0
 91
        1
 62
     0
 92
       -2
340
14
 93
        0
 40
1.125
309
GRIDFORMAT_END
 95
        8
302
GRIDFORMAT
  1
GRIDFORMAT_BEGIN
 90
        0
 91
        1
 62
     0
 92
       -2
340
14
 93
        0
 40
1.125
309
GRIDFORMAT_END
 95
       16
302
GRIDFORMAT
  1
GRIDFORMAT_BEGIN
 90
        0
 91
        1
 62
     0
 92
       -2
340
14
 93
        0
 40
1.125
309
GRIDFORMAT_END
 95
       32
302
GRIDFORMAT
  1
GRIDFORMAT_BEGIN
 90
        0
 91
        1
 62
     0
 92
       -2
340
14
 93
        0
 40
1.125
309
GRIDFORMAT_END
309
TABLEFORMAT_END
  1
CELLSTYLE_BEGIN
 90
        3
 91
        2
300
_DATA
309
CELLSTYLE_END
  0
ENDSEC
  0
EOF
