  0
SECTION
  2
HEADER
  9
$ACADVER
  1
AC1024
  9
$ACADMAINTVER
 70
     6
  9
$DWGCODEPAGE
  3
ANSI_1252
  9
$LASTSAVEDBY
  1
Pincue
  9
$INSBASE
 10
0.0
 20
0.0
 30
0.0
  9
$EXTMIN
 10
6.463245784223543
 20
165.9307778441472
 30
0.0
  9
$EXTMAX
 10
856.4632457842238
 20
478.7950244688075
 30
0.0
  9
$LIMMIN
 10
-9.184627
 20
4.296982999999999
  9
$LIMMAX
 10
44.815373
 20
28.296983
  9
$ORTHOMODE
 70
     1
  9
$REGENMODE
 70
     1
  9
$FILLMODE
 70
     1
  9
$QTEXTMODE
 70
     0
  9
$MIRRTEXT
 70
     0
  9
$LTSCALE
 40
0.4400000000000003
  9
$ATTMODE
 70
     1
  9
$TEXTSIZE
 40
0.0
  9
$TRACEWID
 40
0.05
  9
$TEXTSTYLE
  7
STANDARD
  9
$CLAYER
  8
LAYER01
  9
$CELTYPE
  6
CONTINUOUS
  9
$CECOLOR
 62
     7
  9
$CELTSCALE
 40
1.0
  9
$DISPSILH
 70
     0
  9
$DIMSCALE
 40
1.0
  9
$DIMASZ
 40
0.18
  9
$DIMEXO
 40
0.0625
  9
$DIMDLI
 40
0.38
  9
$DIMRND
 40
0.0
  9
$DIMDLE
 40
0.0
  9
$DIMEXE
 40
0.18
  9
$DIMTP
 40
0.0
  9
$DIMTM
 40
0.0
  9
$DIMTXT
 40
0.18
  9
$DIMCEN
 40
0.09
  9
$DIMTSZ
 40
0.0
  9
$DIMTOL
 70
     0
  9
$DIMLIM
 70
     0
  9
$DIMTIH
 70
     1
  9
$DIMTOH
 70
     1
  9
$DIMSE1
 70
     0
  9
$DIMSE2
 70
     0
  9
$DIMTAD
 70
     0
  9
$DIMZIN
 70
     0
  9
$DIMBLK
  1

  9
$DIMASO
 70
     1
  9
$DIMSHO
 70
     1
  9
$DIMPOST
  1

  9
$DIMAPOST
  1

  9
$DIMALT
 70
     0
  9
$DIMALTD
 70
     2
  9
$DIMALTF
 40
25.4
  9
$DIMLFAC
 40
1.0
  9
$DIMTOFL
 70
     0
  9
$DIMTVP
 40
0.0
  9
$DIMTIX
 70
     0
  9
$DIMSOXD
 70
     0
  9
$DIMSAH
 70
     0
  9
$DIMBLK1
  1

  9
$DIMBLK2
  1

  9
$DIMSTYLE
  2
Standard
  9
$DIMCLRD
 70
     0
  9
$DIMCLRE
 70
     0
  9
$DIMCLRT
 70
     0
  9
$DIMTFAC
 40
1.0
  9
$DIMGAP
 40
0.09
  9
$DIMJUST
 70
     0
  9
$DIMSD1
 70
     0
  9
$DIMSD2
 70
     0
  9
$DIMTOLJ
 70
     1
  9
$DIMTZIN
 70
     0
  9
$DIMALTZ
 70
     0
  9
$DIMALTTZ
 70
     0
  9
$DIMUPT
 70
     0
  9
$DIMDEC
 70
     4
  9
$DIMTDEC
 70
     4
  9
$DIMALTU
 70
     2
  9
$DIMALTTD
 70
     2
  9
$DIMTXSTY
  7
STANDARD
  9
$DIMAUNIT
 70
     0
  9
$DIMADEC
 70
     0
  9
$DIMALTRND
 40
0.0
  9
$DIMAZIN
 70
     0
  9
$DIMDSEP
 70
    46
  9
$DIMATFIT
 70
     3
  9
$DIMFRAC
 70
     0
  9
$DIMLDRBLK
  1

  9
$DIMLUNIT
 70
     2
  9
$DIMLWD
 70
    -2
  9
$DIMLWE
 70
    -2
  9
$DIMTMOVE
 70
     0
  9
$DIMFXL
 40
1.0
  9
$DIMFXLON
 70
     0
  9
$DIMJOGANG
 40
0.7853981633974483
  9
$DIMTFILL
 70
     0
  9
$DIMTFILLCLR
 70
     0
  9
$DIMARCSYM
 70
     0
  9
$DIMLTYPE
  6

  9
$DIMLTEX1
  6

  9
$DIMLTEX2
  6

  9
$DIMTXTDIRECTION
 70
     0
  9
$LUNITS
 70
     2
  9
$LUPREC
 70
     4
  9
$SKETCHINC
 40
0.1
  9
$FILLETRAD
 40
0.125
  9
$AUNITS
 70
     0
  9
$AUPREC
 70
     0
  9
$MENU
  1
acad
  9
$ELEVATION
 40
0.0
  9
$PELEVATION
 40
0.0
  9
$THICKNESS
 40
0.0
  9
$LIMCHECK
 70
     0
  9
$CHAMFERA
 40
0.5
  9
$CHAMFERB
 40
0.5
  9
$CHAMFERC
 40
0.0
  9
$CHAMFERD
 40
0.0
  9
$SKPOLY
 70
     0
  9
$TDCREATE
 40
10463472.45118889
  9
$TDUCREATE
 40
6.0000000000
  9
$TDUPDATE
 40
2458031.801713032
  9
$TDUUPDATE
 40
2458031.718379699
  9
$TDINDWG
 40
0.0610639120
  9
$TDUSRTIMER
 40
0.0610628241
  9
$USRTIMER
 70
     1
  9
$ANGBASE
 50
0.0
  9
$ANGDIR
 70
     0
  9
$PDMODE
 70
     3
  9
$PDSIZE
 40
-10.0
  9
$PLINEWID
 40
0.008
  9
$SPLFRAME
 70
     0
  9
$SPLINETYPE
 70
     6
  9
$SPLINESEGS
 70
    10
  9
$HANDSEED
  5
AC5
  9
$SURFTAB1
 70
     6
  9
$SURFTAB2
 70
     6
  9
$SURFTYPE
 70
     6
  9
$SURFU
 70
     6
  9
$SURFV
 70
     6
  9
$UCSBASE
  2

  9
$UCSNAME
  2

  9
$UCSORG
 10
0.0
 20
0.0
 30
0.0
  9
$UCSXDIR
 10
1.0
 20
0.0
 30
0.0
  9
$UCSYDIR
 10
0.0
 20
1.0
 30
0.0
  9
$UCSORTHOREF
  2

  9
$UCSORTHOVIEW
 70
     0
  9
$UCSORGTOP
 10
0.0
 20
0.0
 30
0.0
  9
$UCSORGBOTTOM
 10
0.0
 20
0.0
 30
0.0
  9
$UCSORGLEFT
 10
0.0
 20
0.0
 30
0.0
  9
$UCSORGRIGHT
 10
0.0
 20
0.0
 30
0.0
  9
$UCSORGFRONT
 10
0.0
 20
0.0
 30
0.0
  9
$UCSORGBACK
 10
0.0
 20
0.0
 30
0.0
  9
$PUCSBASE
  2

  9
$PUCSNAME
  2

  9
$PUCSORG
 10
0.0
 20
0.0
 30
0.0
  9
$PUCSXDIR
 10
1.0
 20
0.0
 30
0.0
  9
$PUCSYDIR
 10
0.0
 20
1.0
 30
0.0
  9
$PUCSORTHOREF
  2

  9
$PUCSORTHOVIEW
 70
     0
  9
$PUCSORGTOP
 10
0.0
 20
0.0
 30
0.0
  9
$PUCSORGBOTTOM
 10
0.0
 20
0.0
 30
0.0
  9
$PUCSORGLEFT
 10
0.0
 20
0.0
 30
0.0
  9
$PUCSORGRIGHT
 10
0.0
 20
0.0
 30
0.0
  9
$PUCSORGFRONT
 10
0.0
 20
0.0
 30
0.0
  9
$PUCSORGBACK
 10
0.0
 20
0.0
 30
0.0
  9
$USERI1
 70
     0
  9
$USERI2
 70
     0
  9
$USERI3
 70
     0
  9
$USERI4
 70
     0
  9
$USERI5
 70
     0
  9
$USERR1
 40
0.0
  9
$USERR2
 40
0.0
  9
$USERR3
 40
0.0
  9
$USERR4
 40
0.0
  9
$USERR5
 40
0.0
  9
$WORLDVIEW
 70
     1
  9
$SHADEDGE
 70
     3
  9
$SHADEDIF
 70
    70
  9
$TILEMODE
 70
     1
  9
$MAXACTVP
 70
    64
  9
$PINSBASE
 10
0.0
 20
0.0
 30
0.0
  9
$PLIMCHECK
 70
     0
  9
$PEXTMIN
 10
1.000000000000000E+20
 20
1.000000000000000E+20
 30
1.000000000000000E+20
  9
$PEXTMAX
 10
-1.000000000000000E+20
 20
-1.000000000000000E+20
 30
-1.000000000000000E+20
  9
$PLIMMIN
 10
0.0
 20
0.0
  9
$PLIMMAX
 10
12.0
 20
9.0
  9
$UNITMODE
 70
     0
  9
$VISRETAIN
 70
     1
  9
$PLINEGEN
 70
     0
  9
$PSLTSCALE
 70
     1
  9
$TREEDEPTH
 70
  3020
  9
$CMLSTYLE
  2
Standard
  9
$CMLJUST
 70
     0
  9
$CMLSCALE
 40
1.0
  9
$PROXYGRAPHICS
 70
     1
  9
$MEASUREMENT
 70
     0
  9
$CELWEIGHT
370
    -1
  9
$ENDCAPS
280
     0
  9
$JOINSTYLE
280
     0
  9
$LWDISPLAY
290
     0
  9
$INSUNITS
 70
     0
  9
$HYPERLINKBASE
  1

  9
$STYLESHEET
  1

  9
$XEDIT
290
     1
  9
$CEPSNTYPE
380
     0
  9
$PSTYLEMODE
290
     1
  9
$FINGERPRINTGUID
  2
{36E9E460-53D4-44B8-8E29-8FE7AA9F754E}
  9
$VERSIONGUID
  2
{F4C3969B-4548-43D1-BA6E-3CF8815BDF27}
  9
$EXTNAMES
290
     1
  9
$PSVPSCALE
 40
0.0
  9
$OLESTARTUP
290
     0
  9
$SORTENTS
280
   127
  9
$INDEXCTL
280
     0
  9
$HIDETEXT
280
     0
  9
$XCLIPFRAME
280
     2
  9
$HALOGAP
280
     0
  9
$OBSCOLOR
 70
   257
  9
$OBSLTYPE
280
     0
  9
$INTERSECTIONDISPLAY
280
     0
  9
$INTERSECTIONCOLOR
 70
   257
  9
$DIMASSOC
280
     1
  9
$PROJECTNAME
  1

  9
$CAMERADISPLAY
290
     0
  9
$LENSLENGTH
 40
50.0
  9
$CAMERAHEIGHT
 40
0.0
  9
$STEPSPERSEC
 40
2.0
  9
$STEPSIZE
 40
6.0
  9
$3DDWFPREC
 40
2.0
  9
$PSOLWIDTH
 40
0.25
  9
$PSOLHEIGHT
 40
4.0
  9
$LOFTANG1
 40
1.570796326794896
  9
$LOFTANG2
 40
1.570796326794896
  9
$LOFTMAG1
 40
0.0
  9
$LOFTMAG2
 40
0.0
  9
$LOFTPARAM
 70
     7
  9
$LOFTNORMALS
280
     1
  9
$LATITUDE
 40
37.795
  9
$LONGITUDE
 40
-122.394
  9
$NORTHDIRECTION
 40
0.0
  9
$TIMEZONE
 70
 -8000
  9
$LIGHTGLYPHDISPLAY
280
     1
  9
$TILEMODELIGHTSYNCH
280
     1
  9
$CMATERIAL
347
11
  9
$SOLIDHIST
280
     1
  9
$SHOWHIST
280
     1
  9
$DWFFRAME
280
     2
  9
$DGNFRAME
280
     0
  9
$REALWORLDSCALE
290
     1
  9
$INTERFERECOLOR
 62
     1
  9
$INTERFEREOBJVS
345
33
  9
$INTERFEREVPVS
346
30
  9
$CSHADOW
280
     0
  9
$SHADOWPLANELOCATION
 40
0.0
  0
ENDSEC
  0
SECTION
  2
CLASSES
  0
CLASS
  1
ACDBDICTIONARYWDFLT
  2
AcDbDictionaryWithDefault
  3
ObjectDBX Classes
 90
        0
 91
        1
280
     0
281
     0
  0
CLASS
  1
MATERIAL
  2
AcDbMaterial
  3
ObjectDBX Classes
 90
     1153
 91
        3
280
     0
281
     0
  0
CLASS
  1
VISUALSTYLE
  2
AcDbVisualStyle
  3
ObjectDBX Classes
 90
     4095
 91
       19
280
     0
281
     0
  0
CLASS
  1
SCALE
  2
AcDbScale
  3
ObjectDBX Classes
 90
     1153
 91
       33
280
     0
281
     0
  0
CLASS
  1
TABLESTYLE
  2
AcDbTableStyle
  3
ObjectDBX Classes
 90
     4095
 91
        1
280
     0
281
     0
  0
CLASS
  1
MLEADERSTYLE
  2
AcDbMLeaderStyle
  3
ACDB_MLEADERSTYLE_CLASS
 90
     4095
 91
        1
280
     0
281
     0
  0
CLASS
  1
SORTENTSTABLE
  2
AcDbSortentsTable
  3
ObjectDBX Classes
 90
        0
 91
        1
280
     0
281
     0
  0
CLASS
  1
DICTIONARYVAR
  2
AcDbDictionaryVar
  3
ObjectDBX Classes
 90
        0
 91
        7
280
     0
281
     0
  0
CLASS
  1
CELLSTYLEMAP
  2
AcDbCellStyleMap
  3
ObjectDBX Classes
 90
     1152
 91
        2
280
     0
281
     0
  0
ENDSEC
  0
SECTION
  2
TABLES
  0
TABLE
  2
VPORT
  5
8
330
0
100
AcDbSymbolTable
 70
     1
  0
VPORT
  5
8F
330
8
100
AcDbSymbolTableRecord
100
AcDbViewportTableRecord
  2
*Active
 70
     0
 10
0.0
 20
0.0
 11
1.0
 21
1.0
 12
381.5851850166425
 22
282.9065588872883
 13
0.0
 23
0.0
 14
1.0
 24
1.0
 15
0.0
 25
0.0
 16
0.0
 26
0.0
 36
1.0
 17
0.0
 27
0.0
 37
0.0
 40
699.8645394887214
 41
2.167197452229299
 42
50.0
 43
0.0
 44
0.0
 50
0.0
 51
0.0
 71
     0
 72
   100
 73
     1
 74
     1
 75
     0
 76
     0
 77
     0
 78
     0
281
     0
 65
     1
110
0.0
120
0.0
130
0.0
111
1.0
121
0.0
131
0.0
112
0.0
122
1.0
132
0.0
 79
     0
146
0.0
348
2F
 60
     3
 61
     5
292
     1
282
     1
141
0.0
142
0.0
 63
   250
421
  3355443
  0
ENDTAB
  0
TABLE
  2
LTYPE
  5
5
330
0
100
AcDbSymbolTable
 70
    11
  0
LTYPE
  5
65
330
5
100
AcDbSymbolTableRecord
100
AcDbLinetypeTableRecord
  2
ByBlock
 70
     0
  3

 72
    65
 73
     0
 40
0.0
  0
LTYPE
  5
66
330
5
100
AcDbSymbolTableRecord
100
AcDbLinetypeTableRecord
  2
ByLayer
 70
     0
  3

 72
    65
 73
     0
 40
0.0
  0
LTYPE
  5
67
330
5
100
AcDbSymbolTableRecord
100
AcDbLinetypeTableRecord
  2
CONTINUOUS
 70
     0
  3
Solid line
 72
    65
 73
     0
 40
0.0
  0
LTYPE
  5
7B
330
5
100
AcDbSymbolTableRecord
100
AcDbLinetypeTableRecord
  2
DASHED
 70
     0
  3
__ __ __ __ __ __ __ __ __ __ __ __ __ __ __
 72
    65
 73
     2
 40
0.75
 49
0.5
 74
     0
 49
-0.25
 74
     0
  0
LTYPE
  5
7C
330
5
100
AcDbSymbolTableRecord
100
AcDbLinetypeTableRecord
  2
HIDDEN
 70
     0
  3
_ _ _ _ _ _ _ _ _ _ _ _ _ _ _ _ _ _ _ _ _ _ 
 72
    65
 73
     2
 40
0.25
 49
0.125
 74
     0
 49
-0.125
 74
     0
  0
LTYPE
  5
7D
330
5
100
AcDbSymbolTableRecord
100
AcDbLinetypeTableRecord
  2
CENTER
 70
     0
  3
____ _ ____ _ ____ _ ____ _ ____ _ ____ _ __
 72
    65
 73
     4
 40
2.0
 49
1.25
 74
     0
 49
-0.25
 74
     0
 49
0.25
 74
     0
 49
-0.25
 74
     0
  0
LTYPE
  5
7E
330
5
100
AcDbSymbolTableRecord
100
AcDbLinetypeTableRecord
  2
PHANTOM
 70
     0
  3
_____ _ _ _____ _ _ _____ _ _ _____ _ _ ____
 72
    65
 73
     6
 40
2.5
 49
1.25
 74
     0
 49
-0.25
 74
     0
 49
0.25
 74
     0
 49
-0.25
 74
     0
 49
0.25
 74
     0
 49
-0.25
 74
     0
  0
LTYPE
  5
7F
330
5
100
AcDbSymbolTableRecord
100
AcDbLinetypeTableRecord
  2
DOT
 70
     0
  3
............................................
 72
    65
 73
     2
 40
0.25
 49
0.0
 74
     0
 49
-0.25
 74
     0
  0
LTYPE
  5
80
330
5
100
AcDbSymbolTableRecord
100
AcDbLinetypeTableRecord
  2
DASHDOT
 70
     0
  3
__ . __ . __ . __ . __ . __ . __ . __ . __ .
 72
    65
 73
     4
 40
1.0
 49
0.5
 74
     0
 49
-0.25
 74
     0
 49
0.0
 74
     0
 49
-0.25
 74
     0
  0
LTYPE
  5
81
330
5
100
AcDbSymbolTableRecord
100
AcDbLinetypeTableRecord
  2
BORDER
 70
     0
  3
__ __ . __ __ . __ __ . __ __ . __ __ . __ _
 72
    65
 73
     6
 40
1.75
 49
0.5
 74
     0
 49
-0.25
 74
     0
 49
0.5
 74
     0
 49
-0.25
 74
     0
 49
0.0
 74
     0
 49
-0.25
 74
     0
  0
LTYPE
  5
82
330
5
100
AcDbSymbolTableRecord
100
AcDbLinetypeTableRecord
  2
DIVIDE
 70
     0
  3
__ . . __ . . __ . . __ . . __ . . __ . . __
 72
    65
 73
     6
 40
1.25
 49
0.5
 74
     0
 49
-0.25
 74
     0
 49
0.0
 74
     0
 49
-0.25
 74
     0
 49
0.0
 74
     0
 49
-0.25
 74
     0
  0
LTYPE
  5
83
330
5
100
AcDbSymbolTableRecord
100
AcDbLinetypeTableRecord
  2
DOTS
 70
     0
  3
close                                       
 72
    65
 73
     2
 40
0.1
 49
0.05
 74
     0
 49
-0.05
 74
     0
  0
LTYPE
  5
84
330
5
100
AcDbSymbolTableRecord
100
AcDbLinetypeTableRecord
  2
CLOSE
 70
     0
  3
                                            
 72
    65
 73
     0
 40
0.0
  0
ENDTAB
  0
TABLE
  2
LAYER
  5
2
330
0
100
AcDbSymbolTable
 70
    12
  0
LAYER
  5
5F
102
{ACAD_XDICTIONARY
360
7E0
102
}
330
2
100
AcDbSymbolTableRecord
100
AcDbLayerTableRecord
  2
0
 70
     0
 62
     7
  6
CONTINUOUS
370
    -3
390
F
347
21
  0
LAYER
  5
7A
102
{ACAD_XDICTIONARY
360
7E2
102
}
330
2
100
AcDbSymbolTableRecord
100
AcDbLayerTableRecord
  2
LAYER01
 70
     0
 62
     7
  6
CONTINUOUS
370
    -3
390
F
347
21
  0
LAYER
  5
85
102
{ACAD_XDICTIONARY
360
7E4
102
}
330
2
100
AcDbSymbolTableRecord
100
AcDbLayerTableRecord
  2
LAYER02
 70
     0
 62
     7
  6
CONTINUOUS
370
    -3
390
F
347
21
  0
LAYER
  5
86
102
{ACAD_XDICTIONARY
360
7E6
102
}
330
2
100
AcDbSymbolTableRecord
100
AcDbLayerTableRecord
  2
LAYER03
 70
     0
 62
     7
  6
CONTINUOUS
370
    -3
390
F
347
21
  0
LAYER
  5
87
102
{ACAD_XDICTIONARY
360
7E8
102
}
330
2
100
AcDbSymbolTableRecord
100
AcDbLayerTableRecord
  2
LAYER04
 70
     0
 62
     7
  6
CONTINUOUS
370
    -3
390
F
347
21
  0
LAYER
  5
88
102
{ACAD_XDICTIONARY
360
7EA
102
}
330
2
100
AcDbSymbolTableRecord
100
AcDbLayerTableRecord
  2
LAYER05
 70
     0
 62
     7
  6
CONTINUOUS
370
    -3
390
F
347
21
  0
LAYER
  5
89
102
{ACAD_XDICTIONARY
360
7EC
102
}
330
2
100
AcDbSymbolTableRecord
100
AcDbLayerTableRecord
  2
LAYER06
 70
     0
 62
     7
  6
CONTINUOUS
370
    -3
390
F
347
21
  0
LAYER
  5
8A
102
{ACAD_XDICTIONARY
360
7EE
102
}
330
2
100
AcDbSymbolTableRecord
100
AcDbLayerTableRecord
  2
LAYER07
 70
     0
 62
     7
  6
CONTINUOUS
370
    -3
390
F
347
21
  0
LAYER
  5
8B
102
{ACAD_XDICTIONARY
360
7F0
102
}
330
2
100
AcDbSymbolTableRecord
100
AcDbLayerTableRecord
  2
LAYER08
 70
     0
 62
     7
  6
CONTINUOUS
370
    -3
390
F
347
21
  0
LAYER
  5
8C
102
{ACAD_XDICTIONARY
360
7F2
102
}
330
2
100
AcDbSymbolTableRecord
100
AcDbLayerTableRecord
  2
LAYER09
 70
     0
 62
     7
  6
CONTINUOUS
370
    -3
390
F
347
21
  0
LAYER
  5
8D
102
{ACAD_XDICTIONARY
360
7F4
102
}
330
2
100
AcDbSymbolTableRecord
100
AcDbLayerTableRecord
  2
LAYER10
 70
     0
 62
     7
  6
CONTINUOUS
370
    -3
390
F
347
21
  0
LAYER
  5
90
102
{ACAD_XDICTIONARY
360
7F6
102
}
330
2
100
AcDbSymbolTableRecord
100
AcDbLayerTableRecord
  2
7
 70
     0
 62
     7
  6
CONTINUOUS
370
    -3
390
F
347
21
  0
ENDTAB
  0
TABLE
  2
STYLE
  5
3
330
0
100
AcDbSymbolTable
 70
     2
  0
STYLE
  5
60
330
3
100
AcDbSymbolTableRecord
100
AcDbTextStyleTableRecord
  2
STANDARD
 70
     0
 40
0.0
 41
1.0
 50
0.0
 71
     0
 42
0.0
  3
txt
  4

  0
STYLE
  5
64
330
3
100
AcDbSymbolTableRecord
100
AcDbTextStyleTableRecord
  2
Annotative
 70
     0
 40
0.0
 41
1.0
 50
0.0
 71
     0
 42
0.2
  3
txt
  4

1001
AcadAnnotative
1000
AnnotativeData
1002
{
1070
     1
1070
     1
1002
}
  0
ENDTAB
  0
TABLE
  2
VIEW
  5
6
330
0
100
AcDbSymbolTable
 70
     0
  0
ENDTAB
  0
TABLE
  2
UCS
  5
7
330
0
100
AcDbSymbolTable
 70
     0
  0
ENDTAB
  0
TABLE
  2
APPID
  5
9
330
0
100
AcDbSymbolTable
 70
     3
  0
APPID
  5
61
330
9
100
AcDbSymbolTableRecord
100
AcDbRegAppTableRecord
  2
ACAD
 70
     0
  0
APPID
  5
68
330
9
100
AcDbSymbolTableRecord
100
AcDbRegAppTableRecord
  2
AcadAnnotative
 70
     0
  0
APPID
  5
972
330
9
100
AcDbSymbolTableRecord
100
AcDbRegAppTableRecord
  2
ACAD_EXEMPT_FROM_CAD_STANDARDS
 70
     0
  0
ENDTAB
  0
TABLE
  2
DIMSTYLE
  5
A
330
0
100
AcDbSymbolTable
 70
     2
100
AcDbDimStyleTable
 71
     1
340
62
  0
DIMSTYLE
105
62
330
A
100
AcDbSymbolTableRecord
100
AcDbDimStyleTableRecord
  2
Standard
 70
     0
340
60
  0
DIMSTYLE
105
63
330
A
100
AcDbSymbolTableRecord
100
AcDbDimStyleTableRecord
  2
Annotative
 70
     0
340
60
1001
AcadAnnotative
1000
AnnotativeData
1002
{
1070
     1
1070
     1
1002
}
  0
ENDTAB
  0
TABLE
  2
BLOCK_RECORD
  5
1
330
0
100
AcDbSymbolTable
 70
     0
  0
BLOCK_RECORD
  5
76
102
{ACAD_XDICTIONARY
360
7A6
102
}
330
1
100
AcDbSymbolTableRecord
100
AcDbBlockTableRecord
  2
*Model_Space
340
79
 70
     0
280
     1
281
     0
  0
BLOCK_RECORD
  5
72
330
1
100
AcDbSymbolTableRecord
100
AcDbBlockTableRecord
  2
*Paper_Space
340
75
 70
     0
280
     1
281
     0
  0
ENDTAB
  0
ENDSEC
  0
SECTION
  2
BLOCKS
  0
BLOCK
  5
77
330
76
100
AcDbEntity
  8
0
100
AcDbBlockBegin
  2
*Model_Space
 70
     0
 10
0.0
 20
0.0
 30
0.0
  3
*Model_Space
  1

  0
ENDBLK
  5
78
330
76
100
AcDbEntity
  8
0
100
AcDbBlockEnd
  0
BLOCK
  5
73
330
72
100
AcDbEntity
 67
     1
  8
0
100
AcDbBlockBegin
  2
*Paper_Space
 70
     0
 10
0.0
 20
0.0
 30
0.0
  3
*Paper_Space
  1

  0
ENDBLK
  5
74
330
72
100
AcDbEntity
 67
     1
  8
0
100
AcDbBlockEnd
  0
ENDSEC
  0
SECTION
  2
ENTITIES
  0
LINE
  5
8DB
330
76
100
AcDbEntity
  8
LAYER01
  6
Continuous
 62
     7
100
AcDbLine
 10
9.464274161696145
 20
408.1324883312317
 30
0.0
 11
853.4632457842239
 21
408.1324883312317
 31
0.0
  0
LINE
  5
9AE
330
76
100
AcDbEntity
  8
LAYER01
  6
Continuous
 62
     7
100
AcDbLine
 10
853.4632457842237
 20
432.8324883312314
 30
0.0
 11
792.9632457842233
 21
432.8324883312316
 31
0.0
  0
LINE
  5
9AF
330
76
100
AcDbEntity
  8
LAYER01
  6
Continuous
 62
     7
100
AcDbLine
 10
789.9632457842232
 20
432.8324883312316
 30
0.0
 11
727.9632457842232
 21
432.8324883312313
 31
0.0
  0
LINE
  5
9B0
330
76
100
AcDbEntity
  8
LAYER01
  6
Continuous
 62
     7
100
AcDbLine
 10
724.9632457842233
 20
432.8324883312314
 30
0.0
 11
662.9632457842234
 21
432.8324883312314
 31
0.0
  0
LINE
  5
9B1
330
76
100
AcDbEntity
  8
LAYER01
  6
Continuous
 62
     7
100
AcDbLine
 10
659.9632457842234
 20
432.8324883312316
 30
0.0
 11
597.9632457842232
 21
432.8324883312316
 31
0.0
  0
LINE
  5
9B2
330
76
100
AcDbEntity
  8
LAYER01
  6
Continuous
 62
     7
100
AcDbLine
 10
594.9632457842231
 20
432.8324883312316
 30
0.0
 11
532.7823876293164
 21
432.8324883312316
 31
0.0
  0
LINE
  5
9B3
330
76
100
AcDbEntity
  8
LAYER01
  6
Continuous
 62
     7
100
AcDbLine
 10
529.7823876293164
 20
432.8324883312316
 30
0.0
 11
467.3364118964959
 21
432.8324883312316
 31
0.0
  0
LINE
  5
9B4
330
76
100
AcDbEntity
  8
LAYER01
  6
Continuous
 62
     7
100
AcDbLine
 10
465.836411896496
 20
432.8324883312316
 30
0.0
 11
402.9632457842234
 21
432.8324883312318
 31
0.0
  0
LINE
  5
9B5
330
76
100
AcDbEntity
  8
LAYER01
  6
Continuous
 62
     7
100
AcDbLine
 10
399.9632457842234
 20
432.8324883312318
 30
0.0
 11
337.9632457842236
 21
432.8324883312318
 31
0.0
  0
LINE
  5
9B6
330
76
100
AcDbEntity
  8
LAYER01
  6
Continuous
 62
     7
100
AcDbLine
 10
334.9632457842235
 20
432.8324883312318
 30
0.0
 11
272.9632457842235
 21
432.8324883312316
 31
0.0
  0
LINE
  5
9B7
330
76
100
AcDbEntity
  8
LAYER01
  6
Continuous
 62
     7
100
AcDbLine
 10
269.9632457842235
 20
432.8324883312318
 30
0.0
 11
207.9632457842235
 21
432.8324883312316
 31
0.0
  0
LINE
  5
9B8
330
76
100
AcDbEntity
  8
LAYER01
  6
Continuous
 62
     7
100
AcDbLine
 10
204.9632457842235
 20
432.8324883312316
 30
0.0
 11
157.9632457842235
 21
432.8324883312316
 31
0.0
  0
LINE
  5
9B9
330
76
100
AcDbEntity
  8
LAYER01
  6
Continuous
 62
     7
100
AcDbLine
 10
154.9632457842235
 20
432.8324883312316
 30
0.0
 11
107.9632457842235
 21
432.8324883312316
 31
0.0
  0
LINE
  5
9BA
330
76
100
AcDbEntity
  8
LAYER01
  6
Continuous
 62
     7
100
AcDbLine
 10
104.9632457842235
 20
432.8324883312316
 30
0.0
 11
57.96324578422353
 21
432.8324883312316
 31
0.0
  0
LINE
  5
9BB
330
76
100
AcDbEntity
  8
LAYER01
  6
Continuous
 62
     7
100
AcDbLine
 10
54.96324578422354
 20
432.8324883312316
 30
0.0
 11
10.11106642445507
 21
432.8324883312314
 31
0.0
  0
LINE
  5
9BC
330
76
100
AcDbEntity
  8
LAYER01
  6
Continuous
 62
     7
100
AcDbLine
 10
6.921499411684325
 20
425.6324883312316
 30
0.0
 11
6.659640195992452
 21
415.6324883312317
 31
0.0
  0
LINE
  5
9F1
330
76
100
AcDbEntity
  8
LAYER01
  6
Continuous
 62
     7
100
AcDbLine
 10
57.96324578422352
 20
408.1324883312317
 30
0.0
 11
57.96324578422352
 21
415.6324883312317
 31
0.0
  0
LINE
  5
9F2
330
76
100
AcDbEntity
  8
LAYER01
  6
Continuous
 62
     7
100
AcDbLine
 10
54.96324578422353
 20
408.1324883312317
 30
0.0
 11
54.96324578422353
 21
415.6324883312317
 31
0.0
  0
LINE
  5
9F3
330
76
100
AcDbEntity
  8
LAYER01
  6
Continuous
 62
     7
100
AcDbLine
 10
54.96324578422353
 20
415.6324883312317
 30
0.0
 11
57.96324578422352
 21
415.6324883312317
 31
0.0
  0
LINE
  5
9F4
330
76
100
AcDbEntity
  8
LAYER01
  6
Continuous
 62
     7
100
AcDbLine
 10
104.9632457842235
 20
408.1324883312317
 30
0.0
 11
104.9632457842235
 21
415.6324883312318
 31
0.0
  0
LINE
  5
9F5
330
76
100
AcDbEntity
  8
LAYER01
  6
Continuous
 62
     7
100
AcDbLine
 10
107.9632457842235
 20
408.1324883312317
 30
0.0
 11
107.9632457842235
 21
415.6324883312318
 31
0.0
  0
LINE
  5
9F6
330
76
100
AcDbEntity
  8
LAYER01
  6
Continuous
 62
     7
100
AcDbLine
 10
104.9632457842235
 20
415.6324883312318
 30
0.0
 11
107.9632457842235
 21
415.6324883312318
 31
0.0
  0
LINE
  5
9F7
330
76
100
AcDbEntity
  8
LAYER01
  6
Continuous
 62
     7
100
AcDbLine
 10
154.9632457842235
 20
408.1181722752102
 30
0.0
 11
154.9632457842235
 21
415.6181722752101
 31
0.0
  0
LINE
  5
9F8
330
76
100
AcDbEntity
  8
LAYER01
  6
Continuous
 62
     7
100
AcDbLine
 10
157.9632457842235
 20
408.1181722752102
 30
0.0
 11
157.9632457842235
 21
415.6181722752101
 31
0.0
  0
LINE
  5
9F9
330
76
100
AcDbEntity
  8
LAYER01
  6
Continuous
 62
     7
100
AcDbLine
 10
154.9632457842235
 20
415.6181722752101
 30
0.0
 11
157.9632457842235
 21
415.6181722752101
 31
0.0
  0
LINE
  5
9FA
330
76
100
AcDbEntity
  8
LAYER01
  6
Continuous
 62
     7
100
AcDbLine
 10
204.9632457842235
 20
408.1184948523989
 30
0.0
 11
204.9632457842235
 21
415.6184948523989
 31
0.0
  0
LINE
  5
9FB
330
76
100
AcDbEntity
  8
LAYER01
  6
Continuous
 62
     7
100
AcDbLine
 10
207.9632457842235
 20
408.1184948523989
 30
0.0
 11
207.9632457842235
 21
415.6184948523989
 31
0.0
  0
LINE
  5
9FC
330
76
100
AcDbEntity
  8
LAYER01
  6
Continuous
 62
     7
100
AcDbLine
 10
204.9632457842235
 20
415.6184948523989
 30
0.0
 11
207.9632457842235
 21
415.6184948523989
 31
0.0
  0
LINE
  5
9FD
330
76
100
AcDbEntity
  8
LAYER01
  6
Continuous
 62
     7
100
AcDbLine
 10
269.9632457842235
 20
408.1181722752102
 30
0.0
 11
269.9632457842235
 21
415.6181722752101
 31
0.0
  0
LINE
  5
9FE
330
76
100
AcDbEntity
  8
LAYER01
  6
Continuous
 62
     7
100
AcDbLine
 10
272.9632457842235
 20
408.1181722752102
 30
0.0
 11
272.9632457842235
 21
415.6181722752101
 31
0.0
  0
LINE
  5
9FF
330
76
100
AcDbEntity
  8
LAYER01
  6
Continuous
 62
     7
100
AcDbLine
 10
269.9632457842235
 20
415.6181722752101
 30
0.0
 11
272.9632457842235
 21
415.6181722752101
 31
0.0
  0
LINE
  5
A00
330
76
100
AcDbEntity
  8
LAYER01
  6
Continuous
 62
     7
100
AcDbLine
 10
334.9632457842237
 20
408.1181722752102
 30
0.0
 11
334.9632457842237
 21
415.6181722752101
 31
0.0
  0
LINE
  5
A01
330
76
100
AcDbEntity
  8
LAYER01
  6
Continuous
 62
     7
100
AcDbLine
 10
337.9632457842236
 20
408.1181722752102
 30
0.0
 11
337.9632457842236
 21
415.6181722752101
 31
0.0
  0
LINE
  5
A02
330
76
100
AcDbEntity
  8
LAYER01
  6
Continuous
 62
     7
100
AcDbLine
 10
334.9632457842237
 20
415.6181722752101
 30
0.0
 11
337.9632457842236
 21
415.6181722752101
 31
0.0
  0
LINE
  5
A03
330
76
100
AcDbEntity
  8
LAYER01
  6
Continuous
 62
     7
100
AcDbLine
 10
399.9632457842234
 20
408.1181722752102
 30
0.0
 11
399.9632457842234
 21
415.6181722752101
 31
0.0
  0
LINE
  5
A04
330
76
100
AcDbEntity
  8
LAYER01
  6
Continuous
 62
     7
100
AcDbLine
 10
402.9632457842234
 20
408.1181722752102
 30
0.0
 11
402.9632457842234
 21
415.6181722752101
 31
0.0
  0
LINE
  5
A05
330
76
100
AcDbEntity
  8
LAYER01
  6
Continuous
 62
     7
100
AcDbLine
 10
399.9632457842234
 20
415.6181722752101
 30
0.0
 11
402.9632457842234
 21
415.6181722752101
 31
0.0
  0
LINE
  5
A06
330
76
100
AcDbEntity
  8
LAYER01
  6
Continuous
 62
     7
100
AcDbLine
 10
465.0864118964959
 20
408.1181722752102
 30
0.0
 11
465.0864118964959
 21
415.6181722752101
 31
0.0
  0
LINE
  5
A07
330
76
100
AcDbEntity
  8
LAYER01
  6
Continuous
 62
     7
100
AcDbLine
 10
468.086411896496
 20
408.1181722752102
 30
0.0
 11
468.086411896496
 21
415.6181722752101
 31
0.0
  0
LINE
  5
A08
330
76
100
AcDbEntity
  8
LAYER01
  6
Continuous
 62
     7
100
AcDbLine
 10
465.0864118964959
 20
415.6181722752101
 30
0.0
 11
468.086411896496
 21
415.6181722752101
 31
0.0
  0
LINE
  5
A09
330
76
100
AcDbEntity
  8
LAYER01
  6
Continuous
 62
     7
100
AcDbLine
 10
529.7823876293164
 20
408.1324883312317
 30
0.0
 11
529.7823876293164
 21
415.6324883312318
 31
0.0
  0
LINE
  5
A0A
330
76
100
AcDbEntity
  8
LAYER01
  6
Continuous
 62
     7
100
AcDbLine
 10
532.7823876293164
 20
408.1324883312317
 30
0.0
 11
532.7823876293164
 21
415.6324883312318
 31
0.0
  0
LINE
  5
A0B
330
76
100
AcDbEntity
  8
LAYER01
  6
Continuous
 62
     7
100
AcDbLine
 10
529.7823876293164
 20
415.6324883312318
 30
0.0
 11
532.7823876293164
 21
415.6324883312318
 31
0.0
  0
LINE
  5
A0C
330
76
100
AcDbEntity
  8
LAYER01
  6
Continuous
 62
     7
100
AcDbLine
 10
594.9632457842231
 20
408.1181722752102
 30
0.0
 11
594.9632457842231
 21
415.6181722752101
 31
0.0
  0
LINE
  5
A0D
330
76
100
AcDbEntity
  8
LAYER01
  6
Continuous
 62
     7
100
AcDbLine
 10
597.9632457842232
 20
408.1181722752102
 30
0.0
 11
597.9632457842232
 21
415.6181722752101
 31
0.0
  0
LINE
  5
A0E
330
76
100
AcDbEntity
  8
LAYER01
  6
Continuous
 62
     7
100
AcDbLine
 10
594.9632457842231
 20
415.6181722752101
 30
0.0
 11
597.9632457842232
 21
415.6181722752101
 31
0.0
  0
LINE
  5
A0F
330
76
100
AcDbEntity
  8
LAYER01
  6
Continuous
 62
     7
100
AcDbLine
 10
659.9632457842234
 20
408.1181722752102
 30
0.0
 11
659.9632457842234
 21
415.6181722752101
 31
0.0
  0
LINE
  5
A10
330
76
100
AcDbEntity
  8
LAYER01
  6
Continuous
 62
     7
100
AcDbLine
 10
662.9632457842234
 20
408.1181722752102
 30
0.0
 11
662.9632457842234
 21
415.6181722752101
 31
0.0
  0
LINE
  5
A11
330
76
100
AcDbEntity
  8
LAYER01
  6
Continuous
 62
     7
100
AcDbLine
 10
659.9632457842234
 20
415.6181722752101
 30
0.0
 11
662.9632457842234
 21
415.6181722752101
 31
0.0
  0
LINE
  5
A12
330
76
100
AcDbEntity
  8
LAYER01
  6
Continuous
 62
     7
100
AcDbLine
 10
724.9632457842234
 20
408.1181722752102
 30
0.0
 11
724.9632457842234
 21
415.6181722752101
 31
0.0
  0
LINE
  5
A13
330
76
100
AcDbEntity
  8
LAYER01
  6
Continuous
 62
     7
100
AcDbLine
 10
727.9632457842234
 20
408.1181722752102
 30
0.0
 11
727.9632457842234
 21
415.6181722752101
 31
0.0
  0
LINE
  5
A14
330
76
100
AcDbEntity
  8
LAYER01
  6
Continuous
 62
     7
100
AcDbLine
 10
724.9632457842234
 20
415.6181722752101
 30
0.0
 11
727.9632457842234
 21
415.6181722752101
 31
0.0
  0
LINE
  5
A15
330
76
100
AcDbEntity
  8
LAYER01
  6
Continuous
 62
     7
100
AcDbLine
 10
724.9632457842234
 20
408.1181722752102
 30
0.0
 11
724.9632457842234
 21
415.6181722752101
 31
0.0
  0
LINE
  5
A16
330
76
100
AcDbEntity
  8
LAYER01
  6
Continuous
 62
     7
100
AcDbLine
 10
727.9632457842234
 20
408.1181722752102
 30
0.0
 11
727.9632457842234
 21
415.6181722752101
 31
0.0
  0
LINE
  5
A17
330
76
100
AcDbEntity
  8
LAYER01
  6
Continuous
 62
     7
100
AcDbLine
 10
724.9632457842234
 20
415.6181722752101
 30
0.0
 11
727.9632457842234
 21
415.6181722752101
 31
0.0
  0
LINE
  5
A18
330
76
100
AcDbEntity
  8
LAYER01
  6
Continuous
 62
     7
100
AcDbLine
 10
789.9632457842233
 20
408.1181722752102
 30
0.0
 11
789.9632457842233
 21
415.6181722752101
 31
0.0
  0
LINE
  5
A19
330
76
100
AcDbEntity
  8
LAYER01
  6
Continuous
 62
     7
100
AcDbLine
 10
792.9632457842233
 20
408.1181722752102
 30
0.0
 11
792.9632457842233
 21
415.6181722752101
 31
0.0
  0
LINE
  5
A1A
330
76
100
AcDbEntity
  8
LAYER01
  6
Continuous
 62
     7
100
AcDbLine
 10
789.9632457842233
 20
415.6181722752101
 30
0.0
 11
792.9632457842233
 21
415.6181722752101
 31
0.0
  0
LINE
  5
A1B
330
76
100
AcDbEntity
  8
LAYER01
  6
Continuous
 62
     7
100
AcDbLine
 10
853.4632457842237
 20
408.1324883312317
 30
0.0
 11
853.4632457842237
 21
415.6324883312317
 31
0.0
  0
LINE
  5
A1D
330
76
100
AcDbEntity
  8
LAYER01
  6
Continuous
 62
     7
100
AcDbLine
 10
853.4632457842237
 20
415.6324883312317
 30
0.0
 11
856.4632457842238
 21
415.6324883312317
 31
0.0
  0
LINE
  5
A20
330
76
100
AcDbEntity
  8
LAYER01
  6
Continuous
 62
     7
100
AcDbLine
 10
6.65964019599245
 20
415.6324883312317
 30
0.0
 11
9.66066857346505
 21
415.6324883312317
 31
0.0
  0
LINE
  5
A21
330
76
100
AcDbEntity
  8
LAYER01
  6
Continuous
 62
     7
100
AcDbLine
 10
10.11106642445507
 20
432.8324883312314
 30
0.0
 11
9.922527789156927
 21
425.6324883312315
 31
0.0
  0
LINE
  5
A23
330
76
100
AcDbEntity
  8
LAYER01
  6
Continuous
 62
     7
100
AcDbLine
 10
856.4632457842238
 20
415.6324883312317
 30
0.0
 11
856.4632457842238
 21
420.6324883312317
 31
0.0
  0
LINE
  5
A26
330
76
100
AcDbEntity
  8
LAYER01
  6
Continuous
 62
     7
100
AcDbLine
 10
54.96324578422353
 20
433.1324883312317
 30
0.0
 11
54.96324578422353
 21
425.6324883312316
 31
0.0
  0
LINE
  5
A27
330
76
100
AcDbEntity
  8
LAYER01
  6
Continuous
 62
     7
100
AcDbLine
 10
57.96324578422352
 20
433.1324883312317
 30
0.0
 11
57.96324578422352
 21
425.6324883312316
 31
0.0
  0
LINE
  5
A28
330
76
100
AcDbEntity
  8
LAYER01
  6
Continuous
 62
     7
100
AcDbLine
 10
54.96324578422353
 20
425.6324883312316
 30
0.0
 11
57.96324578422352
 21
425.6324883312316
 31
0.0
  0
LINE
  5
A29
330
76
100
AcDbEntity
  8
LAYER01
  6
Continuous
 62
     7
100
AcDbLine
 10
104.9632457842235
 20
433.1324883312316
 30
0.0
 11
104.9632457842235
 21
425.6324883312315
 31
0.0
  0
LINE
  5
A2A
330
76
100
AcDbEntity
  8
LAYER01
  6
Continuous
 62
     7
100
AcDbLine
 10
107.9632457842235
 20
433.1324883312316
 30
0.0
 11
107.9632457842235
 21
425.6324883312315
 31
0.0
  0
LINE
  5
A2B
330
76
100
AcDbEntity
  8
LAYER01
  6
Continuous
 62
     7
100
AcDbLine
 10
104.9632457842235
 20
425.6324883312315
 30
0.0
 11
107.9632457842235
 21
425.6324883312315
 31
0.0
  0
LINE
  5
A2C
330
76
100
AcDbEntity
  8
LAYER01
  6
Continuous
 62
     7
100
AcDbLine
 10
154.9632457842235
 20
433.1468043872531
 30
0.0
 11
154.9632457842235
 21
425.6468043872531
 31
0.0
  0
LINE
  5
A2D
330
76
100
AcDbEntity
  8
LAYER01
  6
Continuous
 62
     7
100
AcDbLine
 10
157.9632457842235
 20
433.1468043872531
 30
0.0
 11
157.9632457842235
 21
425.6468043872531
 31
0.0
  0
LINE
  5
A2E
330
76
100
AcDbEntity
  8
LAYER01
  6
Continuous
 62
     7
100
AcDbLine
 10
154.9632457842235
 20
425.6468043872531
 30
0.0
 11
157.9632457842235
 21
425.6468043872531
 31
0.0
  0
LINE
  5
A2F
330
76
100
AcDbEntity
  8
LAYER01
  6
Continuous
 62
     7
100
AcDbLine
 10
204.9632457842235
 20
433.1464818100644
 30
0.0
 11
204.9632457842235
 21
425.6464818100644
 31
0.0
  0
LINE
  5
A30
330
76
100
AcDbEntity
  8
LAYER01
  6
Continuous
 62
     7
100
AcDbLine
 10
207.9632457842235
 20
433.1464818100644
 30
0.0
 11
207.9632457842235
 21
425.6464818100644
 31
0.0
  0
LINE
  5
A31
330
76
100
AcDbEntity
  8
LAYER01
  6
Continuous
 62
     7
100
AcDbLine
 10
204.9632457842235
 20
425.6464818100644
 30
0.0
 11
207.9632457842235
 21
425.6464818100644
 31
0.0
  0
LINE
  5
A32
330
76
100
AcDbEntity
  8
LAYER01
  6
Continuous
 62
     7
100
AcDbLine
 10
269.9632457842235
 20
433.1468043872531
 30
0.0
 11
269.9632457842235
 21
425.6468043872531
 31
0.0
  0
LINE
  5
A33
330
76
100
AcDbEntity
  8
LAYER01
  6
Continuous
 62
     7
100
AcDbLine
 10
272.9632457842235
 20
433.1468043872531
 30
0.0
 11
272.9632457842235
 21
425.6468043872531
 31
0.0
  0
LINE
  5
A34
330
76
100
AcDbEntity
  8
LAYER01
  6
Continuous
 62
     7
100
AcDbLine
 10
269.9632457842235
 20
425.6468043872531
 30
0.0
 11
272.9632457842235
 21
425.6468043872531
 31
0.0
  0
LINE
  5
A35
330
76
100
AcDbEntity
  8
LAYER01
  6
Continuous
 62
     7
100
AcDbLine
 10
334.9632457842237
 20
433.1468043872531
 30
0.0
 11
334.9632457842237
 21
425.6468043872531
 31
0.0
  0
LINE
  5
A36
330
76
100
AcDbEntity
  8
LAYER01
  6
Continuous
 62
     7
100
AcDbLine
 10
337.9632457842236
 20
433.1468043872531
 30
0.0
 11
337.9632457842236
 21
425.6468043872531
 31
0.0
  0
LINE
  5
A37
330
76
100
AcDbEntity
  8
LAYER01
  6
Continuous
 62
     7
100
AcDbLine
 10
334.9632457842237
 20
425.6468043872531
 30
0.0
 11
337.9632457842236
 21
425.6468043872531
 31
0.0
  0
LINE
  5
A38
330
76
100
AcDbEntity
  8
LAYER01
  6
Continuous
 62
     7
100
AcDbLine
 10
399.9632457842234
 20
433.1468043872531
 30
0.0
 11
399.9632457842234
 21
425.6468043872531
 31
0.0
  0
LINE
  5
A39
330
76
100
AcDbEntity
  8
LAYER01
  6
Continuous
 62
     7
100
AcDbLine
 10
402.9632457842234
 20
433.1468043872531
 30
0.0
 11
402.9632457842234
 21
425.6468043872531
 31
0.0
  0
LINE
  5
A3A
330
76
100
AcDbEntity
  8
LAYER01
  6
Continuous
 62
     7
100
AcDbLine
 10
399.9632457842234
 20
425.6468043872531
 30
0.0
 11
402.9632457842234
 21
425.6468043872531
 31
0.0
  0
LINE
  5
A3B
330
76
100
AcDbEntity
  8
LAYER01
  6
Continuous
 62
     7
100
AcDbLine
 10
465.0864118964959
 20
433.1468043872531
 30
0.0
 11
465.0864118964959
 21
425.6468043872531
 31
0.0
  0
LINE
  5
A3C
330
76
100
AcDbEntity
  8
LAYER01
  6
Continuous
 62
     7
100
AcDbLine
 10
468.086411896496
 20
433.1468043872531
 30
0.0
 11
468.086411896496
 21
425.6468043872531
 31
0.0
  0
LINE
  5
A3D
330
76
100
AcDbEntity
  8
LAYER01
  6
Continuous
 62
     7
100
AcDbLine
 10
465.0864118964959
 20
425.6468043872531
 30
0.0
 11
468.086411896496
 21
425.6468043872531
 31
0.0
  0
LINE
  5
A3E
330
76
100
AcDbEntity
  8
LAYER01
  6
Continuous
 62
     7
100
AcDbLine
 10
529.7823876293164
 20
433.1324883312316
 30
0.0
 11
529.7823876293164
 21
425.6324883312315
 31
0.0
  0
LINE
  5
A3F
330
76
100
AcDbEntity
  8
LAYER01
  6
Continuous
 62
     7
100
AcDbLine
 10
532.7823876293164
 20
433.1324883312316
 30
0.0
 11
532.7823876293164
 21
425.6324883312315
 31
0.0
  0
LINE
  5
A40
330
76
100
AcDbEntity
  8
LAYER01
  6
Continuous
 62
     7
100
AcDbLine
 10
529.7823876293164
 20
425.6324883312315
 30
0.0
 11
532.7823876293164
 21
425.6324883312315
 31
0.0
  0
LINE
  5
A41
330
76
100
AcDbEntity
  8
LAYER01
  6
Continuous
 62
     7
100
AcDbLine
 10
594.9632457842231
 20
433.1468043872531
 30
0.0
 11
594.9632457842231
 21
425.6468043872531
 31
0.0
  0
LINE
  5
A42
330
76
100
AcDbEntity
  8
LAYER01
  6
Continuous
 62
     7
100
AcDbLine
 10
597.9632457842232
 20
433.1468043872531
 30
0.0
 11
597.9632457842232
 21
425.6468043872531
 31
0.0
  0
LINE
  5
A43
330
76
100
AcDbEntity
  8
LAYER01
  6
Continuous
 62
     7
100
AcDbLine
 10
594.9632457842231
 20
425.6468043872531
 30
0.0
 11
597.9632457842232
 21
425.6468043872531
 31
0.0
  0
LINE
  5
A44
330
76
100
AcDbEntity
  8
LAYER01
  6
Continuous
 62
     7
100
AcDbLine
 10
659.9632457842234
 20
433.1468043872531
 30
0.0
 11
659.9632457842234
 21
425.6468043872531
 31
0.0
  0
LINE
  5
A45
330
76
100
AcDbEntity
  8
LAYER01
  6
Continuous
 62
     7
100
AcDbLine
 10
662.9632457842234
 20
433.1468043872531
 30
0.0
 11
662.9632457842234
 21
425.6468043872531
 31
0.0
  0
LINE
  5
A46
330
76
100
AcDbEntity
  8
LAYER01
  6
Continuous
 62
     7
100
AcDbLine
 10
659.9632457842234
 20
425.6468043872531
 30
0.0
 11
662.9632457842234
 21
425.6468043872531
 31
0.0
  0
LINE
  5
A47
330
76
100
AcDbEntity
  8
LAYER01
  6
Continuous
 62
     7
100
AcDbLine
 10
724.9632457842234
 20
433.1468043872531
 30
0.0
 11
724.9632457842234
 21
425.6468043872531
 31
0.0
  0
LINE
  5
A48
330
76
100
AcDbEntity
  8
LAYER01
  6
Continuous
 62
     7
100
AcDbLine
 10
727.9632457842234
 20
433.1468043872531
 30
0.0
 11
727.9632457842234
 21
425.6468043872531
 31
0.0
  0
LINE
  5
A49
330
76
100
AcDbEntity
  8
LAYER01
  6
Continuous
 62
     7
100
AcDbLine
 10
724.9632457842234
 20
425.6468043872531
 30
0.0
 11
727.9632457842234
 21
425.6468043872531
 31
0.0
  0
LINE
  5
A4A
330
76
100
AcDbEntity
  8
LAYER01
  6
Continuous
 62
     7
100
AcDbLine
 10
724.9632457842234
 20
433.1468043872531
 30
0.0
 11
724.9632457842234
 21
425.6468043872531
 31
0.0
  0
LINE
  5
A4B
330
76
100
AcDbEntity
  8
LAYER01
  6
Continuous
 62
     7
100
AcDbLine
 10
727.9632457842234
 20
433.1468043872531
 30
0.0
 11
727.9632457842234
 21
425.6468043872531
 31
0.0
  0
LINE
  5
A4C
330
76
100
AcDbEntity
  8
LAYER01
  6
Continuous
 62
     7
100
AcDbLine
 10
724.9632457842234
 20
425.6468043872531
 30
0.0
 11
727.9632457842234
 21
425.6468043872531
 31
0.0
  0
LINE
  5
A4D
330
76
100
AcDbEntity
  8
LAYER01
  6
Continuous
 62
     7
100
AcDbLine
 10
789.9632457842233
 20
433.1468043872531
 30
0.0
 11
789.9632457842233
 21
425.6468043872531
 31
0.0
  0
LINE
  5
A4E
330
76
100
AcDbEntity
  8
LAYER01
  6
Continuous
 62
     7
100
AcDbLine
 10
792.9632457842233
 20
433.1468043872531
 30
0.0
 11
792.9632457842233
 21
425.6468043872531
 31
0.0
  0
LINE
  5
A4F
330
76
100
AcDbEntity
  8
LAYER01
  6
Continuous
 62
     7
100
AcDbLine
 10
789.9632457842233
 20
425.6468043872531
 30
0.0
 11
792.9632457842233
 21
425.6468043872531
 31
0.0
  0
LINE
  5
A50
330
76
100
AcDbEntity
  8
LAYER01
  6
Continuous
 62
     7
100
AcDbLine
 10
853.4632457842237
 20
433.1324883312317
 30
0.0
 11
853.4632457842237
 21
425.6324883312316
 31
0.0
  0
LINE
  5
A51
330
76
100
AcDbEntity
  8
LAYER01
  6
Continuous
 62
     7
100
AcDbLine
 10
853.4632457842237
 20
425.6324883312316
 30
0.0
 11
856.4632457842238
 21
425.6324883312316
 31
0.0
  0
LINE
  5
A52
330
76
100
AcDbEntity
  8
LAYER01
  6
Continuous
 62
     7
100
AcDbLine
 10
6.921499411684326
 20
425.6324883312317
 30
0.0
 11
9.922527789156927
 21
425.6324883312316
 31
0.0
  0
LINE
  5
A53
330
76
100
AcDbEntity
  8
LAYER01
  6
Continuous
 62
     7
100
AcDbLine
 10
856.4632457842238
 20
425.6324883312316
 30
0.0
 11
856.4632457842238
 21
420.6324883312317
 31
0.0
  0
LINE
  5
A54
330
76
100
AcDbEntity
  8
LAYER01
  6
Continuous
 62
     7
100
AcDbLine
 10
9.660668573465054
 20
415.6324883312317
 30
0.0
 11
9.464274161696147
 21
408.1324883312317
 31
0.0
  0
LINE
  5
A55
330
76
100
AcDbEntity
  8
LAYER01
  6
Continuous
 62
     7
100
AcDbLine
 10
9.464274161696145
 20
364.8188600695012
 30
0.0
 11
853.4632457842239
 21
364.8188600695012
 31
0.0
  0
LINE
  5
A56
330
76
100
AcDbEntity
  8
LAYER01
  6
Continuous
 62
     7
100
AcDbLine
 10
853.4632457842237
 20
389.5188600695009
 30
0.0
 11
792.9632457842233
 21
389.5188600695011
 31
0.0
  0
LINE
  5
A57
330
76
100
AcDbEntity
  8
LAYER01
  6
Continuous
 62
     7
100
AcDbLine
 10
789.9632457842232
 20
389.5188600695011
 30
0.0
 11
727.9632457842232
 21
389.5188600695008
 31
0.0
  0
LINE
  5
A58
330
76
100
AcDbEntity
  8
LAYER01
  6
Continuous
 62
     7
100
AcDbLine
 10
724.9632457842233
 20
389.5188600695009
 30
0.0
 11
662.9632457842234
 21
389.5188600695009
 31
0.0
  0
LINE
  5
A59
330
76
100
AcDbEntity
  8
LAYER01
  6
Continuous
 62
     7
100
AcDbLine
 10
659.9632457842234
 20
389.5188600695011
 30
0.0
 11
597.9632457842232
 21
389.5188600695011
 31
0.0
  0
LINE
  5
A5A
330
76
100
AcDbEntity
  8
LAYER01
  6
Continuous
 62
     7
100
AcDbLine
 10
594.9632457842231
 20
389.5188600695011
 30
0.0
 11
532.7823876293164
 21
389.5188600695011
 31
0.0
  0
LINE
  5
A5B
330
76
100
AcDbEntity
  8
LAYER01
  6
Continuous
 62
     7
100
AcDbLine
 10
529.7823876293164
 20
389.5188600695011
 30
0.0
 11
467.3364118964959
 21
389.5188600695011
 31
0.0
  0
LINE
  5
A5C
330
76
100
AcDbEntity
  8
LAYER01
  6
Continuous
 62
     7
100
AcDbLine
 10
465.836411896496
 20
389.5188600695011
 30
0.0
 11
402.9632457842234
 21
389.5188600695013
 31
0.0
  0
LINE
  5
A5D
330
76
100
AcDbEntity
  8
LAYER01
  6
Continuous
 62
     7
100
AcDbLine
 10
399.9632457842234
 20
389.5188600695013
 30
0.0
 11
337.9632457842236
 21
389.5188600695013
 31
0.0
  0
LINE
  5
A5E
330
76
100
AcDbEntity
  8
LAYER01
  6
Continuous
 62
     7
100
AcDbLine
 10
334.9632457842235
 20
389.5188600695013
 30
0.0
 11
272.9632457842235
 21
389.5188600695012
 31
0.0
  0
LINE
  5
A5F
330
76
100
AcDbEntity
  8
LAYER01
  6
Continuous
 62
     7
100
AcDbLine
 10
269.9632457842235
 20
389.5188600695013
 30
0.0
 11
207.9632457842235
 21
389.5188600695011
 31
0.0
  0
LINE
  5
A60
330
76
100
AcDbEntity
  8
LAYER01
  6
Continuous
 62
     7
100
AcDbLine
 10
204.9632457842235
 20
389.5188600695011
 30
0.0
 11
157.9632457842235
 21
389.5188600695011
 31
0.0
  0
LINE
  5
A61
330
76
100
AcDbEntity
  8
LAYER01
  6
Continuous
 62
     7
100
AcDbLine
 10
154.9632457842235
 20
389.5188600695011
 30
0.0
 11
107.9632457842235
 21
389.5188600695011
 31
0.0
  0
LINE
  5
A62
330
76
100
AcDbEntity
  8
LAYER01
  6
Continuous
 62
     7
100
AcDbLine
 10
104.9632457842235
 20
389.5188600695011
 30
0.0
 11
57.96324578422353
 21
389.5188600695011
 31
0.0
  0
LINE
  5
A63
330
76
100
AcDbEntity
  8
LAYER01
  6
Continuous
 62
     7
100
AcDbLine
 10
54.96324578422354
 20
389.5188600695011
 30
0.0
 11
10.11106642445507
 21
389.5188600695009
 31
0.0
  0
LINE
  5
A64
330
76
100
AcDbEntity
  8
LAYER01
  6
Continuous
 62
     7
100
AcDbLine
 10
6.921499411684325
 20
382.3188600695012
 30
0.0
 11
6.659640195992452
 21
372.3188600695012
 31
0.0
  0
LINE
  5
A65
330
76
100
AcDbEntity
  8
LAYER01
  6
Continuous
 62
     7
100
AcDbLine
 10
10.11106642445507
 20
389.5188600695009
 30
0.0
 11
9.922527789156927
 21
382.3188600695011
 31
0.0
  0
LINE
  5
A66
330
76
100
AcDbEntity
  8
LAYER01
  6
Continuous
 62
     7
100
AcDbLine
 10
9.660668573465054
 20
372.3188600695012
 30
0.0
 11
9.464274161696147
 21
364.8188600695012
 31
0.0
  0
LINE
  5
A67
330
76
100
AcDbEntity
  8
LAYER01
  6
Continuous
 62
     7
100
AcDbLine
 10
54.96324578422353
 20
364.8188600695012
 30
0.0
 11
54.96324578422353
 21
372.3188600695012
 31
0.0
  0
LINE
  5
A68
330
76
100
AcDbEntity
  8
LAYER01
  6
Continuous
 62
     7
100
AcDbLine
 10
57.96324578422352
 20
364.8188600695012
 30
0.0
 11
57.96324578422352
 21
372.3188600695012
 31
0.0
  0
LINE
  5
A69
330
76
100
AcDbEntity
  8
LAYER01
  6
Continuous
 62
     7
100
AcDbLine
 10
54.96324578422353
 20
372.3188600695012
 30
0.0
 11
57.96324578422352
 21
372.3188600695012
 31
0.0
  0
LINE
  5
A6A
330
76
100
AcDbEntity
  8
LAYER01
  6
Continuous
 62
     7
100
AcDbLine
 10
104.9632457842235
 20
364.8188600695013
 30
0.0
 11
104.9632457842235
 21
372.3188600695013
 31
0.0
  0
LINE
  5
A6B
330
76
100
AcDbEntity
  8
LAYER01
  6
Continuous
 62
     7
100
AcDbLine
 10
107.9632457842235
 20
364.8188600695013
 30
0.0
 11
107.9632457842235
 21
372.3188600695013
 31
0.0
  0
LINE
  5
A6C
330
76
100
AcDbEntity
  8
LAYER01
  6
Continuous
 62
     7
100
AcDbLine
 10
104.9632457842235
 20
372.3188600695013
 30
0.0
 11
107.9632457842235
 21
372.3188600695013
 31
0.0
  0
LINE
  5
A6D
330
76
100
AcDbEntity
  8
LAYER01
  6
Continuous
 62
     7
100
AcDbLine
 10
154.9632457842235
 20
364.8045440134797
 30
0.0
 11
154.9632457842235
 21
372.3045440134797
 31
0.0
  0
LINE
  5
A6E
330
76
100
AcDbEntity
  8
LAYER01
  6
Continuous
 62
     7
100
AcDbLine
 10
157.9632457842235
 20
364.8045440134797
 30
0.0
 11
157.9632457842235
 21
372.3045440134797
 31
0.0
  0
LINE
  5
A6F
330
76
100
AcDbEntity
  8
LAYER01
  6
Continuous
 62
     7
100
AcDbLine
 10
154.9632457842235
 20
372.3045440134797
 30
0.0
 11
157.9632457842235
 21
372.3045440134797
 31
0.0
  0
LINE
  5
A70
330
76
100
AcDbEntity
  8
LAYER01
  6
Continuous
 62
     7
100
AcDbLine
 10
204.9632457842235
 20
364.8048665906685
 30
0.0
 11
204.9632457842235
 21
372.3048665906684
 31
0.0
  0
LINE
  5
A71
330
76
100
AcDbEntity
  8
LAYER01
  6
Continuous
 62
     7
100
AcDbLine
 10
207.9632457842235
 20
364.8048665906685
 30
0.0
 11
207.9632457842235
 21
372.3048665906684
 31
0.0
  0
LINE
  5
A72
330
76
100
AcDbEntity
  8
LAYER01
  6
Continuous
 62
     7
100
AcDbLine
 10
204.9632457842235
 20
372.3048665906684
 30
0.0
 11
207.9632457842235
 21
372.3048665906684
 31
0.0
  0
LINE
  5
A73
330
76
100
AcDbEntity
  8
LAYER01
  6
Continuous
 62
     7
100
AcDbLine
 10
269.9632457842235
 20
364.8045440134797
 30
0.0
 11
269.9632457842235
 21
372.3045440134797
 31
0.0
  0
LINE
  5
A74
330
76
100
AcDbEntity
  8
LAYER01
  6
Continuous
 62
     7
100
AcDbLine
 10
272.9632457842235
 20
364.8045440134797
 30
0.0
 11
272.9632457842235
 21
372.3045440134797
 31
0.0
  0
LINE
  5
A75
330
76
100
AcDbEntity
  8
LAYER01
  6
Continuous
 62
     7
100
AcDbLine
 10
269.9632457842235
 20
372.3045440134797
 30
0.0
 11
272.9632457842235
 21
372.3045440134797
 31
0.0
  0
LINE
  5
A76
330
76
100
AcDbEntity
  8
LAYER01
  6
Continuous
 62
     7
100
AcDbLine
 10
334.9632457842237
 20
364.8045440134797
 30
0.0
 11
334.9632457842237
 21
372.3045440134797
 31
0.0
  0
LINE
  5
A77
330
76
100
AcDbEntity
  8
LAYER01
  6
Continuous
 62
     7
100
AcDbLine
 10
337.9632457842236
 20
364.8045440134797
 30
0.0
 11
337.9632457842236
 21
372.3045440134797
 31
0.0
  0
LINE
  5
A78
330
76
100
AcDbEntity
  8
LAYER01
  6
Continuous
 62
     7
100
AcDbLine
 10
334.9632457842237
 20
372.3045440134797
 30
0.0
 11
337.9632457842236
 21
372.3045440134797
 31
0.0
  0
LINE
  5
A79
330
76
100
AcDbEntity
  8
LAYER01
  6
Continuous
 62
     7
100
AcDbLine
 10
399.9632457842234
 20
364.8045440134797
 30
0.0
 11
399.9632457842234
 21
372.3045440134797
 31
0.0
  0
LINE
  5
A7A
330
76
100
AcDbEntity
  8
LAYER01
  6
Continuous
 62
     7
100
AcDbLine
 10
402.9632457842234
 20
364.8045440134797
 30
0.0
 11
402.9632457842234
 21
372.3045440134797
 31
0.0
  0
LINE
  5
A7B
330
76
100
AcDbEntity
  8
LAYER01
  6
Continuous
 62
     7
100
AcDbLine
 10
399.9632457842234
 20
372.3045440134797
 30
0.0
 11
402.9632457842234
 21
372.3045440134797
 31
0.0
  0
LINE
  5
A7C
330
76
100
AcDbEntity
  8
LAYER01
  6
Continuous
 62
     7
100
AcDbLine
 10
465.0864118964959
 20
364.8045440134797
 30
0.0
 11
465.0864118964959
 21
372.3045440134797
 31
0.0
  0
LINE
  5
A7D
330
76
100
AcDbEntity
  8
LAYER01
  6
Continuous
 62
     7
100
AcDbLine
 10
468.086411896496
 20
364.8045440134797
 30
0.0
 11
468.086411896496
 21
372.3045440134797
 31
0.0
  0
LINE
  5
A7E
330
76
100
AcDbEntity
  8
LAYER01
  6
Continuous
 62
     7
100
AcDbLine
 10
465.0864118964959
 20
372.3045440134797
 30
0.0
 11
468.086411896496
 21
372.3045440134797
 31
0.0
  0
LINE
  5
A7F
330
76
100
AcDbEntity
  8
LAYER01
  6
Continuous
 62
     7
100
AcDbLine
 10
529.7823876293164
 20
364.8188600695013
 30
0.0
 11
529.7823876293164
 21
372.3188600695013
 31
0.0
  0
LINE
  5
A80
330
76
100
AcDbEntity
  8
LAYER01
  6
Continuous
 62
     7
100
AcDbLine
 10
532.7823876293164
 20
364.8188600695013
 30
0.0
 11
532.7823876293164
 21
372.3188600695013
 31
0.0
  0
LINE
  5
A81
330
76
100
AcDbEntity
  8
LAYER01
  6
Continuous
 62
     7
100
AcDbLine
 10
529.7823876293164
 20
372.3188600695013
 30
0.0
 11
532.7823876293164
 21
372.3188600695013
 31
0.0
  0
LINE
  5
A82
330
76
100
AcDbEntity
  8
LAYER01
  6
Continuous
 62
     7
100
AcDbLine
 10
594.9632457842231
 20
364.8045440134797
 30
0.0
 11
594.9632457842231
 21
372.3045440134797
 31
0.0
  0
LINE
  5
A83
330
76
100
AcDbEntity
  8
LAYER01
  6
Continuous
 62
     7
100
AcDbLine
 10
597.9632457842232
 20
364.8045440134797
 30
0.0
 11
597.9632457842232
 21
372.3045440134797
 31
0.0
  0
LINE
  5
A84
330
76
100
AcDbEntity
  8
LAYER01
  6
Continuous
 62
     7
100
AcDbLine
 10
594.9632457842231
 20
372.3045440134797
 30
0.0
 11
597.9632457842232
 21
372.3045440134797
 31
0.0
  0
LINE
  5
A85
330
76
100
AcDbEntity
  8
LAYER01
  6
Continuous
 62
     7
100
AcDbLine
 10
659.9632457842234
 20
364.8045440134797
 30
0.0
 11
659.9632457842234
 21
372.3045440134797
 31
0.0
  0
LINE
  5
A86
330
76
100
AcDbEntity
  8
LAYER01
  6
Continuous
 62
     7
100
AcDbLine
 10
662.9632457842234
 20
364.8045440134797
 30
0.0
 11
662.9632457842234
 21
372.3045440134797
 31
0.0
  0
LINE
  5
A87
330
76
100
AcDbEntity
  8
LAYER01
  6
Continuous
 62
     7
100
AcDbLine
 10
659.9632457842234
 20
372.3045440134797
 30
0.0
 11
662.9632457842234
 21
372.3045440134797
 31
0.0
  0
LINE
  5
A88
330
76
100
AcDbEntity
  8
LAYER01
  6
Continuous
 62
     7
100
AcDbLine
 10
724.9632457842234
 20
364.8045440134797
 30
0.0
 11
724.9632457842234
 21
372.3045440134797
 31
0.0
  0
LINE
  5
A89
330
76
100
AcDbEntity
  8
LAYER01
  6
Continuous
 62
     7
100
AcDbLine
 10
727.9632457842234
 20
364.8045440134797
 30
0.0
 11
727.9632457842234
 21
372.3045440134797
 31
0.0
  0
LINE
  5
A8A
330
76
100
AcDbEntity
  8
LAYER01
  6
Continuous
 62
     7
100
AcDbLine
 10
724.9632457842234
 20
372.3045440134797
 30
0.0
 11
727.9632457842234
 21
372.3045440134797
 31
0.0
  0
LINE
  5
A8B
330
76
100
AcDbEntity
  8
LAYER01
  6
Continuous
 62
     7
100
AcDbLine
 10
724.9632457842234
 20
364.8045440134797
 30
0.0
 11
724.9632457842234
 21
372.3045440134797
 31
0.0
  0
LINE
  5
A8C
330
76
100
AcDbEntity
  8
LAYER01
  6
Continuous
 62
     7
100
AcDbLine
 10
727.9632457842234
 20
364.8045440134797
 30
0.0
 11
727.9632457842234
 21
372.3045440134797
 31
0.0
  0
LINE
  5
A8D
330
76
100
AcDbEntity
  8
LAYER01
  6
Continuous
 62
     7
100
AcDbLine
 10
724.9632457842234
 20
372.3045440134797
 30
0.0
 11
727.9632457842234
 21
372.3045440134797
 31
0.0
  0
LINE
  5
A8E
330
76
100
AcDbEntity
  8
LAYER01
  6
Continuous
 62
     7
100
AcDbLine
 10
789.9632457842233
 20
364.8045440134797
 30
0.0
 11
789.9632457842233
 21
372.3045440134797
 31
0.0
  0
LINE
  5
A8F
330
76
100
AcDbEntity
  8
LAYER01
  6
Continuous
 62
     7
100
AcDbLine
 10
792.9632457842233
 20
364.8045440134797
 30
0.0
 11
792.9632457842233
 21
372.3045440134797
 31
0.0
  0
LINE
  5
A90
330
76
100
AcDbEntity
  8
LAYER01
  6
Continuous
 62
     7
100
AcDbLine
 10
789.9632457842233
 20
372.3045440134797
 30
0.0
 11
792.9632457842233
 21
372.3045440134797
 31
0.0
  0
LINE
  5
A91
330
76
100
AcDbEntity
  8
LAYER01
  6
Continuous
 62
     7
100
AcDbLine
 10
853.4632457842237
 20
364.8188600695012
 30
0.0
 11
853.4632457842237
 21
372.3188600695012
 31
0.0
  0
LINE
  5
A92
330
76
100
AcDbEntity
  8
LAYER01
  6
Continuous
 62
     7
100
AcDbLine
 10
853.4632457842237
 20
372.3188600695012
 30
0.0
 11
856.4632457842238
 21
372.3188600695012
 31
0.0
  0
LINE
  5
A93
330
76
100
AcDbEntity
  8
LAYER01
  6
Continuous
 62
     7
100
AcDbLine
 10
6.65964019599245
 20
372.3188600695012
 30
0.0
 11
9.66066857346505
 21
372.3188600695012
 31
0.0
  0
LINE
  5
A94
330
76
100
AcDbEntity
  8
LAYER01
  6
Continuous
 62
     7
100
AcDbLine
 10
856.4632457842238
 20
372.3188600695012
 30
0.0
 11
856.4632457842238
 21
377.3188600695012
 31
0.0
  0
LINE
  5
A95
330
76
100
AcDbEntity
  8
LAYER01
  6
Continuous
 62
     7
100
AcDbLine
 10
54.96324578422353
 20
389.8188600695012
 30
0.0
 11
54.96324578422353
 21
382.3188600695012
 31
0.0
  0
LINE
  5
A96
330
76
100
AcDbEntity
  8
LAYER01
  6
Continuous
 62
     7
100
AcDbLine
 10
57.96324578422352
 20
389.8188600695012
 30
0.0
 11
57.96324578422352
 21
382.3188600695012
 31
0.0
  0
LINE
  5
A97
330
76
100
AcDbEntity
  8
LAYER01
  6
Continuous
 62
     7
100
AcDbLine
 10
54.96324578422353
 20
382.3188600695012
 30
0.0
 11
57.96324578422352
 21
382.3188600695012
 31
0.0
  0
LINE
  5
A98
330
76
100
AcDbEntity
  8
LAYER01
  6
Continuous
 62
     7
100
AcDbLine
 10
104.9632457842235
 20
389.8188600695011
 30
0.0
 11
104.9632457842235
 21
382.3188600695011
 31
0.0
  0
LINE
  5
A99
330
76
100
AcDbEntity
  8
LAYER01
  6
Continuous
 62
     7
100
AcDbLine
 10
107.9632457842235
 20
389.8188600695011
 30
0.0
 11
107.9632457842235
 21
382.3188600695011
 31
0.0
  0
LINE
  5
A9A
330
76
100
AcDbEntity
  8
LAYER01
  6
Continuous
 62
     7
100
AcDbLine
 10
104.9632457842235
 20
382.3188600695011
 30
0.0
 11
107.9632457842235
 21
382.3188600695011
 31
0.0
  0
LINE
  5
A9B
330
76
100
AcDbEntity
  8
LAYER01
  6
Continuous
 62
     7
100
AcDbLine
 10
154.9632457842235
 20
389.8331761255226
 30
0.0
 11
154.9632457842235
 21
382.3331761255226
 31
0.0
  0
LINE
  5
A9C
330
76
100
AcDbEntity
  8
LAYER01
  6
Continuous
 62
     7
100
AcDbLine
 10
157.9632457842235
 20
389.8331761255226
 30
0.0
 11
157.9632457842235
 21
382.3331761255226
 31
0.0
  0
LINE
  5
A9D
330
76
100
AcDbEntity
  8
LAYER01
  6
Continuous
 62
     7
100
AcDbLine
 10
154.9632457842235
 20
382.3331761255226
 30
0.0
 11
157.9632457842235
 21
382.3331761255226
 31
0.0
  0
LINE
  5
A9E
330
76
100
AcDbEntity
  8
LAYER01
  6
Continuous
 62
     7
100
AcDbLine
 10
204.9632457842235
 20
389.8328535483339
 30
0.0
 11
204.9632457842235
 21
382.3328535483339
 31
0.0
  0
LINE
  5
A9F
330
76
100
AcDbEntity
  8
LAYER01
  6
Continuous
 62
     7
100
AcDbLine
 10
207.9632457842235
 20
389.8328535483339
 30
0.0
 11
207.9632457842235
 21
382.3328535483339
 31
0.0
  0
LINE
  5
AA0
330
76
100
AcDbEntity
  8
LAYER01
  6
Continuous
 62
     7
100
AcDbLine
 10
204.9632457842235
 20
382.3328535483339
 30
0.0
 11
207.9632457842235
 21
382.3328535483339
 31
0.0
  0
LINE
  5
AA1
330
76
100
AcDbEntity
  8
LAYER01
  6
Continuous
 62
     7
100
AcDbLine
 10
269.9632457842235
 20
389.8331761255226
 30
0.0
 11
269.9632457842235
 21
382.3331761255226
 31
0.0
  0
LINE
  5
AA2
330
76
100
AcDbEntity
  8
LAYER01
  6
Continuous
 62
     7
100
AcDbLine
 10
272.9632457842235
 20
389.8331761255226
 30
0.0
 11
272.9632457842235
 21
382.3331761255226
 31
0.0
  0
LINE
  5
AA3
330
76
100
AcDbEntity
  8
LAYER01
  6
Continuous
 62
     7
100
AcDbLine
 10
269.9632457842235
 20
382.3331761255226
 30
0.0
 11
272.9632457842235
 21
382.3331761255226
 31
0.0
  0
LINE
  5
AA4
330
76
100
AcDbEntity
  8
LAYER01
  6
Continuous
 62
     7
100
AcDbLine
 10
334.9632457842237
 20
389.8331761255226
 30
0.0
 11
334.9632457842237
 21
382.3331761255226
 31
0.0
  0
LINE
  5
AA5
330
76
100
AcDbEntity
  8
LAYER01
  6
Continuous
 62
     7
100
AcDbLine
 10
337.9632457842236
 20
389.8331761255226
 30
0.0
 11
337.9632457842236
 21
382.3331761255226
 31
0.0
  0
LINE
  5
AA6
330
76
100
AcDbEntity
  8
LAYER01
  6
Continuous
 62
     7
100
AcDbLine
 10
334.9632457842237
 20
382.3331761255226
 30
0.0
 11
337.9632457842236
 21
382.3331761255226
 31
0.0
  0
LINE
  5
AA7
330
76
100
AcDbEntity
  8
LAYER01
  6
Continuous
 62
     7
100
AcDbLine
 10
399.9632457842234
 20
389.8331761255226
 30
0.0
 11
399.9632457842234
 21
382.3331761255226
 31
0.0
  0
LINE
  5
AA8
330
76
100
AcDbEntity
  8
LAYER01
  6
Continuous
 62
     7
100
AcDbLine
 10
402.9632457842234
 20
389.8331761255226
 30
0.0
 11
402.9632457842234
 21
382.3331761255226
 31
0.0
  0
LINE
  5
AA9
330
76
100
AcDbEntity
  8
LAYER01
  6
Continuous
 62
     7
100
AcDbLine
 10
399.9632457842234
 20
382.3331761255226
 30
0.0
 11
402.9632457842234
 21
382.3331761255226
 31
0.0
  0
LINE
  5
AAA
330
76
100
AcDbEntity
  8
LAYER01
  6
Continuous
 62
     7
100
AcDbLine
 10
465.0864118964959
 20
389.8331761255226
 30
0.0
 11
465.0864118964959
 21
382.3331761255226
 31
0.0
  0
LINE
  5
AAB
330
76
100
AcDbEntity
  8
LAYER01
  6
Continuous
 62
     7
100
AcDbLine
 10
468.086411896496
 20
389.8331761255226
 30
0.0
 11
468.086411896496
 21
382.3331761255226
 31
0.0
  0
LINE
  5
AAC
330
76
100
AcDbEntity
  8
LAYER01
  6
Continuous
 62
     7
100
AcDbLine
 10
465.0864118964959
 20
382.3331761255226
 30
0.0
 11
468.086411896496
 21
382.3331761255226
 31
0.0
  0
LINE
  5
AAD
330
76
100
AcDbEntity
  8
LAYER01
  6
Continuous
 62
     7
100
AcDbLine
 10
529.7823876293164
 20
389.8188600695011
 30
0.0
 11
529.7823876293164
 21
382.3188600695011
 31
0.0
  0
LINE
  5
AAE
330
76
100
AcDbEntity
  8
LAYER01
  6
Continuous
 62
     7
100
AcDbLine
 10
532.7823876293164
 20
389.8188600695011
 30
0.0
 11
532.7823876293164
 21
382.3188600695011
 31
0.0
  0
LINE
  5
AAF
330
76
100
AcDbEntity
  8
LAYER01
  6
Continuous
 62
     7
100
AcDbLine
 10
529.7823876293164
 20
382.3188600695011
 30
0.0
 11
532.7823876293164
 21
382.3188600695011
 31
0.0
  0
LINE
  5
AB0
330
76
100
AcDbEntity
  8
LAYER01
  6
Continuous
 62
     7
100
AcDbLine
 10
594.9632457842231
 20
389.8331761255226
 30
0.0
 11
594.9632457842231
 21
382.3331761255226
 31
0.0
  0
LINE
  5
AB1
330
76
100
AcDbEntity
  8
LAYER01
  6
Continuous
 62
     7
100
AcDbLine
 10
597.9632457842232
 20
389.8331761255226
 30
0.0
 11
597.9632457842232
 21
382.3331761255226
 31
0.0
  0
LINE
  5
AB2
330
76
100
AcDbEntity
  8
LAYER01
  6
Continuous
 62
     7
100
AcDbLine
 10
594.9632457842231
 20
382.3331761255226
 30
0.0
 11
597.9632457842232
 21
382.3331761255226
 31
0.0
  0
LINE
  5
AB3
330
76
100
AcDbEntity
  8
LAYER01
  6
Continuous
 62
     7
100
AcDbLine
 10
659.9632457842234
 20
389.8331761255226
 30
0.0
 11
659.9632457842234
 21
382.3331761255226
 31
0.0
  0
LINE
  5
AB4
330
76
100
AcDbEntity
  8
LAYER01
  6
Continuous
 62
     7
100
AcDbLine
 10
662.9632457842234
 20
389.8331761255226
 30
0.0
 11
662.9632457842234
 21
382.3331761255226
 31
0.0
  0
LINE
  5
AB5
330
76
100
AcDbEntity
  8
LAYER01
  6
Continuous
 62
     7
100
AcDbLine
 10
659.9632457842234
 20
382.3331761255226
 30
0.0
 11
662.9632457842234
 21
382.3331761255226
 31
0.0
  0
LINE
  5
AB6
330
76
100
AcDbEntity
  8
LAYER01
  6
Continuous
 62
     7
100
AcDbLine
 10
724.9632457842234
 20
389.8331761255226
 30
0.0
 11
724.9632457842234
 21
382.3331761255226
 31
0.0
  0
LINE
  5
AB7
330
76
100
AcDbEntity
  8
LAYER01
  6
Continuous
 62
     7
100
AcDbLine
 10
727.9632457842234
 20
389.8331761255226
 30
0.0
 11
727.9632457842234
 21
382.3331761255226
 31
0.0
  0
LINE
  5
AB8
330
76
100
AcDbEntity
  8
LAYER01
  6
Continuous
 62
     7
100
AcDbLine
 10
724.9632457842234
 20
382.3331761255226
 30
0.0
 11
727.9632457842234
 21
382.3331761255226
 31
0.0
  0
LINE
  5
AB9
330
76
100
AcDbEntity
  8
LAYER01
  6
Continuous
 62
     7
100
AcDbLine
 10
724.9632457842234
 20
389.8331761255226
 30
0.0
 11
724.9632457842234
 21
382.3331761255226
 31
0.0
  0
LINE
  5
ABA
330
76
100
AcDbEntity
  8
LAYER01
  6
Continuous
 62
     7
100
AcDbLine
 10
727.9632457842234
 20
389.8331761255226
 30
0.0
 11
727.9632457842234
 21
382.3331761255226
 31
0.0
  0
LINE
  5
ABB
330
76
100
AcDbEntity
  8
LAYER01
  6
Continuous
 62
     7
100
AcDbLine
 10
724.9632457842234
 20
382.3331761255226
 30
0.0
 11
727.9632457842234
 21
382.3331761255226
 31
0.0
  0
LINE
  5
ABC
330
76
100
AcDbEntity
  8
LAYER01
  6
Continuous
 62
     7
100
AcDbLine
 10
789.9632457842233
 20
389.8331761255226
 30
0.0
 11
789.9632457842233
 21
382.3331761255226
 31
0.0
  0
LINE
  5
ABD
330
76
100
AcDbEntity
  8
LAYER01
  6
Continuous
 62
     7
100
AcDbLine
 10
792.9632457842233
 20
389.8331761255226
 30
0.0
 11
792.9632457842233
 21
382.3331761255226
 31
0.0
  0
LINE
  5
ABE
330
76
100
AcDbEntity
  8
LAYER01
  6
Continuous
 62
     7
100
AcDbLine
 10
789.9632457842233
 20
382.3331761255226
 30
0.0
 11
792.9632457842233
 21
382.3331761255226
 31
0.0
  0
LINE
  5
ABF
330
76
100
AcDbEntity
  8
LAYER01
  6
Continuous
 62
     7
100
AcDbLine
 10
853.4632457842237
 20
389.8188600695012
 30
0.0
 11
853.4632457842237
 21
382.3188600695012
 31
0.0
  0
LINE
  5
AC0
330
76
100
AcDbEntity
  8
LAYER01
  6
Continuous
 62
     7
100
AcDbLine
 10
853.4632457842237
 20
382.3188600695012
 30
0.0
 11
856.4632457842238
 21
382.3188600695012
 31
0.0
  0
LINE
  5
AC1
330
76
100
AcDbEntity
  8
LAYER01
  6
Continuous
 62
     7
100
AcDbLine
 10
6.921499411684326
 20
382.3188600695012
 30
0.0
 11
9.922527789156927
 21
382.3188600695012
 31
0.0
  0
LINE
  5
AC2
330
76
100
AcDbEntity
  8
LAYER01
  6
Continuous
 62
     7
100
AcDbLine
 10
856.4632457842238
 20
382.3188600695012
 30
0.0
 11
856.4632457842238
 21
377.3188600695012
 31
0.0
  0
ENDSEC
  0
SECTION
  2
OBJECTS
  0
DICTIONARY
  5
C
330
0
100
AcDbDictionary
281
     1
  3
ACAD_COLOR
350
6D
  3
ACAD_GROUP
350
D
  3
ACAD_LAYOUT
350
6C
  3
ACAD_MATERIAL
350
10
  3
ACAD_MLEADERSTYLE
350
70
  3
ACAD_MLINESTYLE
350
69
  3
ACAD_PLOTSETTINGS
350
6B
  3
ACAD_PLOTSTYLENAME
350
E
  3
ACAD_SCALELIST
350
3D
  3
ACAD_TABLESTYLE
350
6E
  3
ACAD_VISUALSTYLE
350
29
  3
ACDB_RECOMPOSE_DATA
350
AC4
  3
AcDbVariableDictionary
350
7F8
  0
DICTIONARY
  5
7E0
330
5F
100
AcDbDictionary
280
     1
281
     1
  3
ADSK_XREC_LAYER_RECONCILED
360
7E1
  0
DICTIONARY
  5
7E2
330
7A
100
AcDbDictionary
280
     1
281
     1
  3
ADSK_XREC_LAYER_RECONCILED
360
7E3
  0
DICTIONARY
  5
7E4
330
85
100
AcDbDictionary
280
     1
281
     1
  3
ADSK_XREC_LAYER_RECONCILED
360
7E5
  0
DICTIONARY
  5
7E6
330
86
100
AcDbDictionary
280
     1
281
     1
  3
ADSK_XREC_LAYER_RECONCILED
360
7E7
  0
DICTIONARY
  5
7E8
330
87
100
AcDbDictionary
280
     1
281
     1
  3
ADSK_XREC_LAYER_RECONCILED
360
7E9
  0
DICTIONARY
  5
7EA
330
88
100
AcDbDictionary
280
     1
281
     1
  3
ADSK_XREC_LAYER_RECONCILED
360
7EB
  0
DICTIONARY
  5
7EC
330
89
100
AcDbDictionary
280
     1
281
     1
  3
ADSK_XREC_LAYER_RECONCILED
360
7ED
  0
DICTIONARY
  5
7EE
330
8A
100
AcDbDictionary
280
     1
281
     1
  3
ADSK_XREC_LAYER_RECONCILED
360
7EF
  0
DICTIONARY
  5
7F0
330
8B
100
AcDbDictionary
280
     1
281
     1
  3
ADSK_XREC_LAYER_RECONCILED
360
7F1
  0
DICTIONARY
  5
7F2
330
8C
100
AcDbDictionary
280
     1
281
     1
  3
ADSK_XREC_LAYER_RECONCILED
360
7F3
  0
DICTIONARY
  5
7F4
330
8D
100
AcDbDictionary
280
     1
281
     1
  3
ADSK_XREC_LAYER_RECONCILED
360
7F5
  0
DICTIONARY
  5
7F6
330
90
100
AcDbDictionary
280
     1
281
     1
  3
ADSK_XREC_LAYER_RECONCILED
360
7F7
  0
DICTIONARY
  5
7A6
330
76
100
AcDbDictionary
280
     1
281
     1
  3
ACAD_SORTENTS
360
7A7
  0
DICTIONARY
  5
6D
102
{ACAD_REACTORS
330
C
102
}
330
C
100
AcDbDictionary
281
     1
  0
DICTIONARY
  5
D
102
{ACAD_REACTORS
330
C
102
}
330
C
100
AcDbDictionary
281
     1
  0
DICTIONARY
  5
6C
102
{ACAD_REACTORS
330
C
102
}
330
C
100
AcDbDictionary
281
     1
  3
Layout1
350
75
  3
Model
350
79
  0
DICTIONARY
  5
10
102
{ACAD_REACTORS
330
C
102
}
330
C
100
AcDbDictionary
281
     1
  3
ByBlock
350
19
  3
ByLayer
350
11
  3
Global
350
21
  0
DICTIONARY
  5
70
102
{ACAD_REACTORS
330
C
102
}
330
C
100
AcDbDictionary
281
     1
  3
Standard
350
71
  0
DICTIONARY
  5
69
102
{ACAD_REACTORS
330
C
102
}
330
C
100
AcDbDictionary
281
     1
  3
Standard
350
6A
  0
DICTIONARY
  5
6B
102
{ACAD_REACTORS
330
C
102
}
330
C
100
AcDbDictionary
281
     1
  0
ACDBDICTIONARYWDFLT
  5
E
102
{ACAD_REACTORS
330
C
102
}
330
C
100
AcDbDictionary
281
     1
  3
Normal
350
F
100
AcDbDictionaryWithDefault
340
F
  0
DICTIONARY
  5
3D
102
{ACAD_REACTORS
330
C
102
}
330
C
100
AcDbDictionary
281
     1
  3
A0
350
3E
  3
A1
350
3F
  3
A2
350
40
  3
A3
350
41
  3
A4
350
42
  3
A5
350
43
  3
A6
350
44
  3
A7
350
45
  3
A8
350
46
  3
A9
350
47
  3
B0
350
48
  3
B1
350
49
  3
B2
350
4A
  3
B3
350
4B
  3
B4
350
4C
  3
B5
350
4D
  3
B6
350
4E
  3
B7
350
4F
  3
B8
350
50
  3
B9
350
51
  3
C0
350
52
  3
C1
350
53
  3
C2
350
54
  3
C3
350
55
  3
C4
350
56
  3
C5
350
57
  3
C6
350
58
  3
C7
350
59
  3
C8
350
5A
  3
C9
350
5B
  3
D0
350
5C
  3
D1
350
5D
  3
D2
350
5E
  0
DICTIONARY
  5
6E
102
{ACAD_REACTORS
330
C
102
}
330
C
100
AcDbDictionary
281
     1
  3
Standard
350
6F
  0
DICTIONARY
  5
29
102
{ACAD_REACTORS
330
C
102
}
330
C
100
AcDbDictionary
281
     1
  3
2dWireframe
350
2F
  3
3D Hidden
350
31
  3
3dWireframe
350
30
  3
Basic
350
2E
  3
Brighten
350
35
  3
ColorChange
350
39
  3
Conceptual
350
32
  3
Dim
350
34
  3
EdgeColorOff
350
3C
  3
Facepattern
350
38
  3
Flat
350
2A
  3
FlatWithEdges
350
2B
  3
Gouraud
350
2C
  3
GouraudWithEdges
350
2D
  3
JitterOff
350
3A
  3
Linepattern
350
37
  3
OverhangOff
350
3B
  3
Realistic
350
33
  3
Thicken
350
36
  0
XRECORD
  5
AC4
102
{ACAD_REACTORS
330
C
102
}
330
C
100
AcDbXrecord
280
     1
 90
        1
330
6F
  0
DICTIONARY
  5
7F8
102
{ACAD_REACTORS
330
C
102
}
330
C
100
AcDbDictionary
281
     1
  3
CANNOSCALE
350
7FC
  3
CMLEADERSTYLE
350
7FA
  3
CTABLESTYLE
350
7F9
  3
LAYEREVAL
350
7FE
  3
LAYERNOTIFY
350
7FF
  3
LIGHTINGUNITS
350
7FD
  3
MSLTSCALE
350
7FB
  0
XRECORD
  5
7E1
102
{ACAD_REACTORS
330
7E0
102
}
330
7E0
100
AcDbXrecord
280
     1
290
     1
  0
XRECORD
  5
7E3
102
{ACAD_REACTORS
330
7E2
102
}
330
7E2
100
AcDbXrecord
280
     1
290
     1
  0
XRECORD
  5
7E5
102
{ACAD_REACTORS
330
7E4
102
}
330
7E4
100
AcDbXrecord
280
     1
290
     1
  0
XRECORD
  5
7E7
102
{ACAD_REACTORS
330
7E6
102
}
330
7E6
100
AcDbXrecord
280
     1
290
     1
  0
XRECORD
  5
7E9
102
{ACAD_REACTORS
330
7E8
102
}
330
7E8
100
AcDbXrecord
280
     1
290
     1
  0
XRECORD
  5
7EB
102
{ACAD_REACTORS
330
7EA
102
}
330
7EA
100
AcDbXrecord
280
     1
290
     1
  0
XRECORD
  5
7ED
102
{ACAD_REACTORS
330
7EC
102
}
330
7EC
100
AcDbXrecord
280
     1
290
     1
  0
XRECORD
  5
7EF
102
{ACAD_REACTORS
330
7EE
102
}
330
7EE
100
AcDbXrecord
280
     1
290
     1
  0
XRECORD
  5
7F1
102
{ACAD_REACTORS
330
7F0
102
}
330
7F0
100
AcDbXrecord
280
     1
290
     1
  0
XRECORD
  5
7F3
102
{ACAD_REACTORS
330
7F2
102
}
330
7F2
100
AcDbXrecord
280
     1
290
     1
  0
XRECORD
  5
7F5
102
{ACAD_REACTORS
330
7F4
102
}
330
7F4
100
AcDbXrecord
280
     1
290
     1
  0
XRECORD
  5
7F7
102
{ACAD_REACTORS
330
7F6
102
}
330
7F6
100
AcDbXrecord
280
     1
290
     1
  0
SORTENTSTABLE
  5
7A7
102
{ACAD_REACTORS
330
7A6
102
}
330
7A6
100
AcDbSortentsTable
330
76
331
A50
  5
A51
331
9BA
  5
9BA
331
A2D
  5
A2E
331
A35
  5
A36
331
9F6
  5
9F8
331
A3D
  5
A3E
331
9FE
  5
A00
331
A06
  5
A08
331
A0E
  5
A10
331
A41
  5
A42
331
A16
  5
A18
331
A49
  5
A4A
331
9B3
  5
9B3
331
A26
  5
A27
331
A51
  5
A52
331
9BB
  5
9BB
331
A2E
  5
A2F
331
A36
  5
A37
331
9F7
  5
9F9
331
A3E
  5
A3F
331
9FF
  5
A01
331
A07
  5
A09
331
A0F
  5
A11
331
A42
  5
A43
331
A17
  5
A19
331
A4A
  5
A4B
331
9B4
  5
9B4
331
A27
  5
A28
331
A52
  5
A53
331
9BC
  5
9BC
331
A2F
  5
A30
331
A37
  5
A38
331
9F8
  5
9FA
331
A3F
  5
A40
331
A00
  5
A02
331
A08
  5
A0A
331
A10
  5
A12
331
A43
  5
A44
331
A18
  5
A1A
331
A4B
  5
A4C
331
A20
  5
A23
331
9B5
  5
9B5
331
A53
  5
A54
331
A28
  5
A29
331
A30
  5
A31
331
9F1
  5
9F4
331
A38
  5
A39
331
9F9
  5
9FB
331
A01
  5
A03
331
A09
  5
A0B
331
A11
  5
A13
331
A44
  5
A45
331
A19
  5
A1B
331
9AE
  5
9AE
331
A4C
  5
A4D
331
A21
  5
9BD
331
9B6
  5
9B6
331
A29
  5
A2A
331
A54
  5
9F2
331
A31
  5
A32
331
9F2
  5
9F3
331
A39
  5
A3A
331
9FA
  5
9FC
331
A02
  5
A04
331
A0A
  5
A0C
331
A12
  5
A14
331
A45
  5
A46
331
A1A
  5
A1D
331
9AF
  5
9AF
331
A4D
  5
A4E
331
9B7
  5
9B7
331
A2A
  5
A2B
331
A32
  5
A33
331
9F3
  5
9F5
331
A3A
  5
A3B
331
9FB
  5
9FD
331
A03
  5
A05
331
A0B
  5
A0D
331
A13
  5
A15
331
A46
  5
A47
331
A1B
  5
A1E
331
9B0
  5
9B0
331
A4E
  5
A4F
331
A23
  5
A26
331
9B8
  5
9B8
331
A2B
  5
A2C
331
A33
  5
A34
331
9F4
  5
9F6
331
8DB
  5
8DB
331
A3B
  5
A3C
331
9FC
  5
9FE
331
A04
  5
A06
331
A0C
  5
A0E
331
A14
  5
A16
331
A47
  5
A48
331
9B1
  5
9B1
331
A4F
  5
A50
331
9B9
  5
9B9
331
A2C
  5
A2D
331
A34
  5
A35
331
9F5
  5
9F7
331
A3C
  5
A3D
331
9FD
  5
9FF
331
A05
  5
A07
331
A0D
  5
A0F
331
A40
  5
A41
331
A15
  5
A17
331
A48
  5
A49
331
A1D
  5
A21
331
9B2
  5
9B2
  0
LAYOUT
  5
75
102
{ACAD_REACTORS
330
6C
102
}
330
6C
100
AcDbPlotSettings
  1

  2
EPSON SX100 Series
  4

  6

 40
0.0
 41
0.0
 42
0.0
 43
0.0
 44
0.0
 45
0.0
 46
0.0
 47
0.0
 48
0.0
 49
0.0
140
0.0
141
0.0
142
1.0
143
1.0
 70
   688
 72
     0
 73
     0
 74
     5
  7

 75
    16
147
1.0
 76
     0
 77
     2
 78
   300
148
0.0
149
0.0
100
AcDbLayout
  1
Layout1
 70
     1
 71
     1
 10
0.0
 20
0.0
 11
12.0
 21
9.0
 12
0.0
 22
0.0
 32
0.0
 14
1.000000000000000E+20
 24
1.000000000000000E+20
 34
1.000000000000000E+20
 15
-1.000000000000000E+20
 25
-1.000000000000000E+20
 35
-1.000000000000000E+20
146
0.0
 13
0.0
 23
0.0
 33
0.0
 16
1.0
 26
0.0
 36
0.0
 17
0.0
 27
1.0
 37
0.0
 76
     0
330
72
  0
LAYOUT
  5
79
102
{ACAD_REACTORS
330
6C
102
}
330
6C
100
AcDbPlotSettings
  1

  2
EPSON SX100 Series
  4

  6

 40
0.0
 41
0.0
 42
0.0
 43
0.0
 44
0.0
 45
0.0
 46
0.0
 47
0.0
 48
0.0
 49
0.0
140
0.0
141
0.0
142
1.0
143
1.0
 70
  1712
 72
     0
 73
     0
 74
     0
  7

 75
     0
147
1.0
 76
     0
 77
     2
 78
   300
148
0.0
149
0.0
100
AcDbLayout
  1
Model
 70
     1
 71
     0
 10
0.0
 20
0.0
 11
12.0
 21
9.0
 12
0.0
 22
0.0
 32
0.0
 14
0.0
 24
0.0
 34
0.0
 15
0.0
 25
0.0
 35
0.0
146
0.0
 13
0.0
 23
0.0
 33
0.0
 16
1.0
 26
0.0
 36
0.0
 17
0.0
 27
1.0
 37
0.0
 76
     0
330
76
331
8F
  0
MATERIAL
  5
19
102
{ACAD_XDICTIONARY
360
1A
102
}
102
{ACAD_REACTORS
330
10
102
}
330
10
100
AcDbMaterial
  1
ByBlock
 72
     0
 43
0.0208333333333333
 43
0.0
 43
0.0
 43
0.0
 43
0.0
 43
0.0208333333333333
 43
0.0
 43
0.0
 43
0.0
 43
0.0
 43
1.0
 43
0.0
 43
0.0
 43
0.0
 43
0.0
 43
1.0
 77
     0
 47
0.0208333333333333
 47
0.0
 47
0.0
 47
0.0
 47
0.0
 47
0.0208333333333333
 47
0.0
 47
0.0
 47
0.0
 47
0.0
 47
1.0
 47
0.0
 47
0.0
 47
0.0
 47
0.0
 47
1.0
171
     0
 49
0.0208333333333333
 49
0.0
 49
0.0
 49
0.0
 49
0.0
 49
0.0208333333333333
 49
0.0
 49
0.0
 49
0.0
 49
0.0
 49
1.0
 49
0.0
 49
0.0
 49
0.0
 49
0.0
 49
1.0
175
     0
142
0.0208333333333333
142
0.0
142
0.0
142
0.0
142
0.0
142
0.0208333333333333
142
0.0
142
0.0
142
0.0
142
0.0
142
1.0
142
0.0
142
0.0
142
0.0
142
0.0
142
1.0
179
     0
144
0.0208333333333333
144
0.0
144
0.0
144
0.0
144
0.0
144
0.0208333333333333
144
0.0
144
0.0
144
0.0
144
0.0
144
1.0
144
0.0
144
0.0
144
0.0
144
0.0
144
1.0
147
0.0208333333333333
147
0.0
147
0.0
147
0.0
147
0.0
147
0.0208333333333333
147
0.0
147
0.0
147
0.0
147
0.0
147
1.0
147
0.0
147
0.0
147
0.0
147
0.0
147
1.0
  0
MATERIAL
  5
11
102
{ACAD_XDICTIONARY
360
12
102
}
102
{ACAD_REACTORS
330
10
102
}
330
10
100
AcDbMaterial
  1
ByLayer
 72
     0
 43
0.0208333333333333
 43
0.0
 43
0.0
 43
0.0
 43
0.0
 43
0.0208333333333333
 43
0.0
 43
0.0
 43
0.0
 43
0.0
 43
1.0
 43
0.0
 43
0.0
 43
0.0
 43
0.0
 43
1.0
 77
     0
 47
0.0208333333333333
 47
0.0
 47
0.0
 47
0.0
 47
0.0
 47
0.0208333333333333
 47
0.0
 47
0.0
 47
0.0
 47
0.0
 47
1.0
 47
0.0
 47
0.0
 47
0.0
 47
0.0
 47
1.0
171
     0
 49
0.0208333333333333
 49
0.0
 49
0.0
 49
0.0
 49
0.0
 49
0.0208333333333333
 49
0.0
 49
0.0
 49
0.0
 49
0.0
 49
1.0
 49
0.0
 49
0.0
 49
0.0
 49
0.0
 49
1.0
175
     0
142
0.0208333333333333
142
0.0
142
0.0
142
0.0
142
0.0
142
0.0208333333333333
142
0.0
142
0.0
142
0.0
142
0.0
142
1.0
142
0.0
142
0.0
142
0.0
142
0.0
142
1.0
179
     0
144
0.0208333333333333
144
0.0
144
0.0
144
0.0
144
0.0
144
0.0208333333333333
144
0.0
144
0.0
144
0.0
144
0.0
144
1.0
144
0.0
144
0.0
144
0.0
144
0.0
144
1.0
147
0.0208333333333333
147
0.0
147
0.0
147
0.0
147
0.0
147
0.0208333333333333
147
0.0
147
0.0
147
0.0
147
0.0
147
1.0
147
0.0
147
0.0
147
0.0
147
0.0
147
1.0
  0
MATERIAL
  5
21
102
{ACAD_XDICTIONARY
360
22
102
}
102
{ACAD_REACTORS
330
10
102
}
330
10
100
AcDbMaterial
  1
Global
 72
     0
 43
0.0208333333333333
 43
0.0
 43
0.0
 43
0.0
 43
0.0
 43
0.0208333333333333
 43
0.0
 43
0.0
 43
0.0
 43
0.0
 43
1.0
 43
0.0
 43
0.0
 43
0.0
 43
0.0
 43
1.0
 77
     0
 47
0.0208333333333333
 47
0.0
 47
0.0
 47
0.0
 47
0.0
 47
0.0208333333333333
 47
0.0
 47
0.0
 47
0.0
 47
0.0
 47
1.0
 47
0.0
 47
0.0
 47
0.0
 47
0.0
 47
1.0
171
     0
 49
0.0208333333333333
 49
0.0
 49
0.0
 49
0.0
 49
0.0
 49
0.0208333333333333
 49
0.0
 49
0.0
 49
0.0
 49
0.0
 49
1.0
 49
0.0
 49
0.0
 49
0.0
 49
0.0
 49
1.0
175
     0
142
0.0208333333333333
142
0.0
142
0.0
142
0.0
142
0.0
142
0.0208333333333333
142
0.0
142
0.0
142
0.0
142
0.0
142
1.0
142
0.0
142
0.0
142
0.0
142
0.0
142
1.0
179
     0
144
0.0208333333333333
144
0.0
144
0.0
144
0.0
144
0.0
144
0.0208333333333333
144
0.0
144
0.0
144
0.0
144
0.0
144
1.0
144
0.0
144
0.0
144
0.0
144
0.0
144
1.0
147
0.0208333333333333
147
0.0
147
0.0
147
0.0
147
0.0
147
0.0208333333333333
147
0.0
147
0.0
147
0.0
147
0.0
147
1.0
147
0.0
147
0.0
147
0.0
147
0.0
147
1.0
  0
MLEADERSTYLE
  5
71
102
{ACAD_REACTORS
330
70
102
}
330
70
100
AcDbMLeaderStyle
179
     2
170
     2
171
     1
172
     0
 90
        2
 40
0.0
 41
0.0
173
     1
 91
-1056964608
340
65
 92
       -2
290
     1
 42
0.09
291
     1
 43
0.36
  3
Standard
 44
0.18
300

342
60
174
     1
178
     6
175
     1
176
     0
 93
-1056964608
 45
0.18
292
     0
297
     0
 46
0.18
 94
-1056964608
 47
1.0
 49
1.0
140
1.0
293
     1
141
0.0
294
     1
177
     0
142
1.0
295
     0
296
     0
143
0.125
271
     0
272
     9
273
     9
  0
MLINESTYLE
  5
6A
102
{ACAD_REACTORS
330
69
102
}
330
69
100
AcDbMlineStyle
  2
STANDARD
 70
     0
  3

 62
   256
 51
90.0
 52
90.0
 71
     2
 49
0.5
 62
   256
  6
BYLAYER
 49
-0.5
 62
   256
  6
BYLAYER
  0
ACDBPLACEHOLDER
  5
F
102
{ACAD_REACTORS
330
E
102
}
330
E
  0
SCALE
  5
3E
102
{ACAD_REACTORS
330
3D
102
}
330
3D
100
AcDbScale
 70
     0
300
1:1
140
1.0
141
1.0
290
     1
  0
SCALE
  5
3F
102
{ACAD_REACTORS
330
3D
102
}
330
3D
100
AcDbScale
 70
     0
300
1:2
140
1.0
141
2.0
290
     0
  0
SCALE
  5
40
102
{ACAD_REACTORS
330
3D
102
}
330
3D
100
AcDbScale
 70
     0
300
1:4
140
1.0
141
4.0
290
     0
  0
SCALE
  5
41
102
{ACAD_REACTORS
330
3D
102
}
330
3D
100
AcDbScale
 70
     0
300
1:5
140
1.0
141
5.0
290
     0
  0
SCALE
  5
42
102
{ACAD_REACTORS
330
3D
102
}
330
3D
100
AcDbScale
 70
     0
300
1:8
140
1.0
141
8.0
290
     0
  0
SCALE
  5
43
102
{ACAD_REACTORS
330
3D
102
}
330
3D
100
AcDbScale
 70
     0
300
1:10
140
1.0
141
10.0
290
     0
  0
SCALE
  5
44
102
{ACAD_REACTORS
330
3D
102
}
330
3D
100
AcDbScale
 70
     0
300
1:16
140
1.0
141
16.0
290
     0
  0
SCALE
  5
45
102
{ACAD_REACTORS
330
3D
102
}
330
3D
100
AcDbScale
 70
     0
300
1:20
140
1.0
141
20.0
290
     0
  0
SCALE
  5
46
102
{ACAD_REACTORS
330
3D
102
}
330
3D
100
AcDbScale
 70
     0
300
1:30
140
1.0
141
30.0
290
     0
  0
SCALE
  5
47
102
{ACAD_REACTORS
330
3D
102
}
330
3D
100
AcDbScale
 70
     0
300
1:40
140
1.0
141
40.0
290
     0
  0
SCALE
  5
48
102
{ACAD_REACTORS
330
3D
102
}
330
3D
100
AcDbScale
 70
     0
300
1:50
140
1.0
141
50.0
290
     0
  0
SCALE
  5
49
102
{ACAD_REACTORS
330
3D
102
}
330
3D
100
AcDbScale
 70
     0
300
1:100
140
1.0
141
100.0
290
     0
  0
SCALE
  5
4A
102
{ACAD_REACTORS
330
3D
102
}
330
3D
100
AcDbScale
 70
     0
300
2:1
140
2.0
141
1.0
290
     0
  0
SCALE
  5
4B
102
{ACAD_REACTORS
330
3D
102
}
330
3D
100
AcDbScale
 70
     0
300
4:1
140
4.0
141
1.0
290
     0
  0
SCALE
  5
4C
102
{ACAD_REACTORS
330
3D
102
}
330
3D
100
AcDbScale
 70
     0
300
8:1
140
8.0
141
1.0
290
     0
  0
SCALE
  5
4D
102
{ACAD_REACTORS
330
3D
102
}
330
3D
100
AcDbScale
 70
     0
300
10:1
140
10.0
141
1.0
290
     0
  0
SCALE
  5
4E
102
{ACAD_REACTORS
330
3D
102
}
330
3D
100
AcDbScale
 70
     0
300
100:1
140
100.0
141
1.0
290
     0
  0
SCALE
  5
4F
102
{ACAD_REACTORS
330
3D
102
}
330
3D
100
AcDbScale
 70
     0
300
1/128" = 1'-0"
140
0.0078125
141
12.0
290
     0
  0
SCALE
  5
50
102
{ACAD_REACTORS
330
3D
102
}
330
3D
100
AcDbScale
 70
     0
300
1/64" = 1'-0"
140
0.015625
141
12.0
290
     0
  0
SCALE
  5
51
102
{ACAD_REACTORS
330
3D
102
}
330
3D
100
AcDbScale
 70
     0
300
1/32" = 1'-0"
140
0.03125
141
12.0
290
     0
  0
SCALE
  5
52
102
{ACAD_REACTORS
330
3D
102
}
330
3D
100
AcDbScale
 70
     0
300
1/16" = 1'-0"
140
0.0625
141
12.0
290
     0
  0
SCALE
  5
53
102
{ACAD_REACTORS
330
3D
102
}
330
3D
100
AcDbScale
 70
     0
300
3/32" = 1'-0"
140
0.09375
141
12.0
290
     0
  0
SCALE
  5
54
102
{ACAD_REACTORS
330
3D
102
}
330
3D
100
AcDbScale
 70
     0
300
1/8" = 1'-0"
140
0.125
141
12.0
290
     0
  0
SCALE
  5
55
102
{ACAD_REACTORS
330
3D
102
}
330
3D
100
AcDbScale
 70
     0
300
3/16" = 1'-0"
140
0.1875
141
12.0
290
     0
  0
SCALE
  5
56
102
{ACAD_REACTORS
330
3D
102
}
330
3D
100
AcDbScale
 70
     0
300
1/4" = 1'-0"
140
0.25
141
12.0
290
     0
  0
SCALE
  5
57
102
{ACAD_REACTORS
330
3D
102
}
330
3D
100
AcDbScale
 70
     0
300
3/8" = 1'-0"
140
0.375
141
12.0
290
     0
  0
SCALE
  5
58
102
{ACAD_REACTORS
330
3D
102
}
330
3D
100
AcDbScale
 70
     0
300
1/2" = 1'-0"
140
0.5
141
12.0
290
     0
  0
SCALE
  5
59
102
{ACAD_REACTORS
330
3D
102
}
330
3D
100
AcDbScale
 70
     0
300
3/4" = 1'-0"
140
0.75
141
12.0
290
     0
  0
SCALE
  5
5A
102
{ACAD_REACTORS
330
3D
102
}
330
3D
100
AcDbScale
 70
     0
300
1" = 1'-0"
140
1.0
141
12.0
290
     0
  0
SCALE
  5
5B
102
{ACAD_REACTORS
330
3D
102
}
330
3D
100
AcDbScale
 70
     0
300
1-1/2" = 1'-0"
140
1.5
141
12.0
290
     0
  0
SCALE
  5
5C
102
{ACAD_REACTORS
330
3D
102
}
330
3D
100
AcDbScale
 70
     0
300
3" = 1'-0"
140
3.0
141
12.0
290
     0
  0
SCALE
  5
5D
102
{ACAD_REACTORS
330
3D
102
}
330
3D
100
AcDbScale
 70
     0
300
6" = 1'-0"
140
6.0
141
12.0
290
     0
  0
SCALE
  5
5E
102
{ACAD_REACTORS
330
3D
102
}
330
3D
100
AcDbScale
 70
     0
300
1'-0" = 1'-0"
140
12.0
141
12.0
290
     0
  0
TABLESTYLE
  5
6F
102
{ACAD_XDICTIONARY
360
800
102
}
102
{ACAD_REACTORS
330
6E
102
}
330
6E
100
AcDbTableStyle
280
     0
  3
Standard
 70
     0
 71
     0
 40
0.06
 41
0.06
280
     0
281
     0
  7
STANDARD
140
0.18
170
     2
 62
     0
 63
     7
283
     0
 90
      512
 91
        0
  1

274
    -2
284
     1
 64
     0
275
    -2
285
     1
 65
     0
276
    -2
286
     1
 66
     0
277
    -2
287
     1
 67
     0
278
    -2
288
     1
 68
     0
279
    -2
289
     1
 69
     0
  7
STANDARD
140
0.25
170
     5
 62
     0
 63
     7
283
     0
 90
      512
 91
        0
  1

274
    -2
284
     1
 64
     0
275
    -2
285
     1
 65
     0
276
    -2
286
     1
 66
     0
277
    -2
287
     1
 67
     0
278
    -2
288
     1
 68
     0
279
    -2
289
     1
 69
     0
  7
STANDARD
140
0.18
170
     5
 62
     0
 63
     7
283
     0
 90
      512
 91
        0
  1

274
    -2
284
     1
 64
     0
275
    -2
285
     1
 65
     0
276
    -2
286
     1
 66
     0
277
    -2
287
     1
 67
     0
278
    -2
288
     1
 68
     0
279
    -2
289
     1
 69
     0
  0
VISUALSTYLE
  5
2F
102
{ACAD_REACTORS
330
29
102
}
330
29
100
AcDbVisualStyle
  2
2dWireframe
 70
     4
177
     2
291
     0
 71
     0
176
     1
 72
     2
176
     1
 73
     0
176
     1
 90
        0
176
     1
 40
0.6
176
     1
 41
30.0
176
     1
 63
     7
421
 16777215
176
     1
 74
     1
176
     1
 91
        4
176
     1
 64
     7
176
     1
 65
   257
176
     1
 75
     1
176
     1
175
     1
176
     1
 42
1.0
176
     1
 92
        0
176
     1
 66
   257
176
     1
 43
1.0
176
     1
 76
     1
176
     1
 77
     6
176
     1
 78
     2
176
     1
 67
     7
176
     1
 79
     5
176
     1
170
     0
176
     1
171
     0
176
     1
290
     0
176
     1
 93
        1
176
     1
 44
0.0
176
     1
173
     0
176
     1
  0
VISUALSTYLE
  5
31
102
{ACAD_REACTORS
330
29
102
}
330
29
100
AcDbVisualStyle
  2
3D Hidden
 70
     6
177
     2
291
     0
 71
     1
176
     1
 72
     2
176
     1
 73
     2
176
     1
 90
        0
176
     1
 40
0.6
176
     1
 41
30.0
176
     1
 63
     7
421
 16777215
176
     1
 74
     2
176
     1
 91
        2
176
     1
 64
     7
176
     1
 65
   257
176
     1
 75
     2
176
     1
175
     1
176
     1
 42
179.0
176
     1
 92
        0
176
     1
 66
   257
176
     1
 43
1.0
176
     1
 76
     1
176
     1
 77
     6
176
     1
 78
     2
176
     1
 67
     7
176
     1
 79
     3
176
     1
170
     0
176
     1
171
     0
176
     1
290
     0
176
     1
 93
        1
176
     1
 44
0.0
176
     1
173
     0
176
     1
  0
VISUALSTYLE
  5
30
102
{ACAD_REACTORS
330
29
102
}
330
29
100
AcDbVisualStyle
  2
3dWireframe
 70
     5
177
     2
291
     0
 71
     0
176
     1
 72
     2
176
     1
 73
     0
176
     1
 90
        0
176
     1
 40
0.6
176
     1
 41
30.0
176
     1
 63
     7
421
 16777215
176
     1
 74
     1
176
     1
 91
        4
176
     1
 64
     7
176
     1
 65
   257
176
     1
 75
     1
176
     1
175
     1
176
     1
 42
1.0
176
     1
 92
        0
176
     1
 66
   257
176
     1
 43
1.0
176
     1
 76
     1
176
     1
 77
     6
176
     1
 78
     2
176
     1
 67
     7
176
     1
 79
     5
176
     1
170
     0
176
     1
171
     0
176
     1
290
     0
176
     1
 93
        1
176
     1
 44
0.0
176
     1
173
     0
176
     1
  0
VISUALSTYLE
  5
2E
102
{ACAD_REACTORS
330
29
102
}
330
29
100
AcDbVisualStyle
  2
Basic
 70
     7
177
     2
291
     1
 71
     1
176
     1
 72
     0
176
     1
 73
     1
176
     1
 90
        0
176
     1
 40
0.6
176
     1
 41
30.0
176
     1
 63
     7
421
 16777215
176
     1
 74
     0
176
     1
 91
        4
176
     1
 64
     7
176
     1
 65
   257
176
     1
 75
     1
176
     1
175
     1
176
     1
 42
1.0
176
     1
 92
        8
176
     1
 66
     7
176
     1
 43
1.0
176
     1
 76
     1
176
     1
 77
     6
176
     1
 78
     2
176
     1
 67
     7
176
     1
 79
     5
176
     1
170
     0
176
     1
171
     0
176
     1
290
     0
176
     1
 93
        1
176
     1
 44
0.0
176
     1
173
     0
176
     1
  0
VISUALSTYLE
  5
35
102
{ACAD_REACTORS
330
29
102
}
330
29
100
AcDbVisualStyle
  2
Brighten
 70
    12
177
     2
291
     1
 71
     2
176
     1
 72
     2
176
     1
 73
     0
176
     1
 90
        0
176
     1
 40
0.6
176
     1
 41
30.0
176
     1
 63
     7
421
 16777215
176
     1
 74
     1
176
     1
 91
        4
176
     1
 64
     7
176
     1
 65
   257
176
     1
 75
     1
176
     1
175
     1
176
     1
 42
1.0
176
     1
 92
        8
176
     1
 66
     7
176
     1
 43
1.0
176
     1
 76
     1
176
     1
 77
     6
176
     1
 78
     2
176
     1
 67
     7
176
     1
 79
     5
176
     1
170
     0
176
     1
171
     0
176
     1
290
     0
176
     1
 93
        1
176
     1
 44
50.0
176
     1
173
     0
176
     1
  0
VISUALSTYLE
  5
39
102
{ACAD_REACTORS
330
29
102
}
330
29
100
AcDbVisualStyle
  2
ColorChange
 70
    16
177
     2
291
     1
 71
     2
176
     1
 72
     2
176
     1
 73
     3
176
     1
 90
        0
176
     1
 40
0.6
176
     1
 41
30.0
176
     1
 63
     8
421
  8421504
176
     1
 74
     1
176
     1
 91
        4
176
     1
 64
     7
176
     1
 65
   257
176
     1
 75
     1
176
     1
175
     1
176
     1
 42
1.0
176
     1
 92
        8
176
     1
 66
     8
424
  8421504
176
     1
 43
1.0
176
     1
 76
     1
176
     1
 77
     6
176
     1
 78
     2
176
     1
 67
     7
176
     1
 79
     5
176
     1
170
     0
176
     1
171
     0
176
     1
290
     0
176
     1
 93
        1
176
     1
 44
0.0
176
     1
173
     0
176
     1
  0
VISUALSTYLE
  5
32
102
{ACAD_REACTORS
330
29
102
}
330
29
100
AcDbVisualStyle
  2
Conceptual
 70
     9
177
     2
291
     0
 71
     3
176
     1
 72
     2
176
     1
 73
     0
176
     1
 90
        0
176
     1
 40
0.6
176
     1
 41
30.0
176
     1
 63
     7
421
 16777215
176
     1
 74
     2
176
     1
 91
        2
176
     1
 64
     7
176
     1
 65
   257
176
     1
 75
     1
176
     1
175
     1
176
     1
 42
179.0
176
     1
 92
        8
176
     1
 66
     7
176
     1
 43
1.0
176
     1
 76
     1
176
     1
 77
     6
176
     1
 78
     2
176
     1
 67
     7
176
     1
 79
     3
176
     1
170
     0
176
     1
171
     0
176
     1
290
     0
176
     1
 93
        1
176
     1
 44
0.0
176
     1
173
     0
176
     1
  0
VISUALSTYLE
  5
34
102
{ACAD_REACTORS
330
29
102
}
330
29
100
AcDbVisualStyle
  2
Dim
 70
    11
177
     2
291
     1
 71
     2
176
     1
 72
     2
176
     1
 73
     0
176
     1
 90
        0
176
     1
 40
0.6
176
     1
 41
30.0
176
     1
 63
     7
421
 16777215
176
     1
 74
     1
176
     1
 91
        4
176
     1
 64
     7
176
     1
 65
   257
176
     1
 75
     1
176
     1
175
     1
176
     1
 42
1.0
176
     1
 92
        8
176
     1
 66
     7
176
     1
 43
1.0
176
     1
 76
     1
176
     1
 77
     6
176
     1
 78
     2
176
     1
 67
     7
176
     1
 79
     5
176
     1
170
     0
176
     1
171
     0
176
     1
290
     0
176
     1
 93
        1
176
     1
 44
-50.0
176
     1
173
     0
176
     1
  0
VISUALSTYLE
  5
3C
102
{ACAD_REACTORS
330
29
102
}
330
29
100
AcDbVisualStyle
  2
EdgeColorOff
 70
    22
177
     2
291
     1
 71
     2
176
     0
 72
     2
176
     0
 73
     0
176
     0
 90
        0
176
     0
 40
0.6
176
     0
 41
30.0
176
     0
 63
     7
421
 16777215
176
     0
 74
     1
176
     0
 91
        4
176
     0
 64
     7
176
     0
 65
   257
176
     0
 75
     1
176
     0
175
     1
176
     0
 42
1.0
176
     0
 92
        8
176
     2
 66
     7
176
     0
 43
1.0
176
     0
 76
     1
176
     0
 77
     6
176
     0
 78
     2
176
     0
 67
     7
176
     0
 79
     5
176
     0
170
     0
176
     0
171
     0
176
     0
290
     0
176
     0
 93
        1
176
     0
 44
0.0
176
     0
173
     0
176
     0
  0
VISUALSTYLE
  5
38
102
{ACAD_REACTORS
330
29
102
}
330
29
100
AcDbVisualStyle
  2
Facepattern
 70
    15
177
     2
291
     1
 71
     2
176
     1
 72
     2
176
     1
 73
     0
176
     1
 90
        0
176
     1
 40
0.6
176
     1
 41
30.0
176
     1
 63
     7
421
 16777215
176
     1
 74
     1
176
     1
 91
        4
176
     1
 64
     7
176
     1
 65
   257
176
     1
 75
     1
176
     1
175
     1
176
     1
 42
1.0
176
     1
 92
        8
176
     1
 66
     7
176
     1
 43
1.0
176
     1
 76
     1
176
     1
 77
     6
176
     1
 78
     2
176
     1
 67
     7
176
     1
 79
     5
176
     1
170
     0
176
     1
171
     0
176
     1
290
     0
176
     1
 93
        1
176
     1
 44
0.0
176
     1
173
     0
176
     1
  0
VISUALSTYLE
  5
2A
102
{ACAD_REACTORS
330
29
102
}
330
29
100
AcDbVisualStyle
  2
Flat
 70
     0
177
     2
291
     1
 71
     2
176
     1
 72
     1
176
     1
 73
     1
176
     1
 90
        2
176
     1
 40
0.6
176
     1
 41
30.0
176
     1
 63
     7
421
 16777215
176
     1
 74
     0
176
     1
 91
        4
176
     1
 64
     7
176
     1
 65
   257
176
     1
 75
     1
176
     1
175
     1
176
     1
 42
1.0
176
     1
 92
        8
176
     1
 66
     7
176
     1
 43
1.0
176
     1
 76
     1
176
     1
 77
     6
176
     1
 78
     2
176
     1
 67
     7
176
     1
 79
     5
176
     1
170
     0
176
     1
171
     0
176
     1
290
     0
176
     1
 93
       13
176
     1
 44
0.0
176
     1
173
     0
176
     1
  0
VISUALSTYLE
  5
2B
102
{ACAD_REACTORS
330
29
102
}
330
29
100
AcDbVisualStyle
  2
FlatWithEdges
 70
     1
177
     2
291
     1
 71
     2
176
     1
 72
     1
176
     1
 73
     1
176
     1
 90
        2
176
     1
 40
0.6
176
     1
 41
30.0
176
     1
 63
     7
421
 16777215
176
     1
 74
     1
176
     1
 91
        4
176
     1
 64
     7
176
     1
 65
   257
176
     1
 75
     1
176
     1
175
     1
176
     1
 42
1.0
176
     1
 92
        0
176
     1
 66
   257
176
     1
 43
1.0
176
     1
 76
     1
176
     1
 77
     6
176
     1
 78
     2
176
     1
 67
     7
176
     1
 79
     5
176
     1
170
     0
176
     1
171
     0
176
     1
290
     0
176
     1
 93
       13
176
     1
 44
0.0
176
     1
173
     0
176
     1
  0
VISUALSTYLE
  5
2C
102
{ACAD_REACTORS
330
29
102
}
330
29
100
AcDbVisualStyle
  2
Gouraud
 70
     2
177
     2
291
     1
 71
     2
176
     1
 72
     2
176
     1
 73
     1
176
     1
 90
        2
176
     1
 40
0.6
176
     1
 41
30.0
176
     1
 63
     7
421
 16777215
176
     1
 74
     0
176
     1
 91
        4
176
     1
 64
     7
176
     1
 65
   257
176
     1
 75
     1
176
     1
175
     1
176
     1
 42
1.0
176
     1
 92
        0
176
     1
 66
     7
176
     1
 43
1.0
176
     1
 76
     1
176
     1
 77
     6
176
     1
 78
     2
176
     1
 67
     7
176
     1
 79
     5
176
     1
170
     0
176
     1
171
     0
176
     1
290
     0
176
     1
 93
       13
176
     1
 44
0.0
176
     1
173
     0
176
     1
  0
VISUALSTYLE
  5
2D
102
{ACAD_REACTORS
330
29
102
}
330
29
100
AcDbVisualStyle
  2
GouraudWithEdges
 70
     3
177
     2
291
     1
 71
     2
176
     1
 72
     2
176
     1
 73
     1
176
     1
 90
        2
176
     1
 40
0.6
176
     1
 41
30.0
176
     1
 63
     7
421
 16777215
176
     1
 74
     1
176
     1
 91
        4
176
     1
 64
     7
176
     1
 65
   257
176
     1
 75
     1
176
     1
175
     1
176
     1
 42
1.0
176
     1
 92
        0
176
     1
 66
   257
176
     1
 43
1.0
176
     1
 76
     1
176
     1
 77
     6
176
     1
 78
     2
176
     1
 67
     7
176
     1
 79
     5
176
     1
170
     0
176
     1
171
     0
176
     1
290
     0
176
     1
 93
       13
176
     1
 44
0.0
176
     1
173
     0
176
     1
  0
VISUALSTYLE
  5
3A
102
{ACAD_REACTORS
330
29
102
}
330
29
100
AcDbVisualStyle
  2
JitterOff
 70
    20
177
     2
291
     1
 71
     2
176
     0
 72
     2
176
     0
 73
     0
176
     0
 90
        0
176
     0
 40
0.6
176
     0
 41
30.0
176
     0
 63
     7
421
 16777215
176
     0
 74
     1
176
     0
 91
        4
176
     0
 64
     7
176
     0
 65
   257
176
     0
 75
     1
176
     0
175
     1
176
     0
 42
1.0
176
     0
 92
       10
176
     2
 66
     7
176
     0
 43
1.0
176
     0
 76
     1
176
     0
 77
     6
176
     0
 78
     2
176
     0
 67
     7
176
     0
 79
     5
176
     0
170
     0
176
     0
171
     0
176
     0
290
     0
176
     0
 93
        1
176
     0
 44
0.0
176
     0
173
     0
176
     0
  0
VISUALSTYLE
  5
37
102
{ACAD_REACTORS
330
29
102
}
330
29
100
AcDbVisualStyle
  2
Linepattern
 70
    14
177
     2
291
     1
 71
     2
176
     1
 72
     2
176
     1
 73
     0
176
     1
 90
        0
176
     1
 40
0.6
176
     1
 41
30.0
176
     1
 63
     7
421
 16777215
176
     1
 74
     1
176
     1
 91
        4
176
     1
 64
     7
176
     1
 65
   257
176
     1
 75
     7
176
     1
175
     7
176
     1
 42
1.0
176
     1
 92
        8
176
     1
 66
     7
176
     1
 43
1.0
176
     1
 76
     1
176
     1
 77
     6
176
     1
 78
     2
176
     1
 67
     7
176
     1
 79
     5
176
     1
170
     0
176
     1
171
     0
176
     1
290
     0
176
     1
 93
        1
176
     1
 44
0.0
176
     1
173
     0
176
     1
  0
VISUALSTYLE
  5
3B
102
{ACAD_REACTORS
330
29
102
}
330
29
100
AcDbVisualStyle
  2
OverhangOff
 70
    21
177
     2
291
     1
 71
     2
176
     0
 72
     2
176
     0
 73
     0
176
     0
 90
        0
176
     0
 40
0.6
176
     0
 41
30.0
176
     0
 63
     7
421
 16777215
176
     0
 74
     1
176
     0
 91
        4
176
     0
 64
     7
176
     0
 65
   257
176
     0
 75
     1
176
     0
175
     1
176
     0
 42
1.0
176
     0
 92
        9
176
     2
 66
     7
176
     0
 43
1.0
176
     0
 76
     1
176
     0
 77
     6
176
     0
 78
     2
176
     0
 67
     7
176
     0
 79
     5
176
     0
170
     0
176
     0
171
     0
176
     0
290
     0
176
     0
 93
        1
176
     0
 44
0.0
176
     0
173
     0
176
     0
  0
VISUALSTYLE
  5
33
102
{ACAD_REACTORS
330
29
102
}
330
29
100
AcDbVisualStyle
  2
Realistic
 70
     8
177
     2
291
     0
 71
     2
176
     1
 72
     2
176
     1
 73
     0
176
     1
 90
        0
176
     1
 40
0.6
176
     1
 41
30.0
176
     1
 63
     7
421
 16777215
176
     1
 74
     1
176
     1
 91
        0
176
     1
 64
     7
176
     1
 65
   257
176
     1
 75
     1
176
     1
175
     1
176
     1
 42
1.0
176
     1
 92
        8
176
     1
 66
     8
424
  7895160
176
     1
 43
1.0
176
     1
 76
     1
176
     1
 77
     6
176
     1
 78
     2
176
     1
 67
     7
176
     1
 79
     5
176
     1
170
     0
176
     1
171
     0
176
     1
290
     0
176
     1
 93
       13
176
     1
 44
0.0
176
     1
173
     0
176
     1
  0
VISUALSTYLE
  5
36
102
{ACAD_REACTORS
330
29
102
}
330
29
100
AcDbVisualStyle
  2
Thicken
 70
    13
177
     2
291
     1
 71
     2
176
     1
 72
     2
176
     1
 73
     0
176
     1
 90
        0
176
     1
 40
0.6
176
     1
 41
30.0
176
     1
 63
     7
421
 16777215
176
     1
 74
     1
176
     1
 91
        4
176
     1
 64
     7
176
     1
 65
   257
176
     1
 75
     1
176
     1
175
     1
176
     1
 42
1.0
176
     1
 92
       12
176
     1
 66
     7
176
     1
 43
1.0
176
     1
 76
     1
176
     1
 77
     6
176
     1
 78
     2
176
     1
 67
     7
176
     1
 79
     5
176
     1
170
     0
176
     1
171
     0
176
     1
290
     0
176
     1
 93
        1
176
     1
 44
0.0
176
     1
173
     0
176
     1
  0
DICTIONARYVAR
  5
7FC
102
{ACAD_REACTORS
330
7F8
102
}
330
7F8
100
DictionaryVariables
280
     0
  1
1:1
  0
DICTIONARYVAR
  5
7FA
102
{ACAD_REACTORS
330
7F8
102
}
330
7F8
100
DictionaryVariables
280
     0
  1
STANDARD
  0
DICTIONARYVAR
  5
7F9
102
{ACAD_REACTORS
330
7F8
102
}
330
7F8
100
DictionaryVariables
280
     0
  1
STANDARD
  0
DICTIONARYVAR
  5
7FE
102
{ACAD_REACTORS
330
7F8
102
}
330
7F8
100
DictionaryVariables
280
     0
  1
1
  0
DICTIONARYVAR
  5
7FF
102
{ACAD_REACTORS
330
7F8
102
}
330
7F8
100
DictionaryVariables
280
     0
  1
15
  0
DICTIONARYVAR
  5
7FD
102
{ACAD_REACTORS
330
7F8
102
}
330
7F8
100
DictionaryVariables
280
     0
  1
0
  0
DICTIONARYVAR
  5
7FB
102
{ACAD_REACTORS
330
7F8
102
}
330
7F8
100
DictionaryVariables
280
     0
  1
0
  0
DICTIONARY
  5
1A
330
19
100
AcDbDictionary
280
     1
281
     1
  3
BUMPTILE
360
1C
  3
DIFFUSETILE
360
1B
  3
OPACITYTILE
360
1F
  3
REFLECTIONTILE
360
1E
  3
REFRACTIONTILE
360
20
  3
SPECULARTILE
360
1D
  0
DICTIONARY
  5
12
330
11
100
AcDbDictionary
280
     1
281
     1
  3
BUMPTILE
360
14
  3
DIFFUSETILE
360
13
  3
OPACITYTILE
360
17
  3
REFLECTIONTILE
360
16
  3
REFRACTIONTILE
360
18
  3
SPECULARTILE
360
15
  0
DICTIONARY
  5
22
330
21
100
AcDbDictionary
280
     1
281
     1
  3
BUMPTILE
360
24
  3
DIFFUSETILE
360
23
  3
OPACITYTILE
360
27
  3
REFLECTIONTILE
360
26
  3
REFRACTIONTILE
360
28
  3
SPECULARTILE
360
25
  0
DICTIONARY
  5
800
330
6F
100
AcDbDictionary
280
     1
281
     1
  3
ACAD_ROUNDTRIP_2008_TABLESTYLE_CELLSTYLEMAP
360
AC3
  0
XRECORD
  5
1C
102
{ACAD_REACTORS
330
1A
102
}
330
1A
100
AcDbXrecord
280
     1
270
     1
271
     1
  0
XRECORD
  5
1B
102
{ACAD_REACTORS
330
1A
102
}
330
1A
100
AcDbXrecord
280
     1
270
     1
271
     1
  0
XRECORD
  5
1F
102
{ACAD_REACTORS
330
1A
102
}
330
1A
100
AcDbXrecord
280
     1
270
     1
271
     1
  0
XRECORD
  5
1E
102
{ACAD_REACTORS
330
1A
102
}
330
1A
100
AcDbXrecord
280
     1
270
     1
271
     1
  0
XRECORD
  5
20
102
{ACAD_REACTORS
330
1A
102
}
330
1A
100
AcDbXrecord
280
     1
270
     1
271
     1
  0
XRECORD
  5
1D
102
{ACAD_REACTORS
330
1A
102
}
330
1A
100
AcDbXrecord
280
     1
270
     1
271
     1
  0
XRECORD
  5
14
102
{ACAD_REACTORS
330
12
102
}
330
12
100
AcDbXrecord
280
     1
270
     1
271
     1
  0
XRECORD
  5
13
102
{ACAD_REACTORS
330
12
102
}
330
12
100
AcDbXrecord
280
     1
270
     1
271
     1
  0
XRECORD
  5
17
102
{ACAD_REACTORS
330
12
102
}
330
12
100
AcDbXrecord
280
     1
270
     1
271
     1
  0
XRECORD
  5
16
102
{ACAD_REACTORS
330
12
102
}
330
12
100
AcDbXrecord
280
     1
270
     1
271
     1
  0
XRECORD
  5
18
102
{ACAD_REACTORS
330
12
102
}
330
12
100
AcDbXrecord
280
     1
270
     1
271
     1
  0
XRECORD
  5
15
102
{ACAD_REACTORS
330
12
102
}
330
12
100
AcDbXrecord
280
     1
270
     1
271
     1
  0
XRECORD
  5
24
102
{ACAD_REACTORS
330
22
102
}
330
22
100
AcDbXrecord
280
     1
270
     1
271
     1
  0
XRECORD
  5
23
102
{ACAD_REACTORS
330
22
102
}
330
22
100
AcDbXrecord
280
     1
270
     1
271
     1
  0
XRECORD
  5
27
102
{ACAD_REACTORS
330
22
102
}
330
22
100
AcDbXrecord
280
     1
270
     1
271
     1
  0
XRECORD
  5
26
102
{ACAD_REACTORS
330
22
102
}
330
22
100
AcDbXrecord
280
     1
270
     1
271
     1
  0
XRECORD
  5
28
102
{ACAD_REACTORS
330
22
102
}
330
22
100
AcDbXrecord
280
     1
270
     1
271
     1
  0
XRECORD
  5
25
102
{ACAD_REACTORS
330
22
102
}
330
22
100
AcDbXrecord
280
     1
270
     1
271
     1
  0
CELLSTYLEMAP
  5
AC3
102
{ACAD_REACTORS
330
800
102
}
330
800
100
AcDbCellStyleMap
 90
        3
300
CELLSTYLE
  1
TABLEFORMAT_BEGIN
 90
        5
170
     1
 91
        0
 92
    32768
 62
   257
 93
        1
300
CONTENTFORMAT
  1
CONTENTFORMAT_BEGIN
 90
        0
 91
        0
 92
      512
 93
        0
300

 40
0.0
140
1.0
 94
        5
 62
     0
340
60
144
0.25
309
CONTENTFORMAT_END
171
     1
301
MARGIN
  1
CELLMARGIN_BEGIN
 40
0.06
 40
0.06
 40
0.06
 40
0.06
 40
0.18
 40
0.18
309
CELLMARGIN_END
 94
        6
 95
        1
302
GRIDFORMAT
  1
GRIDFORMAT_BEGIN
 90
        0
 91
        1
 62
     0
 92
       -2
340
0
 93
        0
 40
0.045
309
GRIDFORMAT_END
 95
        2
302
GRIDFORMAT
  1
GRIDFORMAT_BEGIN
 90
        0
 91
        1
 62
     0
 92
       -2
340
0
 93
        0
 40
0.045
309
GRIDFORMAT_END
 95
        4
302
GRIDFORMAT
  1
GRIDFORMAT_BEGIN
 90
        0
 91
        1
 62
     0
 92
       -2
340
0
 93
        0
 40
0.045
309
GRIDFORMAT_END
 95
        8
302
GRIDFORMAT
  1
GRIDFORMAT_BEGIN
 90
        0
 91
        1
 62
     0
 92
       -2
340
0
 93
        0
 40
0.045
309
GRIDFORMAT_END
 95
       16
302
GRIDFORMAT
  1
GRIDFORMAT_BEGIN
 90
        0
 91
        1
 62
     0
 92
       -2
340
0
 93
        0
 40
0.045
309
GRIDFORMAT_END
 95
       32
302
GRIDFORMAT
  1
GRIDFORMAT_BEGIN
 90
        0
 91
        1
 62
     0
 92
       -2
340
0
 93
        0
 40
0.045
309
GRIDFORMAT_END
309
TABLEFORMAT_END
  1
CELLSTYLE_BEGIN
 90
        1
 91
        1
300
_TITLE
309
CELLSTYLE_END
300
CELLSTYLE
  1
TABLEFORMAT_BEGIN
 90
        5
170
     1
 91
        0
 92
        0
 62
   257
 93
        1
300
CONTENTFORMAT
  1
CONTENTFORMAT_BEGIN
 90
        0
 91
        0
 92
      512
 93
        0
300

 40
0.0
140
1.0
 94
        5
 62
     0
340
60
144
0.18
309
CONTENTFORMAT_END
171
     1
301
MARGIN
  1
CELLMARGIN_BEGIN
 40
0.06
 40
0.06
 40
0.06
 40
0.06
 40
0.18
 40
0.18
309
CELLMARGIN_END
 94
        6
 95
        1
302
GRIDFORMAT
  1
GRIDFORMAT_BEGIN
 90
        0
 91
        1
 62
     0
 92
       -2
340
0
 93
        0
 40
0.045
309
GRIDFORMAT_END
 95
        2
302
GRIDFORMAT
  1
GRIDFORMAT_BEGIN
 90
        0
 91
        1
 62
     0
 92
       -2
340
0
 93
        0
 40
0.045
309
GRIDFORMAT_END
 95
        4
302
GRIDFORMAT
  1
GRIDFORMAT_BEGIN
 90
        0
 91
        1
 62
     0
 92
       -2
340
0
 93
        0
 40
0.045
309
GRIDFORMAT_END
 95
        8
302
GRIDFORMAT
  1
GRIDFORMAT_BEGIN
 90
        0
 91
        1
 62
     0
 92
       -2
340
0
 93
        0
 40
0.045
309
GRIDFORMAT_END
 95
       16
302
GRIDFORMAT
  1
GRIDFORMAT_BEGIN
 90
        0
 91
        1
 62
     0
 92
       -2
340
0
 93
        0
 40
0.045
309
GRIDFORMAT_END
 95
       32
302
GRIDFORMAT
  1
GRIDFORMAT_BEGIN
 90
        0
 91
        1
 62
     0
 92
       -2
340
0
 93
        0
 40
0.045
309
GRIDFORMAT_END
309
TABLEFORMAT_END
  1
CELLSTYLE_BEGIN
 90
        2
 91
        1
300
_HEADER
309
CELLSTYLE_END
300
CELLSTYLE
  1
TABLEFORMAT_BEGIN
 90
        5
170
     1
 91
        0
 92
        0
 62
   257
 93
        1
300
CONTENTFORMAT
  1
CONTENTFORMAT_BEGIN
 90
        0
 91
        0
 92
      512
 93
        0
300

 40
0.0
140
1.0
 94
        2
 62
     0
340
60
144
0.18
309
CONTENTFORMAT_END
171
     1
301
MARGIN
  1
CELLMARGIN_BEGIN
 40
0.06
 40
0.06
 40
0.06
 40
0.06
 40
0.18
 40
0.18
309
CELLMARGIN_END
 94
        6
 95
        1
302
GRIDFORMAT
  1
GRIDFORMAT_BEGIN
 90
        0
 91
        1
 62
     0
 92
       -2
340
0
 93
        0
 40
0.045
309
GRIDFORMAT_END
 95
        2
302
GRIDFORMAT
  1
GRIDFORMAT_BEGIN
 90
        0
 91
        1
 62
     0
 92
       -2
340
0
 93
        0
 40
0.045
309
GRIDFORMAT_END
 95
        4
302
GRIDFORMAT
  1
GRIDFORMAT_BEGIN
 90
        0
 91
        1
 62
     0
 92
       -2
340
0
 93
        0
 40
0.045
309
GRIDFORMAT_END
 95
        8
302
GRIDFORMAT
  1
GRIDFORMAT_BEGIN
 90
        0
 91
        1
 62
     0
 92
       -2
340
0
 93
        0
 40
0.045
309
GRIDFORMAT_END
 95
       16
302
GRIDFORMAT
  1
GRIDFORMAT_BEGIN
 90
        0
 91
        1
 62
     0
 92
       -2
340
0
 93
        0
 40
0.045
309
GRIDFORMAT_END
 95
       32
302
GRIDFORMAT
  1
GRIDFORMAT_BEGIN
 90
        0
 91
        1
 62
     0
 92
       -2
340
0
 93
        0
 40
0.045
309
GRIDFORMAT_END
309
TABLEFORMAT_END
  1
CELLSTYLE_BEGIN
 90
        3
 91
        2
300
_DATA
309
CELLSTYLE_END
  0
ENDSEC
  0
EOF
