  0
SECTION
  2
HEADER
  9
$ACADVER
  1
AC1015
  9
$ACADMAINTVER
 70
               6
  9
$DWGCODEPAGE
  3
DOS437
  9
$INSBASE
 10
0.0
 20
0.0
 30
0.0
  9
$EXTMIN
 10
9.6613846008659223
 20
-25.379388922939029
 30
1.0000000000000000E+20
  9
$EXTMAX
 10
989.27938740712557
 20
154.03588839399038
 30
-1.0000000000000000E+20
  9
$LIMMIN
 10
0.0
 20
0.0
  9
$LIMMAX
 10
0.0
 20
0.0
  9
$ORTHOMODE
 70
               0
  9
$REGENMODE
 70
               1
  9
$FILLMODE
 70
               1
  9
$QTEXTMODE
 70
               0
  9
$MIRRTEXT
 70
               1
  9
$LTSCALE
 40
0.1
  9
$ATTMODE
 70
               1
  9
$TEXTSIZE
 40
0.2
  9
$TRACEWID
 40
0.05
  9
$TEXTSTYLE
  7
Standard
  9
$CLAYER
  8
0
  9
$CELTYPE
  6
ByLayer
  9
$CECOLOR
 62
             256
  9
$CELTSCALE
 40
1.0
  9
$DISPSILH
 70
               0
  9
$DIMSCALE
 40
1.0
  9
$DIMASZ
 40
0.18
  9
$DIMEXO
 40
0.0625
  9
$DIMDLI
 40
0.38
  9
$DIMRND
 40
0.0
  9
$DIMDLE
 40
0.0
  9
$DIMEXE
 40
0.18
  9
$DIMTP
 40
0.0
  9
$DIMTM
 40
0.0
  9
$DIMTXT
 40
0.18
  9
$DIMCEN
 40
0.09
  9
$DIMTSZ
 40
0.0
  9
$DIMTOL
 70
               0
  9
$DIMLIM
 70
               0
  9
$DIMTIH
 70
               1
  9
$DIMTOH
 70
               1
  9
$DIMSE1
 70
               0
  9
$DIMSE2
 70
               0
  9
$DIMTAD
 70
               0
  9
$DIMZIN
 70
               0
  9
$DIMBLK
  1

  9
$DIMASO
 70
               1
  9
$DIMSHO
 70
               1
  9
$DIMPOST
  1

  9
$DIMAPOST
  1

  9
$DIMALT
 70
               0
  9
$DIMALTD
 70
               2
  9
$DIMALTF
 40
25.399999999999999
  9
$DIMLFAC
 40
1.0
  9
$DIMTOFL
 70
               0
  9
$DIMTVP
 40
0.0
  9
$DIMTIX
 70
               0
  9
$DIMSOXD
 70
               0
  9
$DIMSAH
 70
               0
  9
$DIMBLK1
  1

  9
$DIMBLK2
  1

  9
$DIMSTYLE
  2
Standard
  9
$DIMCLRD
 70
               0
  9
$DIMCLRE
 70
               0
  9
$DIMCLRT
 70
               0
  9
$DIMTFAC
 40
1.0
  9
$DIMGAP
 40
0.09
  9
$DIMJUST
 70
               0
  9
$DIMSD1
 70
               0
  9
$DIMSD2
 70
               0
  9
$DIMTOLJ
 70
               1
  9
$DIMTZIN
 70
               0
  9
$DIMALTZ
 70
               0
  9
$DIMALTTZ
 70
               0
  9
$DIMUPT
 70
               0
  9
$DIMDEC
 70
               4
  9
$DIMTDEC
 70
               4
  9
$DIMALTU
 70
               2
  9
$DIMALTTD
 70
               2
  9
$DIMTXSTY
  7
Standard
  9
$DIMAUNIT
 70
               0
  9
$DIMADEC
 70
               0
  9
$DIMALTRND
 40
0.0
  9
$DIMAZIN
 70
               0
  9
$DIMDSEP
 70
               0
  9
$DIMATFIT
 70
               3
  9
$DIMFRAC
 70
               0
  9
$DIMLDRBLK
  1

  9
$DIMLUNIT
 70
               2
  9
$DIMLWD
 70
               0
  9
$DIMLWE
 70
               0
  9
$DIMTMOVE
 70
               0
  9
$LUNITS
 70
               2
  9
$LUPREC
 70
               4
  9
$SKETCHINC
 40
0.1
  9
$FILLETRAD
 40
0.0
  9
$AUNITS
 70
               0
  9
$AUPREC
 70
               0
  9
$MENU
  1
acad
  9
$ELEVATION
 40
0.0
  9
$PELEVATION
 40
0.0
  9
$THICKNESS
 40
0.0
  9
$LIMCHECK
 70
               0
  9
$CHAMFERA
 40
0.0
  9
$CHAMFERB
 40
0.0
  9
$CHAMFERC
 40
0.0
  9
$CHAMFERD
 40
0.0
  9
$SKPOLY
 70
               0
  9
$TDCREATE
 40
0.000000000
  9
$TDUCREATE
 40
0.000000000
  9
$TDUPDATE
 40
0.000000000
  9
$TDUUPDATE
 40
0.000000000
  9
$TDINDWG
 40
0.0000000000
  9
$TDUSRTIMER
 40
0.0000000000
  9
$USRTIMER
 70
               1
  9
$ANGBASE
 50
0.0
  9
$ANGDIR
 70
               0
  9
$PDMODE
 70
               2
  9
$PDSIZE
 40
1.5
  9
$PLINEWID
 40
0.0
  9
$SPLFRAME
 70
               0
  9
$SPLINETYPE
 70
               6
  9
$SPLINESEGS
 70
               8
  9
$HANDSEED
  5
E1
  9
$SURFTAB1
 70
               6
  9
$SURFTAB2
 70
               6
  9
$SURFTYPE
 70
               6
  9
$SURFU
 70
               6
  9
$SURFV
 70
               6
  9
$UCSBASE
  2

  9
$UCSNAME
  2

  9
$UCSORG
 10
0.0
 20
0.0
 30
0.0
  9
$UCSXDIR
 10
1.0
 20
0.0
 30
0.0
  9
$UCSYDIR
 10
0.0
 20
1.0
 30
0.0
  9
$UCSORTHOREF
  2

  9
$UCSORTHOVIEW
 70
               0
  9
$UCSORGTOP
 10
0.0
 20
0.0
 30
0.0
  9
$UCSORGBOTTOM
 10
0.0
 20
0.0
 30
0.0
  9
$UCSORGLEFT
 10
0.0
 20
0.0
 30
0.0
  9
$UCSORGRIGHT
 10
0.0
 20
0.0
 30
0.0
  9
$UCSORGFRONT
 10
0.0
 20
0.0
 30
0.0
  9
$UCSORGBACK
 10
0.0
 20
0.0
 30
0.0
  9
$PUCSBASE
  2

  9
$PUCSNAME
  2

  9
$PUCSORG
 10
0.0
 20
0.0
 30
0.0
  9
$PUCSXDIR
 10
1.0
 20
0.0
 30
0.0
  9
$PUCSYDIR
 10
0.0
 20
1.0
 30
0.0
  9
$PUCSORTHOREF
  2

  9
$PUCSORTHOVIEW
 70
               0
  9
$PUCSORGTOP
 10
0.0
 20
0.0
 30
0.0
  9
$PUCSORGBOTTOM
 10
0.0
 20
0.0
 30
0.0
  9
$PUCSORGLEFT
 10
0.0
 20
0.0
 30
0.0
  9
$PUCSORGRIGHT
 10
0.0
 20
0.0
 30
0.0
  9
$PUCSORGFRONT
 10
0.0
 20
0.0
 30
0.0
  9
$PUCSORGBACK
 10
0.0
 20
0.0
 30
0.0
  9
$USERI1
 70
               0
  9
$USERI2
 70
               0
  9
$USERI3
 70
               0
  9
$USERI4
 70
               0
  9
$USERI5
 70
               0
  9
$USERR1
 40
0.0
  9
$USERR2
 40
0.0
  9
$USERR3
 40
0.0
  9
$USERR4
 40
0.0
  9
$USERR5
 40
0.0
  9
$WORLDVIEW
 70
               1
  9
$SHADEDGE
 70
               3
  9
$SHADEDIF
 70
              70
  9
$TILEMODE
 70
               1
  9
$MAXACTVP
 70
              16
  9
$PINSBASE
 10
0.0
 20
0.0
 30
0.0
  9
$PLIMCHECK
 70
               0
  9
$PEXTMIN
 10
1.0000000000000000E+20
 20
1.0000000000000000E+20
 30
1.0000000000000000E+20
  9
$PEXTMAX
 10
-1.0000000000000000E+20
 20
-1.0000000000000000E+20
 30
-1.0000000000000000E+20
  9
$PLIMMIN
 10
0.0
 20
0.0
  9
$PLIMMAX
 10
12.0
 20
9.0
  9
$UNITMODE
 70
               0
  9
$VISRETAIN
 70
               0
  9
$PLINEGEN
 70
               1
  9
$PSLTSCALE
 70
               0
  9
$TREEDEPTH
 70
            3020
  9
$CMLSTYLE
  2
Standard
  9
$CMLJUST
 70
               0
  9
$CMLSCALE
 40
1.0
  9
$PROXYGRAPHICS
 70
               0
  9
$MEASUREMENT
 70
               0
  9
$CELWEIGHT
370
              -1
  9
$ENDCAPS
280
               0
  9
$JOINSTYLE
280
               0
  9
$LWDISPLAY
290
               0
  9
$INSUNITS
 70
               0
  9
$HYPERLINKBASE
  1

  9
$STYLESHEET
  1

  9
$XEDIT
290
               1
  9
$CEPSNTYPE
380
               0
  9
$PSTYLEMODE
290
               1
  9
$FINGERPRINTGUID
  2

  9
$VERSIONGUID
  2

  9
$EXTNAMES
290
               1
  9
$PSVPSCALE
 40
0.0
  0
ENDSEC
  0
SECTION
  2
CLASSES
  0
CLASS
  1
LWPOLYLINE
  2
AcDbPolyline
  3
AutoCAD 2000
 90
        0
280
               0
281
               1
  0
CLASS
  1
IMAGE
  2
AcDbRasterImage
  3
ISM
 90
      127
280
               0
281
               1
  0
CLASS
  1
OLE2FRAME
  2
AcDbOle2Frame
  3
AutoCAD 2000
 90
        0
280
               0
281
               1
  0
CLASS
  1
HATCH
  2
AcDbHatch
  3
AutoCAD 2000
 90
        0
280
               0
281
               1
  0
CLASS
  1
DICTIONARYVAR
  2
AcDbDictionaryVar
  3
AutoCAD 2000
 90
        0
280
               0
281
               0
  0
CLASS
  1
RASTERVARIABLES
  2
AcDbRasterVariables
  3
ISM
 90
        0
280
               0
281
               0
  0
CLASS
  1
IMAGEDEF
  2
AcDbRasterImageDef
  3
ISM
 90
        0
280
               0
281
               0
  0
CLASS
  1
IMAGEDEF_REACTOR
  2
AcDbRasterImageDefReactor
  3
ISM
 90
        1
280
               0
281
               0
  0
CLASS
  1
IDBUFFER
  2
AcDbIdBuffer
  3
AutoCAD 2000
 90
        0
280
               0
281
               0
  0
CLASS
  1
SPATIAL_FILTER
  2
AcDbSpatialFilter
  3
AutoCAD 2000
 90
        0
280
               0
281
               0
  0
CLASS
  1
XRECORD
  2
AcDbXrecord
  3
AutoCAD 2000
 90
        0
280
               0
281
               0
  0
CLASS
  1
SORTENTSTABLE
  2
AcDbSortentsTable
  3
AutoCAD 2000
 90
        0
280
               0
281
               0
  0
CLASS
  1
LAYER_INDEX
  2
AcDbLayerIndex
  3
AutoCAD 2000
 90
        0
280
               0
281
               0
  0
CLASS
  1
SPATIAL_INDEX
  2
AcDbSpatialIndex
  3
AutoCAD 2000
 90
        0
280
               0
281
               0
  0
CLASS
  1
OBJECT_PTR
  2
CAseDLPNTableRecord
  3
"ASE-LPNTableRecord"
 90
        1
280
               0
281
               0
  0
CLASS
  1
LAYOUT
  2
AcDbLayout
  3
AutoCAD 2000
 90
        0
280
               0
281
               0
  0
CLASS
  1
PLOTSETTINGS
  2
AcDbPlotSettings
  3
AutoCAD 2000
 90
        0
280
               0
281
               0
  0
CLASS
  1
ACDBDICTIONARYWDFLT
  2
AcDbDictionaryWithDefault
  3
AutoCAD 2000
 90
        0
280
               0
281
               0
  0
CLASS
  1
ACDBPLACEHOLDER
  2
AcDbPlaceHolder
  3
AutoCAD 2000
 90
        0
280
               0
281
               0
  0
ENDSEC
  0
SECTION
  2
TABLES
  0
TABLE
  2
VPORT
  5
7
100
AcDbSymbolTable
 70
               1
  0
VPORT
  5
15
100
AcDbSymbolTableRecord
100
AcDbViewportTableRecord
  2
*ACTIVE
 70
               0
 10
0.0
 20
0.0
 11
1.0
 21
1.0
 12
6.5912879999999996
 22
4.5791839999999997
 13
0.0
 23
0.0
 14
1.0
 24
1.0
 15
0.0
 25
0.0
 16
0.0
 26
0.0
 36
1.0
 17
0.0
 27
0.0
 37
0.0
 40
9.1583690000000004
 41
0.688564
 42
50.0
 43
0.0
 44
0.0
 50
0.0
 51
0.0
 71
               0
 72
             100
 73
               1
 74
               1
 75
               0
 76
               0
 77
               0
 78
               0
281
               0
 65
               0
110
0.0
120
0.0
130
0.0
111
1.0
121
0.0
131
0.0
112
0.0
122
1.0
132
0.0
345
0
346
0
 79
               0
146
0.0
  0
ENDTAB
  0
TABLE
  2
LTYPE
  5
4
100
AcDbSymbolTable
 70
              48
  0
LTYPE
  5
11
100
AcDbSymbolTableRecord
100
AcDbLinetypeTableRecord
  2
ByBlock
 70
              64
  3

 72
              65
 73
               0
 40
0.0
  0
LTYPE
  5
12
100
AcDbSymbolTableRecord
100
AcDbLinetypeTableRecord
  2
ByLayer
 70
              64
  3

 72
              65
 73
               0
 40
0.0
  0
LTYPE
  5
13
100
AcDbSymbolTableRecord
100
AcDbLinetypeTableRecord
  2
Continuous
 70
              64
  3
Solid line
 72
              65
 73
               0
 40
0.0
  0
LTYPE
  5
23
100
AcDbSymbolTableRecord
100
AcDbLinetypeTableRecord
  2
DOTTED
 70
              64
  3
Punteggiato
 72
              65
 73
               2
 40
12.0
 49
2.0
 74
               0
 49
-10.0
 74
               0
  0
LTYPE
  5
24
100
AcDbSymbolTableRecord
100
AcDbLinetypeTableRecord
  2
DASHEDS
 70
              64
  3
Tratteggiato piccolo
 72
              65
 73
               2
 40
20.0
 49
10.0
 74
               0
 49
-10.0
 74
               0
  0
LTYPE
  5
25
100
AcDbSymbolTableRecord
100
AcDbLinetypeTableRecord
  2
DASHEDM
 70
              64
  3
Tratteggiato medio
 72
              65
 73
               2
 40
40.0
 49
20.0
 74
               0
 49
-20.0
 74
               0
  0
LTYPE
  5
26
100
AcDbSymbolTableRecord
100
AcDbLinetypeTableRecord
  2
DASHEDL
 70
              64
  3
Tratteggiato grande
 72
              65
 73
               2
 40
60.0
 49
40.0
 74
               0
 49
-20.0
 74
               0
  0
LTYPE
  5
27
100
AcDbSymbolTableRecord
100
AcDbLinetypeTableRecord
  2
CENTERED
 70
              64
  3
Tratteggiato misto
 72
              65
 73
               4
 40
70.0
 49
10.0
 74
               0
 49
-20.0
 74
               0
 49
20.0
 74
               0
 49
-20.0
 74
               0
  0
LTYPE
  5
28
100
AcDbSymbolTableRecord
100
AcDbLinetypeTableRecord
  2
POINTLINE
 70
              64
  3
Punto e linea
 72
              65
 73
               4
 40
62.0
 49
20.0
 74
               0
 49
-20.0
 74
               0
 49
2.0
 74
               0
 49
-20.0
 74
               0
  0
LTYPE
  5
29
100
AcDbSymbolTableRecord
100
AcDbLinetypeTableRecord
  2
2POINTLINE
 70
              64
  3
Due punti e linea
 72
              65
 73
               6
 40
84.0
 49
20.0
 74
               0
 49
-20.0
 74
               0
 49
2.0
 74
               0
 49
-20.0
 74
               0
 49
2.0
 74
               0
 49
-20.0
 74
               0
  0
LTYPE
  5
2A
100
AcDbSymbolTableRecord
100
AcDbLinetypeTableRecord
  2
ACAD_ISO02W100
 70
              64
  3
ISO Tratteggiata
 72
              65
 73
               2
 40
150.0
 49
120.0
 74
               0
 49
-30.0
 74
               0
  0
LTYPE
  5
2B
100
AcDbSymbolTableRecord
100
AcDbLinetypeTableRecord
  2
ACAD_ISO03W100
 70
              64
  3
ISO Tratto spazio
 72
              65
 73
               2
 40
300.0
 49
120.0
 74
               0
 49
-180.0
 74
               0
  0
LTYPE
  5
2C
100
AcDbSymbolTableRecord
100
AcDbLinetypeTableRecord
  2
ACAD_ISO04W100
 70
              64
  3
ISO Tratto lungo punto
 72
              65
 73
               4
 40
305.0
 49
240.0
 74
               0
 49
-30.0
 74
               0
 49
5.0
 74
               0
 49
-30.0
 74
               0
  0
LTYPE
  5
2D
100
AcDbSymbolTableRecord
100
AcDbLinetypeTableRecord
  2
ACAD_ISO05W100
 70
              64
  3
ISO Tratto lungo doppio punto
 72
              65
 73
               6
 40
340.0
 49
240.0
 74
               0
 49
-30.0
 74
               0
 49
5.0
 74
               0
 49
-30.0
 74
               0
 49
5.0
 74
               0
 49
-30.0
 74
               0
  0
LTYPE
  5
2E
100
AcDbSymbolTableRecord
100
AcDbLinetypeTableRecord
  2
ACAD_ISO06W100
 70
              64
  3
ISO Tratto lungo triplo punto
 72
              65
 73
               8
 40
375.0
 49
240.0
 74
               0
 49
-30.0
 74
               0
 49
5.0
 74
               0
 49
-30.0
 74
               0
 49
5.0
 74
               0
 49
-30.0
 74
               0
 49
5.0
 74
               0
 49
-30.0
 74
               0
  0
LTYPE
  5
2F
100
AcDbSymbolTableRecord
100
AcDbLinetypeTableRecord
  2
ACAD_ISO07W100
 70
              64
  3
ISO Punteggiata
 72
              65
 73
               2
 40
35.0
 49
5.0
 74
               0
 49
-30.0
 74
               0
  0
LTYPE
  5
30
100
AcDbSymbolTableRecord
100
AcDbLinetypeTableRecord
  2
ACAD_ISO08W100
 70
              64
  3
ISO Tratto lungo tratto corto
 72
              65
 73
               4
 40
360.0
 49
240.0
 74
               0
 49
-30.0
 74
               0
 49
60.0
 74
               0
 49
-30.0
 74
               0
  0
LTYPE
  5
31
100
AcDbSymbolTableRecord
100
AcDbLinetypeTableRecord
  2
ACAD_ISO09W100
 70
              64
  3
ISO Tratto lungo doppio tratto corto
 72
              65
 73
               6
 40
450.0
 49
240.0
 74
               0
 49
-30.0
 74
               0
 49
60.0
 74
               0
 49
-30.0
 74
               0
 49
60.0
 74
               0
 49
-30.0
 74
               0
  0
LTYPE
  5
32
100
AcDbSymbolTableRecord
100
AcDbLinetypeTableRecord
  2
ACAD_ISO10W100
 70
              64
  3
ISO Tratto punto
 72
              65
 73
               4
 40
185.0
 49
120.0
 74
               0
 49
-30.0
 74
               0
 49
5.0
 74
               0
 49
-30.0
 74
               0
  0
LTYPE
  5
33
100
AcDbSymbolTableRecord
100
AcDbLinetypeTableRecord
  2
ACAD_ISO11W100
 70
              64
  3
ISO Doppio tratto punto
 72
              65
 73
               6
 40
335.0
 49
120.0
 74
               0
 49
-30.0
 74
               0
 49
120.0
 74
               0
 49
-30.0
 74
               0
 49
5.0
 74
               0
 49
-30.0
 74
               0
  0
LTYPE
  5
34
100
AcDbSymbolTableRecord
100
AcDbLinetypeTableRecord
  2
ACAD_ISO12W100
 70
              64
  3
ISO Tratto doppio punto
 72
              65
 73
               6
 40
220.0
 49
120.0
 74
               0
 49
-30.0
 74
               0
 49
5.0
 74
               0
 49
-30.0
 74
               0
 49
5.0
 74
               0
 49
-30.0
 74
               0
  0
LTYPE
  5
35
100
AcDbSymbolTableRecord
100
AcDbLinetypeTableRecord
  2
ACAD_ISO13W100
 70
              64
  3
ISO Doppio tratto doppio punto
 72
              65
 73
               8
 40
370.0
 49
120.0
 74
               0
 49
-30.0
 74
               0
 49
120.0
 74
               0
 49
-30.0
 74
               0
 49
5.0
 74
               0
 49
-30.0
 74
               0
 49
5.0
 74
               0
 49
-30.0
 74
               0
  0
LTYPE
  5
36
100
AcDbSymbolTableRecord
100
AcDbLinetypeTableRecord
  2
ACAD_ISO14W100
 70
              64
  3
ISO Tratto triplo punto
 72
              65
 73
               8
 40
255.0
 49
120.0
 74
               0
 49
-30.0
 74
               0
 49
5.0
 74
               0
 49
-30.0
 74
               0
 49
5.0
 74
               0
 49
-30.0
 74
               0
 49
5.0
 74
               0
 49
-30.0
 74
               0
  0
LTYPE
  5
37
100
AcDbSymbolTableRecord
100
AcDbLinetypeTableRecord
  2
ACAD_ISO15W100
 70
              64
  3
ISO Doppio tratto triplo punto
 72
              65
 73
              10
 40
405.0
 49
120.0
 74
               0
 49
-30.0
 74
               0
 49
120.0
 74
               0
 49
-30.0
 74
               0
 49
5.0
 74
               0
 49
-30.0
 74
               0
 49
5.0
 74
               0
 49
-30.0
 74
               0
 49
5.0
 74
               0
 49
-30.0
 74
               0
  0
LTYPE
  5
38
100
AcDbSymbolTableRecord
100
AcDbLinetypeTableRecord
  2
BORDER
 70
              64
  3
AutoCAD BORDER
 72
              65
 73
               6
 40
450.0
 49
128.0
 74
               0
 49
-64.0
 74
               0
 49
128.0
 74
               0
 49
-64.0
 74
               0
 49
2.0
 74
               0
 49
-64.0
 74
               0
  0
LTYPE
  5
39
100
AcDbSymbolTableRecord
100
AcDbLinetypeTableRecord
  2
BORDER2
 70
              64
  3
AutoCAD BORDER2
 72
              65
 73
               6
 40
226.0
 49
64.0
 74
               0
 49
-32.0
 74
               0
 49
64.0
 74
               0
 49
-32.0
 74
               0
 49
2.0
 74
               0
 49
-32.0
 74
               0
  0
LTYPE
  5
3A
100
AcDbSymbolTableRecord
100
AcDbLinetypeTableRecord
  2
BORDERX2
 70
              64
  3
AutoCAD BORDERX2
 72
              65
 73
               6
 40
898.0
 49
256.0
 74
               0
 49
-128.0
 74
               0
 49
256.0
 74
               0
 49
-128.0
 74
               0
 49
2.0
 74
               0
 49
-128.0
 74
               0
  0
LTYPE
  5
3B
100
AcDbSymbolTableRecord
100
AcDbLinetypeTableRecord
  2
CENTER
 70
              64
  3
AutoCAD CENTER
 72
              65
 73
               4
 40
512.0
 49
320.0
 74
               0
 49
-64.0
 74
               0
 49
64.0
 74
               0
 49
-64.0
 74
               0
  0
LTYPE
  5
3C
100
AcDbSymbolTableRecord
100
AcDbLinetypeTableRecord
  2
CENTER2
 70
              64
  3
AutoCAD CENTER2
 72
              65
 73
               4
 40
256.0
 49
160.0
 74
               0
 49
-32.0
 74
               0
 49
32.0
 74
               0
 49
-32.0
 74
               0
  0
LTYPE
  5
3D
100
AcDbSymbolTableRecord
100
AcDbLinetypeTableRecord
  2
CENTERX2
 70
              64
  3
AutoCAD CENTERX2
 72
              65
 73
               4
 40
1024.0
 49
640.0
 74
               0
 49
-128.0
 74
               0
 49
128.0
 74
               0
 49
-128.0
 74
               0
  0
LTYPE
  5
3E
100
AcDbSymbolTableRecord
100
AcDbLinetypeTableRecord
  2
DASHDOT
 70
              64
  3
AutoCAD DASHDOT
 72
              65
 73
               4
 40
258.0
 49
128.0
 74
               0
 49
-64.0
 74
               0
 49
2.0
 74
               0
 49
-64.0
 74
               0
  0
LTYPE
  5
3F
100
AcDbSymbolTableRecord
100
AcDbLinetypeTableRecord
  2
DASHDOT2
 70
              64
  3
AutoCAD DASHDOT2
 72
              65
 73
               4
 40
130.0
 49
64.0
 74
               0
 49
-32.0
 74
               0
 49
2.0
 74
               0
 49
-32.0
 74
               0
  0
LTYPE
  5
40
100
AcDbSymbolTableRecord
100
AcDbLinetypeTableRecord
  2
DASHDOTX2
 70
              64
  3
AutoCAD DASHDOTX2
 72
              65
 73
               4
 40
514.0
 49
256.0
 74
               0
 49
-128.0
 74
               0
 49
2.0
 74
               0
 49
-128.0
 74
               0
  0
LTYPE
  5
41
100
AcDbSymbolTableRecord
100
AcDbLinetypeTableRecord
  2
DASHED
 70
              64
  3
AutoCAD DASHED
 72
              65
 73
               2
 40
192.0
 49
128.0
 74
               0
 49
-64.0
 74
               0
  0
LTYPE
  5
42
100
AcDbSymbolTableRecord
100
AcDbLinetypeTableRecord
  2
DASHED2
 70
              64
  3
AutoCAD DASHED2
 72
              65
 73
               2
 40
96.0
 49
64.0
 74
               0
 49
-32.0
 74
               0
  0
LTYPE
  5
43
100
AcDbSymbolTableRecord
100
AcDbLinetypeTableRecord
  2
DASHEDX2
 70
              64
  3
AutoCAD DASHEDX2
 72
              65
 73
               2
 40
384.0
 49
256.0
 74
               0
 49
-128.0
 74
               0
  0
LTYPE
  5
44
100
AcDbSymbolTableRecord
100
AcDbLinetypeTableRecord
  2
DIVIDE
 70
              64
  3
AutoCAD DIVIDE
 72
              65
 73
               6
 40
324.0
 49
128.0
 74
               0
 49
-64.0
 74
               0
 49
2.0
 74
               0
 49
-64.0
 74
               0
 49
2.0
 74
               0
 49
-64.0
 74
               0
  0
LTYPE
  5
45
100
AcDbSymbolTableRecord
100
AcDbLinetypeTableRecord
  2
DIVIDE2
 70
              64
  3
AutoCAD DIVIDE2
 72
              65
 73
               6
 40
164.0
 49
64.0
 74
               0
 49
-32.0
 74
               0
 49
2.0
 74
               0
 49
-32.0
 74
               0
 49
2.0
 74
               0
 49
-32.0
 74
               0
  0
LTYPE
  5
46
100
AcDbSymbolTableRecord
100
AcDbLinetypeTableRecord
  2
DIVIDEX2
 70
              64
  3
AutoCAD DIVIDEX2
 72
              65
 73
               6
 40
644.0
 49
256.0
 74
               0
 49
-128.0
 74
               0
 49
2.0
 74
               0
 49
-128.0
 74
               0
 49
2.0
 74
               0
 49
-128.0
 74
               0
  0
LTYPE
  5
47
100
AcDbSymbolTableRecord
100
AcDbLinetypeTableRecord
  2
DOT
 70
              64
  3
AutoCAD DOT
 72
              65
 73
               2
 40
66.0
 49
2.0
 74
               0
 49
-64.0
 74
               0
  0
LTYPE
  5
48
100
AcDbSymbolTableRecord
100
AcDbLinetypeTableRecord
  2
DOT2
 70
              64
  3
AutoCAD DOT2
 72
              65
 73
               2
 40
34.0
 49
2.0
 74
               0
 49
-32.0
 74
               0
  0
LTYPE
  5
49
100
AcDbSymbolTableRecord
100
AcDbLinetypeTableRecord
  2
DOTX2
 70
              64
  3
AutoCAD DOTX2
 72
              65
 73
               2
 40
130.0
 49
2.0
 74
               0
 49
-128.0
 74
               0
  0
LTYPE
  5
4A
100
AcDbSymbolTableRecord
100
AcDbLinetypeTableRecord
  2
HIDDEN
 70
              64
  3
AutoCAD HIDDEN
 72
              65
 73
               2
 40
96.0
 49
64.0
 74
               0
 49
-32.0
 74
               0
  0
LTYPE
  5
4B
100
AcDbSymbolTableRecord
100
AcDbLinetypeTableRecord
  2
HIDDEN2
 70
              64
  3
AutoCAD HIDDEN2
 72
              65
 73
               2
 40
48.0
 49
32.0
 74
               0
 49
-16.0
 74
               0
  0
LTYPE
  5
4C
100
AcDbSymbolTableRecord
100
AcDbLinetypeTableRecord
  2
HIDDENX2
 70
              64
  3
AutoCAD HIDDENX2
 72
              65
 73
               2
 40
192.0
 49
128.0
 74
               0
 49
-64.0
 74
               0
  0
LTYPE
  5
4D
100
AcDbSymbolTableRecord
100
AcDbLinetypeTableRecord
  2
PHANTOM
 70
              64
  3
AutoCAD PHANTOM
 72
              65
 73
               6
 40
640.0
 49
320.0
 74
               0
 49
-64.0
 74
               0
 49
64.0
 74
               0
 49
-64.0
 74
               0
 49
64.0
 74
               0
 49
-64.0
 74
               0
  0
LTYPE
  5
4E
100
AcDbSymbolTableRecord
100
AcDbLinetypeTableRecord
  2
PHANTOM2
 70
              64
  3
AutoCAD PHANTOM2
 72
              65
 73
               6
 40
320.0
 49
160.0
 74
               0
 49
-32.0
 74
               0
 49
32.0
 74
               0
 49
-32.0
 74
               0
 49
32.0
 74
               0
 49
-32.0
 74
               0
  0
LTYPE
  5
4F
100
AcDbSymbolTableRecord
100
AcDbLinetypeTableRecord
  2
PHANTOMX2
 70
              64
  3
AutoCAD PHANTOMX2
 72
              65
 73
               6
 40
1280.0
 49
640.0
 74
               0
 49
-128.0
 74
               0
 49
128.0
 74
               0
 49
-128.0
 74
               0
 49
128.0
 74
               0
 49
-128.0
 74
               0
  0
ENDTAB
  0
TABLE
  2
LAYER
  5
2
100
AcDbSymbolTable
 70
               4
  0
LAYER
  5
14
100
AcDbSymbolTableRecord
100
AcDbLayerTableRecord
  2
0
 70
               0
 62
               7
  6
Continuous
290
               1
370
              -3
390
1D
  0
LAYER
  5
50
100
AcDbSymbolTableRecord
100
AcDbLayerTableRecord
  2
SENZA_NOME
 70
               0
 62
               7
  6
Continuous
290
               1
370
              -3
390
1D
  0
LAYER
  5
51
100
AcDbSymbolTableRecord
100
AcDbLayerTableRecord
  2
SENZA_NOME_2
 70
               0
 62
               7
  6
Continuous
290
               1
370
              -3
390
1D
  0
LAYER
  5
52
100
AcDbSymbolTableRecord
100
AcDbLayerTableRecord
  2
SENZA_NOME_3
 70
               0
 62
               7
  6
Continuous
290
               1
370
              -3
390
1D
  0
ENDTAB
  0
TABLE
  2
STYLE
  5
3
100
AcDbSymbolTable
 70
              10
  0
STYLE
  5
17
100
AcDbSymbolTableRecord
100
AcDbTextStyleTableRecord
  2
Standard
 70
               0
 40
0.0
 41
1.0
 50
0.0
 71
               0
 42
0.0
  3
txt
  4

  0
STYLE
  5
53
100
AcDbSymbolTableRecord
100
AcDbTextStyleTableRecord
  2
SIMPLEX
 70
               0
 40
10.0
 41
0.8
 50
0.0
 71
               0
 42
10.0
  3
simplex
  4

  0
STYLE
  5
54
100
AcDbSymbolTableRecord
100
AcDbTextStyleTableRecord
  2
EUROSTYLE
 70
               0
 40
10.0
 41
0.88
 50
0.0
 71
               0
 42
10.0
  3
isocp
  4

  0
STYLE
  5
55
100
AcDbSymbolTableRecord
100
AcDbTextStyleTableRecord
  2
SANSERIF
 70
               0
 40
10.0
 41
0.9
 50
0.0
 71
               0
 42
10.0
  3
romand
  4

  0
STYLE
  5
56
100
AcDbSymbolTableRecord
100
AcDbTextStyleTableRecord
  2
TRIPLEX
 70
               0
 40
10.0
 41
0.86
 50
0.0
 71
               0
 42
10.0
  3
romant
  4

  0
STYLE
  5
57
100
AcDbSymbolTableRecord
100
AcDbTextStyleTableRecord
  2
COMPLEX
 70
               0
 40
10.0
 41
1.0
 50
0.0
 71
               0
 42
10.0
  3
complex
  4

  0
STYLE
  5
58
100
AcDbSymbolTableRecord
100
AcDbTextStyleTableRecord
  2
SCRIPT
 70
               0
 40
10.0
 41
0.98
 50
0.0
 71
               0
 42
10.0
  3
scripts
  4

  0
STYLE
  5
59
100
AcDbSymbolTableRecord
100
AcDbTextStyleTableRecord
  2
TRISCRIPT
 70
               0
 40
10.0
 41
0.89
 50
0.0
 71
               0
 42
10.0
  3
italict
  4

  0
STYLE
  5
5A
100
AcDbSymbolTableRecord
100
AcDbTextStyleTableRecord
  2
BOLD
 70
               0
 40
10.0
 41
0.77
 50
0.0
 71
               0
 42
10.0
  3
romand
  4

  0
STYLE
  5
5B
100
AcDbSymbolTableRecord
100
AcDbTextStyleTableRecord
  2
GOTHIC
 70
               0
 40
10.0
 41
0.86
 50
0.0
 71
               0
 42
10.0
  3
gothice
  4

  0
ENDTAB
  0
TABLE
  2
VIEW
  5
5
100
AcDbSymbolTable
 70
               0
  0
ENDTAB
  0
TABLE
  2
UCS
  5
6
100
AcDbSymbolTable
 70
               0
  0
ENDTAB
  0
TABLE
  2
APPID
  5
8
100
AcDbSymbolTable
 70
               1
  0
APPID
  5
16
100
AcDbSymbolTableRecord
100
AcDbRegAppTableRecord
  2
ACAD
 70
               0
  0
ENDTAB
  0
TABLE
  2
DIMSTYLE
  5
9
100
AcDbSymbolTable
 70
               1
100
AcDbDimStyleTable
 71
               0
  0
DIMSTYLE
105
18
100
AcDbSymbolTableRecord
100
AcDbDimStyleTableRecord
  2
Standard
 70
               0
  3

  4

 40
1.0
 41
0.18
 42
0.0625
 43
0.38
 44
0.18
 45
0.0
 46
0.0
 47
0.0
 48
0.0
 71
               0
 72
               0
 73
               1
 74
               1
 75
               0
 76
               0
 77
               0
 78
               0
 79
               0
140
0.18
141
0.09
142
0.0
143
25.399999999999999
144
1.0
145
0.0
146
1.0
147
0.09
148
0.0
170
               0
171
               2
172
               0
173
               0
174
               0
175
               0
176
               0
177
               0
178
               0
179
               0
271
               4
272
               4
273
               2
274
               2
275
               0
276
               0
277
               2
278
              46
279
               0
280
               0
281
               0
282
               0
283
               1
284
               0
285
               0
286
               0
288
               0
289
               3
340
17
341
0
342
0
343
0
344
0
371
              -2
372
              -2
  0
ENDTAB
  0
TABLE
  2
BLOCK_RECORD
  5
1
100
AcDbSymbolTable
 70
               0
  0
BLOCK_RECORD
  5
A
100
AcDbSymbolTableRecord
100
AcDbBlockTableRecord
  2
*MODEL_SPACE
340
20
  0
BLOCK_RECORD
  5
B
100
AcDbSymbolTableRecord
100
AcDbBlockTableRecord
  2
*PAPER_SPACE
340
21
  0
ENDTAB
  0
ENDSEC
  0
SECTION
  2
BLOCKS
  0
BLOCK
  5
D
100
AcDbEntity
  8
0
390
0
100
AcDbBlockBegin
  2
*MODEL_SPACE
 70
               0
 10
0.0
 20
0.0
 30
0.0
  3
*MODEL_SPACE
  1

  0
ENDBLK
  5
E
100
AcDbEntity
  8
0
390
0
100
AcDbBlockEnd
  0
BLOCK
  5
F
100
AcDbEntity
 67
               1
  8
0
390
0
100
AcDbBlockBegin
  2
*PAPER_SPACE
 70
               0
 10
0.0
 20
0.0
 30
0.0
  3
*PAPER_SPACE
  1

  0
ENDBLK
  5
10
100
AcDbEntity
 67
               1
  8
0
390
0
100
AcDbBlockEnd
  0
ENDSEC
  0
SECTION
  2
ENTITIES
  0
LINE
  5
5C
100
AcDbEntity
  8
SENZA_NOME_2
390
0
  6
Continuous
 62
               7
100
AcDbLine
 10
15.564611385068609
 20
130.05391850691478
 30
0.0
 11
15.564602083627385
 21
105.27941284907263
 31
0.0
  0
LINE
  5
5D
100
AcDbEntity
  8
SENZA_NOME_2
390
0
  6
Continuous
 62
               7
100
AcDbLine
 10
15.564611385068609
 20
130.05391850691478
 30
0.0
 11
15.564611385068609
 21
105.27941482641938
 31
0.0
  0
LINE
  5
5E
100
AcDbEntity
  8
SENZA_NOME_2
390
0
  6
Continuous
 62
               7
100
AcDbLine
 10
15.564596712391385
 20
105.27941284907263
 30
0.0
 11
10.664418362648441
 21
105.27941284907263
 31
0.0
  0
LINE
  5
5F
100
AcDbEntity
  8
SENZA_NOME_2
390
0
  6
Continuous
 62
               7
100
AcDbLine
 10
10.666666666666664
 20
130.05391850691478
 30
0.0
 11
15.564611385068609
 21
130.05391850691478
 31
0.0
  0
LINE
  5
60
100
AcDbEntity
  8
SENZA_NOME_3
390
0
  6
Continuous
 62
               7
100
AcDbLine
 10
440.85253194481209
 20
149.55691086838544
 30
0.0
 11
440.85253194481209
 21
149.36399273756376
 31
0.0
  0
LINE
  5
61
100
AcDbEntity
  8
SENZA_NOME
390
0
  6
Continuous
 62
               7
100
AcDbLine
 10
359.47602595419653
 20
149.54071963574563
 30
0.0
 11
288.90137997335648
 21
151.02275963574573
 31
0.0
  0
LINE
  5
62
100
AcDbEntity
  8
SENZA_NOME
390
0
  6
Continuous
 62
               7
100
AcDbLine
 10
431.27653653882498
 20
147.35768889812528
 30
0.0
 11
359.48072365169128
 21
149.54059889812527
 31
0.0
  0
LINE
  5
63
100
AcDbEntity
  8
SENZA_NOME
390
0
  6
Continuous
 62
               7
100
AcDbLine
 10
706.32638152419804
 20
134.45682584743656
 30
0.0
 11
641.79156105286393
 21
138.00496584743667
 31
0.0
  0
LINE
  5
64
100
AcDbEntity
  8
SENZA_NOME
390
0
  6
Continuous
 62
               7
100
AcDbLine
 10
962.12568000089414
 20
117.60345442584264
 30
0.0
 11
907.67211908703803
 21
121.38812654497713
 31
0.0
  0
LINE
  5
65
100
AcDbEntity
  8
SENZA_NOME
390
0
  6
Continuous
 62
               7
100
AcDbLine
 10
359.47602595419653
 20
85.76989535011478
 30
0.0
 11
288.90137997335648
 21
84.287855350114683
 31
0.0
  0
LINE
  5
66
100
AcDbEntity
  8
SENZA_NOME
390
0
  6
Continuous
 62
               7
100
AcDbLine
 10
431.27653653882498
 20
87.952926087735136
 30
0.0
 11
359.48072365169128
 21
85.770016087735144
 31
0.0
  0
LINE
  5
67
100
AcDbEntity
  8
SENZA_NOME
390
0
  6
Continuous
 62
               7
100
AcDbLine
 10
706.32638152419804
 20
100.85378913842385
 30
0.0
 11
641.79156105286393
 21
97.305649138423973
 31
0.0
  0
LINE
  5
68
100
AcDbEntity
  8
SENZA_NOME
390
0
  6
Continuous
 62
               7
100
AcDbLine
 10
962.12568000089414
 20
117.70716056001777
 30
0.0
 11
907.67211908703803
 21
113.92248844088328
 31
0.0
  0
LINE
  5
69
100
AcDbEntity
  8
SENZA_NOME
390
0
  6
Continuous
 62
               7
100
AcDbLine
 10
865.06810926079993
 20
124.456821563875
 30
0.0
 11
865.06810926079993
 21
110.85379342198564
 31
0.0
  0
LINE
  5
6A
100
AcDbEntity
  8
SENZA_NOME
390
0
  6
Continuous
 62
               7
100
AcDbLine
 10
907.67352411383217
 20
121.3880269029388
 30
0.0
 11
867.70506131595357
 21
124.27910690293891
 31
0.0
  0
LINE
  5
6B
100
AcDbEntity
  8
SENZA_NOME
390
0
  6
Continuous
 62
               7
100
AcDbLine
 10
907.67352411383217
 20
113.92258808292161
 30
0.0
 11
867.70506131595357
 21
111.03150808292173
 31
0.0
  0
LINE
  5
6C
100
AcDbEntity
  8
SENZA_NOME_2
390
0
  6
Continuous
 62
               7
100
AcDbLine
 10
744.73112870217778
 20
132.17445570943016
 30
0.0
 11
744.73112870217778
 21
103.13615927643048
 31
0.0
  0
LINE
  5
6D
100
AcDbEntity
  8
SENZA_NOME
390
0
  6
Continuous
 62
               7
100
AcDbLine
 10
744.73112870217778
 20
103.13615927643048
 30
0.0
 11
706.32859527470782
 21
100.85391577511484
 31
0.0
  0
LINE
  5
6E
100
AcDbEntity
  8
SENZA_NOME
390
0
  6
Continuous
 62
               7
100
AcDbLine
 10
867.70260812481365
 20
111.03133669703959
 30
0.0
 11
865.0681092607997
 21
110.85379342198564
 31
0.0
  0
LINE
  5
6F
100
AcDbEntity
  8
SENZA_NOME
390
0
  6
Continuous
 62
               7
100
AcDbLine
 10
867.70260812481365
 20
124.27927828882105
 30
0.0
 11
865.06810926079993
 21
124.456821563875
 31
0.0
  0
LINE
  5
70
100
AcDbEntity
  8
SENZA_NOME
390
0
  6
Continuous
 62
               7
100
AcDbLine
 10
744.73112870217801
 20
132.17445570943016
 30
0.0
 11
706.32859527470782
 21
134.45669921074557
 31
0.0
  0
LINE
  5
71
100
AcDbEntity
  8
SENZA_NOME
390
0
  6
Continuous
 62
               7
100
AcDbLine
 10
636.41824240181199
 20
140.77875471044706
 30
0.0
 11
616.41824240181199
 21
141.78600953295393
 31
0.0
  0
LINE
  5
72
100
AcDbEntity
  8
SENZA_NOME
390
0
  6
Continuous
 62
               7
100
AcDbLine
 10
616.41824240181199
 20
139.28284103371436
 30
0.0
 11
573.65694971505241
 21
141.43641694748214
 31
0.0
  0
LINE
  5
73
100
AcDbEntity
  8
SENZA_NOME
390
0
  6
Continuous
 62
               7
100
AcDbLine
 10
641.78926188330524
 20
138.00508694748203
 30
0.0
 11
636.41824240181199
 21
138.27558621120772
 31
0.0
  0
LINE
  5
74
100
AcDbEntity
  8
SENZA_NOME
390
0
  6
Continuous
 62
               7
100
AcDbLine
 10
636.41824240181199
 20
94.531860275413351
 30
0.0
 11
616.41824240181199
 21
93.524605452906712
 31
0.0
  0
LINE
  5
75
100
AcDbEntity
  8
SENZA_NOME
390
0
  6
Continuous
 62
               7
100
AcDbLine
 10
641.78926188330524
 20
97.305528038378384
 30
0.0
 11
636.41824240181177
 21
97.035028774652915
 31
0.0
  0
LINE
  5
76
100
AcDbEntity
  8
SENZA_NOME
390
0
  6
Continuous
 62
               7
100
AcDbLine
 10
616.41824240181199
 20
96.027773952146276
 30
0.0
 11
573.65694971505241
 21
93.874198038378495
 31
0.0
  0
LINE
  5
77
100
AcDbEntity
  8
SENZA_NOME
390
0
  6
Continuous
 62
               7
100
AcDbLine
 10
636.41824240181199
 20
97.035028774652915
 30
0.0
 11
636.41824240181199
 21
94.531860275413351
 31
0.0
  0
LINE
  5
78
100
AcDbEntity
  8
SENZA_NOME
390
0
  6
Continuous
 62
               7
100
AcDbLine
 10
616.41824240181199
 20
96.027773952146276
 30
0.0
 11
616.41824240181199
 21
93.524605452906712
 31
0.0
  0
LINE
  5
79
100
AcDbEntity
  8
SENZA_NOME
390
0
  6
Continuous
 62
               7
100
AcDbLine
 10
636.41824240181199
 20
140.77875471044729
 30
0.0
 11
636.41824240181199
 21
138.27558621120772
 31
0.0
  0
LINE
  5
7A
100
AcDbEntity
  8
SENZA_NOME
390
0
  6
Continuous
 62
               7
100
AcDbLine
 10
616.41824240181199
 20
141.78600953295393
 30
0.0
 11
616.41824240181199
 21
139.28284103371436
 31
0.0
  0
LINE
  5
7B
100
AcDbEntity
  8
SENZA_NOME
390
0
  6
Continuous
 62
               7
100
AcDbLine
 10
485.11817212857119
 20
147.7954637649824
 30
0.0
 11
505.11817212857119
 21
147.01604086716691
 31
0.0
  0
LINE
  5
7C
100
AcDbEntity
  8
SENZA_NOME
390
0
  6
Continuous
 62
               7
100
AcDbLine
 10
485.11817212857119
 20
87.515151220878238
 30
0.0
 11
505.11817212857119
 21
88.281872813494488
 31
0.0
  0
LINE
  5
7D
100
AcDbEntity
  8
SENZA_NOME
390
0
  6
Continuous
 62
               7
100
AcDbLine
 10
573.654225493068
 20
93.874068286739998
 30
0.0
 11
505.11817212857119
 21
90.797092383178892
 31
0.0
  0
LINE
  5
7E
100
AcDbEntity
  8
SENZA_NOME
390
0
  6
Continuous
 62
               7
100
AcDbLine
 10
485.11817212857119
 20
90.016987615161156
 30
0.0
 11
431.28049532109856
 21
87.953062149931952
 31
0.0
  0
LINE
  5
7F
100
AcDbEntity
  8
SENZA_NOME
390
0
  6
Continuous
 62
               7
100
AcDbLine
 10
505.11817212857119
 20
90.797092383178892
 30
0.0
 11
505.11817212857119
 21
88.281872813494488
 31
0.0
  0
LINE
  5
80
100
AcDbEntity
  8
SENZA_NOME
390
0
  6
Continuous
 62
               7
100
AcDbLine
 10
485.11817212857119
 20
90.016987615161156
 30
0.0
 11
485.11817212857119
 21
87.515151220878238
 31
0.0
  0
LINE
  5
81
100
AcDbEntity
  8
SENZA_NOME
390
0
  6
Continuous
 62
               7
100
AcDbLine
 10
505.11817212857119
 20
147.01604086716691
 30
0.0
 11
505.11817212857119
 21
144.51352260268152
 31
0.0
  0
LINE
  5
82
100
AcDbEntity
  8
SENZA_NOME
390
0
  6
Continuous
 62
               7
100
AcDbLine
 10
485.11817212857119
 20
147.7954637649824
 30
0.0
 11
485.11817212857119
 21
145.29362737069926
 31
0.0
  0
LINE
  5
83
100
AcDbEntity
  8
SENZA_NOME
390
0
  6
Continuous
 62
               7
100
AcDbLine
 10
485.11817212857119
 20
145.29362737069926
 30
0.0
 11
431.28049532109856
 21
147.35755283592846
 31
0.0
  0
LINE
  5
84
100
AcDbEntity
  8
SENZA_NOME
390
0
  6
Continuous
 62
               7
100
AcDbLine
 10
573.654225493068
 20
141.43654669912041
 30
0.0
 11
505.11817212857119
 21
144.51352260268152
 31
0.0
  0
LINE
  5
85
100
AcDbEntity
  8
SENZA_NOME
390
0
  6
Continuous
 62
               7
100
AcDbLine
 10
240.8955012706092
 20
154.03588839399038
 30
0.0
 11
260.8955012706092
 21
153.87318372871061
 31
0.0
  0
LINE
  5
86
100
AcDbEntity
  8
SENZA_NOME
390
0
  6
Continuous
 62
               7
100
AcDbLine
 10
240.8955012706092
 20
81.274726591870262
 30
0.0
 11
260.8955012706092
 21
81.437431257150024
 31
0.0
  0
LINE
  5
87
100
AcDbEntity
  8
SENZA_NOME
390
0
  6
Continuous
 62
               7
100
AcDbLine
 10
288.89713444227039
 20
84.287784229187423
 30
0.0
 11
260.8955012706092
 21
83.937626715042938
 31
0.0
  0
LINE
  5
88
100
AcDbEntity
  8
SENZA_NOME
390
0
  6
Continuous
 62
               7
100
AcDbLine
 10
240.8955012706092
 20
83.77477262158834
 30
0.0
 11
220.76160440265085
 21
83.652594346439059
 31
0.0
  0
LINE
  5
89
100
AcDbEntity
  8
SENZA_NOME
390
0
  6
Continuous
 62
               7
100
AcDbLine
 10
260.8955012706092
 20
83.937626715042938
 30
0.0
 11
260.8955012706092
 21
81.437431257150024
 31
0.0
  0
LINE
  5
8A
100
AcDbEntity
  8
SENZA_NOME
390
0
  6
Continuous
 62
               7
100
AcDbLine
 10
240.8955012706092
 20
83.77477262158834
 30
0.0
 11
240.8955012706092
 21
81.274726591870262
 31
0.0
  0
LINE
  5
8B
100
AcDbEntity
  8
SENZA_NOME
390
0
  6
Continuous
 62
               7
100
AcDbLine
 10
260.8955012706092
 20
153.87318372871061
 30
0.0
 11
260.8955012706092
 21
151.37298827081747
 31
0.0
  0
LINE
  5
8C
100
AcDbEntity
  8
SENZA_NOME
390
0
  6
Continuous
 62
               7
100
AcDbLine
 10
240.8955012706092
 20
154.03588839399038
 30
0.0
 11
240.8955012706092
 21
151.5358423642723
 31
0.0
  0
LINE
  5
8D
100
AcDbEntity
  8
SENZA_NOME
390
0
  6
Continuous
 62
               7
100
AcDbLine
 10
240.8955012706092
 20
151.5358423642723
 30
0.0
 11
220.76160440265085
 21
151.65802063942135
 31
0.0
  0
LINE
  5
8E
100
AcDbEntity
  8
SENZA_NOME
390
0
  6
Continuous
 62
               7
100
AcDbLine
 10
288.89713444227039
 20
151.02283075667299
 30
0.0
 11
260.8955012706092
 21
151.37298827081747
 31
0.0
  0
LINE
  5
8F
100
AcDbEntity
  8
SENZA_NOME
390
0
  6
Continuous
 62
               7
100
AcDbLine
 10
140.37826518603683
 20
125.15530749293032
 30
0.0
 11
143.54540231092821
 21
125.15530749293032
 31
0.0
  0
LINE
  5
90
100
AcDbEntity
  8
SENZA_NOME
390
0
  6
Continuous
 62
               7
100
AcDbLine
 10
143.54540231092821
 20
125.15530749293032
 30
0.0
 11
143.54540231092821
 21
110.15530749293032
 31
0.0
  0
LINE
  5
91
100
AcDbEntity
  8
SENZA_NOME
390
0
  6
Continuous
 62
               7
100
AcDbLine
 10
140.37826518603683
 20
110.15530749293032
 30
0.0
 11
143.54540231092821
 21
110.15530749293032
 31
0.0
  0
LINE
  5
92
100
AcDbEntity
  8
SENZA_NOME
390
0
  6
Continuous
 62
               7
100
AcDbLine
 10
140.37826518603683
 20
125.15530749293032
 30
0.0
 11
140.37826518603683
 21
110.15530749293032
 31
0.0
  0
LINE
  5
93
100
AcDbEntity
  8
SENZA_NOME
390
0
  6
Continuous
 62
               7
100
AcDbLine
 10
392.9349592639478
 20
125.15530749293032
 30
0.0
 11
392.9349592639478
 21
110.15530749293032
 31
0.0
  0
LINE
  5
94
100
AcDbEntity
  8
SENZA_NOME
390
0
  6
Continuous
 62
               7
100
AcDbLine
 10
395.9349592639478
 20
125.15530749293032
 30
0.0
 11
395.9349592639478
 21
110.15530749293032
 31
0.0
  0
LINE
  5
95
100
AcDbEntity
  8
SENZA_NOME
390
0
  6
Continuous
 62
               7
100
AcDbLine
 10
392.9349592639478
 20
110.15530749293032
 30
0.0
 11
395.9349592639478
 21
110.15530749293032
 31
0.0
  0
LINE
  5
96
100
AcDbEntity
  8
SENZA_NOME
390
0
  6
Continuous
 62
               7
100
AcDbLine
 10
392.9349592639478
 20
125.15530749293032
 30
0.0
 11
395.9349592639478
 21
125.15530749293032
 31
0.0
  0
LINE
  5
97
100
AcDbEntity
  8
SENZA_NOME
390
0
  6
Continuous
 62
               7
100
AcDbLine
 10
269.74018078743791
 20
110.15530749293032
 30
0.0
 11
269.74018078743791
 21
125.15530749293032
 31
0.0
  0
LINE
  5
98
100
AcDbEntity
  8
SENZA_NOME
390
0
  6
Continuous
 62
               7
100
AcDbLine
 10
266.74018078743791
 20
110.15530749293032
 30
0.0
 11
269.74018078743791
 21
110.15530749293032
 31
0.0
  0
LINE
  5
99
100
AcDbEntity
  8
SENZA_NOME
390
0
  6
Continuous
 62
               7
100
AcDbLine
 10
266.74018078743791
 20
125.15530749293032
 30
0.0
 11
266.74018078743791
 21
110.15530749293032
 31
0.0
  0
LINE
  5
9A
100
AcDbEntity
  8
SENZA_NOME
390
0
  6
Continuous
 62
               7
100
AcDbLine
 10
269.74018078743791
 20
125.15530749293032
 30
0.0
 11
266.74018078743791
 21
125.15530749293032
 31
0.0
  0
LINE
  5
9B
100
AcDbEntity
  8
0
390
0
 62
               7
100
AcDbLine
 10
402.17195933156944
 20
39.21787843007985
 30
0.0
 11
402.19140065552818
 21
-21.970621361705867
 31
0.0
  0
LINE
  5
9C
100
AcDbEntity
  8
0
390
0
 62
               7
100
AcDbLine
 10
473.31098114990897
 20
36.344935381549362
 30
0.0
 11
473.3109811499092
 21
-20.315323708489245
 31
0.0
  0
LINE
  5
9D
100
AcDbEntity
  8
0
390
0
 62
               7
100
AcDbLine
 10
840.45285278392589
 20
17.934439412610914
 30
0.0
 11
840.45285278392589
 21
-1.4303989595367739
 31
0.0
  0
LINE
  5
9E
100
AcDbEntity
  8
0
390
0
 62
               7
100
AcDbLine
 10
885.90558273686429
 20
14.680277278631479
 30
0.0
 11
885.90558273686429
 21
0.954671351634147
 31
0.0
  0
LINE
  5
9F
100
AcDbEntity
  8
SENZA_NOME
390
0
  6
Continuous
 62
               7
100
AcDbLine
 10
934.82723152006338
 20
11.034795995392528
 30
0.0
 11
894.85876872218478
 21
13.92587599539263
 31
0.0
  0
LINE
  5
A0
100
AcDbEntity
  8
SENZA_NOME
390
0
  6
Continuous
 62
               7
100
AcDbLine
 10
989.27938740712557
 20
7.2502235182963659
 30
0.0
 11
934.82582649326923
 21
11.03489563743085
 31
0.0
  0
LINE
  5
A1
100
AcDbEntity
  8
0
390
0
  6
Continuous
 62
               7
100
AcDbLine
 10
934.82723152006338
 20
3.5693571753753304
 30
0.0
 11
894.85876872218478
 21
0.678277175375456
 31
0.0
  0
LINE
  5
A2
100
AcDbEntity
  8
0
390
0
  6
Continuous
 62
               7
100
AcDbLine
 10
989.27938740712557
 20
7.3539296524714928
 30
0.0
 11
934.82582649326923
 21
3.5692575333372361
 31
0.0
  0
LINE
  5
A3
100
AcDbEntity
  8
0
390
0
 62
               7
100
AcDbLine
 10
891.31237350304059
 20
14.164879548882595
 30
0.0
 11
891.31237350304059
 21
0.4392736218852633
 31
0.0
  0
LINE
  5
A4
100
AcDbEntity
  8
SENZA_NOME
390
0
  6
Continuous
 62
               7
100
AcDbLine
 10
894.85631553104486
 20
13.92604738127477
 30
0.0
 11
891.31237350304059
 21
14.164879548882595
 31
0.0
  0
LINE
  5
A5
100
AcDbEntity
  8
0
390
0
  6
Continuous
 62
               7
100
AcDbLine
 10
894.85631553104486
 20
0.6781057894933156
 30
0.0
 11
891.31237350304059
 21
0.4392736218852633
 31
0.0
  0
LINE
  5
A6
100
AcDbEntity
  8
0
390
0
  6
Continuous
 62
               7
100
AcDbLine
 10
885.90558273686429
 20
0.954671351634147
 30
0.0
 11
844.0663425117832
 21
-1.8649448709410308
 31
0.0
  0
LINE
  5
A7
100
AcDbEntity
  8
SENZA_NOME
390
0
  6
Continuous
 62
               7
100
AcDbLine
 10
885.90558273686429
 20
14.680277278631479
 30
0.0
 11
844.0663425117832
 21
17.499893501206657
 31
0.0
  0
LINE
  5
A8
100
AcDbEntity
  8
0
390
0
 62
               7
100
AcDbLine
 10
844.06634251178298
 20
17.499893501206657
 30
0.0
 11
844.06634251178298
 21
-1.8649448709410308
 31
0.0
  0
LINE
  5
A9
100
AcDbEntity
  8
SENZA_NOME
390
0
  6
Continuous
 62
               7
100
AcDbLine
 10
840.45285278392589
 20
17.934439412610914
 30
0.0
 11
838.38654975012696
 21
18.073691022427624
 31
0.0
  0
LINE
  5
AA
100
AcDbEntity
  8
0
390
0
  6
Continuous
 62
               7
100
AcDbLine
 10
840.45285278392589
 20
-1.4303989595367739
 30
0.0
 11
838.38654975012696
 21
-1.5696505693537119
 31
0.0
  0
LINE
  5
AB
100
AcDbEntity
  8
0
390
0
  6
Continuous
 62
               7
100
AcDbLine
 10
521.20973512042974
 20
-18.697855116461255
 30
0.0
 11
485.20568318519241
 21
-20.078109318482234
 31
0.0
  0
LINE
  5
AC
100
AcDbEntity
  8
SENZA_NOME
390
0
  6
Continuous
 62
               7
100
AcDbLine
 10
521.20973512042974
 20
35.201895569535168
 30
0.0
 11
485.20568318519219
 21
36.582149771556374
 31
0.0
  0
LINE
  5
AD
100
AcDbEntity
  8
0
390
0
 62
               7
100
AcDbLine
 10
485.20568318519219
 20
36.582149771556374
 30
0.0
 11
485.20568318519219
 21
-20.078109318482234
 31
0.0
  0
LINE
  5
AE
100
AcDbEntity
  8
0
390
0
  6
Continuous
 62
               7
100
AcDbLine
 10
838.38451562082537
 20
-1.5697834879473476
 30
0.0
 11
784.29012212311818
 21
-4.99381348794725
 31
0.0
  0
LINE
  5
AF
100
AcDbEntity
  8
0
390
0
  6
Continuous
 62
               7
100
AcDbLine
 10
784.28819909163008
 20
-4.9939314912784312
 30
0.0
 11
724.46202218690541
 21
-8.5493714912782934
 31
0.0
  0
LINE
  5
B0
100
AcDbEntity
  8
0
390
0
  6
Continuous
 62
               7
100
AcDbLine
 10
724.45980843639563
 20
-8.5494981279692865
 30
0.0
 11
659.92498796506175
 21
-12.09763812796939
 31
0.0
  0
LINE
  5
B1
100
AcDbEntity
  8
0
390
0
  6
Continuous
 62
               7
100
AcDbLine
 10
659.92268879550306
 20
-12.097759228014752
 30
0.0
 11
591.79037662725
 21
-15.529089228014868
 31
0.0
  0
LINE
  5
B2
100
AcDbEntity
  8
SENZA_NOME
390
0
  6
Continuous
 62
               7
100
AcDbLine
 10
838.38451562082537
 20
18.07382394102126
 30
0.0
 11
784.29012212311818
 21
21.49785394102139
 31
0.0
  0
LINE
  5
B3
100
AcDbEntity
  8
SENZA_NOME
390
0
  6
Continuous
 62
               7
100
AcDbLine
 10
784.28819909163008
 20
21.497971944352344
 30
0.0
 11
724.46202218690541
 21
25.053411944352433
 31
0.0
  0
LINE
  5
B4
100
AcDbEntity
  8
SENZA_NOME
390
0
  6
Continuous
 62
               7
100
AcDbLine
 10
724.45980843639563
 20
25.053538581043426
 30
0.0
 11
659.92498796506175
 21
28.601678581043302
 31
0.0
  0
LINE
  5
B5
100
AcDbEntity
  8
SENZA_NOME
390
0
  6
Continuous
 62
               7
100
AcDbLine
 10
659.92268879550306
 20
28.601799681088892
 30
0.0
 11
591.79037662725
 21
32.033129681088781
 31
0.0
  0
LINE
  5
B6
100
AcDbEntity
  8
0
390
0
 62
               7
100
AcDbLine
 10
408.17202573112291
 20
38.609351283505589
 30
0.0
 11
408.19146705508166
 21
-22.579148508280127
 31
0.0
  0
LINE
  5
B7
100
AcDbEntity
  8
SENZA_NOME
390
0
  6
Continuous
 62
               7
100
AcDbLine
 10
473.31098114990897
 20
36.344935381549362
 30
0.0
 11
437.51922019801299
 21
37.717051179528312
 31
0.0
  0
LINE
  5
B8
100
AcDbEntity
  8
SENZA_NOME
390
0
  6
Continuous
 62
               7
100
AcDbLine
 10
437.51526141573942
 20
37.717187241725128
 30
0.0
 11
408.17202573112297
 21
38.609351283505589
 31
0.0
  0
LINE
  5
B9
100
AcDbEntity
  8
0
390
0
  6
Continuous
 62
               7
100
AcDbLine
 10
473.3109811499092
 20
-20.315323708489245
 30
0.0
 11
437.51922019801299
 21
-21.687439506468195
 31
0.0
  0
LINE
  5
BA
100
AcDbEntity
  8
0
390
0
  6
Continuous
 62
               7
100
AcDbLine
 10
437.51526141573942
 20
-21.687575568665011
 30
0.0
 11
408.19146705508172
 21
-22.579148508280127
 31
0.0
  0
LINE
  5
BB
100
AcDbEntity
  8
0
390
0
  6
Continuous
 62
               7
100
AcDbLine
 10
402.19140065552818
 20
-21.970621361705867
 30
0.0
 11
359.71938212905218
 21
-23.26195842209097
 31
0.0
  0
LINE
  5
BC
100
AcDbEntity
  8
SENZA_NOME
390
0
  6
Continuous
 62
               7
100
AcDbLine
 10
402.17195933156944
 20
39.21787843007985
 30
0.0
 11
359.71938212905218
 21
40.508624388299381
 31
0.0
  0
LINE
  5
BD
100
AcDbEntity
  8
SENZA_NOME_2
390
0
  6
Continuous
 62
               7
100
AcDbLine
 10
14.561562950608867
 20
-3.7559734364989481
 30
0.0
 11
9.6613846008659223
 21
-3.7559734364989481
 31
0.0
  0
LINE
  5
BE
100
AcDbEntity
  8
SENZA_NOME_2
390
0
  6
Continuous
 62
               7
100
AcDbLine
 10
14.561577623286091
 20
21.018532221343207
 30
0.0
 11
14.561568321844867
 21
-3.7559734364989481
 31
0.0
  0
LINE
  5
BF
100
AcDbEntity
  8
SENZA_NOME_2
390
0
  6
Continuous
 62
               7
100
AcDbLine
 10
9.6636329048841318
 20
21.018532221343207
 30
0.0
 11
14.561577623286091
 21
21.018532221343207
 31
0.0
  0
LINE
  5
C0
100
AcDbEntity
  8
0
390
0
  6
Continuous
 62
               7
100
AcDbLine
 10
229.03747339138215
 20
-25.330608059122937
 30
0.0
 11
221.00026288001186
 21
-25.379380163387054
 31
0.0
  0
LINE
  5
C1
100
AcDbEntity
  8
0
390
0
  6
Continuous
 62
               7
100
AcDbLine
 10
254.68686708785788
 20
-25.174960163387027
 30
0.0
 11
229.03747339138215
 21
-25.330608059122937
 31
0.0
  0
LINE
  5
C2
100
AcDbEntity
  8
0
390
0
 62
               7
100
AcDbLine
 10
121.05834018544604
 20
35.584725539229453
 30
0.0
 11
121.05834018544604
 21
-18.335708582429902
 31
0.0
  0
LINE
  5
C3
100
AcDbEntity
  8
0
390
0
 62
               7
100
AcDbLine
 10
141.1562949931787
 20
-18.335708582429902
 30
0.0
 11
121.05834018544604
 21
-18.335708582429902
 31
0.0
  0
LINE
  5
C4
100
AcDbEntity
  8
SENZA_NOME
390
0
 62
               7
100
AcDbLine
 10
141.06845758603106
 20
35.585588612818015
 30
0.0
 11
141.1562949931787
 21
-18.335708582429902
 31
0.0
  0
LINE
  5
C5
100
AcDbEntity
  8
0
390
0
 62
               7
100
AcDbLine
 10
121.05834018544604
 20
35.584725539229453
 30
0.0
 11
141.06845758603106
 21
35.585588612818015
 31
0.0
  0
LINE
  5
C6
100
AcDbEntity
  8
0
390
0
  6
Continuous
 62
               7
100
AcDbLine
 10
359.71468443155754
 20
-23.262079159711334
 30
0.0
 11
289.14003845071738
 21
-24.744119159711431
 31
0.0
  0
LINE
  5
C7
100
AcDbEntity
  8
0
390
0
  6
Continuous
 62
               7
100
AcDbLine
 10
289.13579291963129
 20
-24.744190280638691
 30
0.0
 11
254.69008495922446
 21
-25.174930280638705
 31
0.0
  0
LINE
  5
C8
100
AcDbEntity
  8
SENZA_NOME
390
0
  6
Continuous
 62
               7
100
AcDbLine
 10
359.71468443155754
 20
40.508745125919745
 30
0.0
 11
289.14003845071738
 21
41.990785125919615
 31
0.0
  0
LINE
  5
C9
100
AcDbEntity
  8
SENZA_NOME
390
0
  6
Continuous
 62
               7
100
AcDbLine
 10
289.13579291963129
 20
41.990856246846874
 30
0.0
 11
254.69008495922446
 21
42.421596246846889
 31
0.0
  0
LINE
  5
CA
100
AcDbEntity
  8
SENZA_NOME
390
0
  6
Continuous
 62
               7
100
AcDbLine
 10
254.68686708785788
 20
42.421626129595438
 30
0.0
 11
221.00026288001186
 21
42.626046129595466
 31
0.0
  0
LINE
  5
CB
100
AcDbEntity
  8
SENZA_NOME
390
0
  6
Continuous
 62
               7
100
AcDbLine
 10
220.75790231636302
 20
151.65802939897355
 30
0.0
 11
215.60066496888589
 21
151.65113934033695
 31
0.0
  0
LINE
  5
CC
100
AcDbEntity
  8
SENZA_NOME
390
0
  6
Continuous
 62
               7
100
AcDbLine
 10
220.75790231636302
 20
83.652585586887085
 30
0.0
 11
215.60066496888589
 21
83.659475645523457
 31
0.0
  0
ARC
  5
CD
100
AcDbEntity
  8
0
390
0
100
AcDbCircle
 10
202.36073940970633
 20
-2142.4937088653237
 30
0.0
 40
2294.183052892115
100
AcDbArc
 50
89.669339346925454
 51
94.79302727818984
  0
ARC
  5
CE
100
AcDbEntity
  8
0
390
0
100
AcDbCircle
 10
202.36073940970633
 20
2377.8270421986554
 30
0.0
 40
2294.183052892115
100
AcDbArc
 50
265.20697272181019
 51
270.33066065307457
  0
LINE
  5
CF
100
AcDbEntity
  8
SENZA_NOME_2
390
0
  6
Continuous
 62
               7
100
AcDbLine
 10
10.666666666666664
 20
143.66666666666663
 30
0.0
 11
10.666666666666664
 21
130.05391850691478
 31
0.0
  0
LINE
  5
D0
100
AcDbEntity
  8
SENZA_NOME_2
390
0
  6
Continuous
 62
               7
100
AcDbLine
 10
10.664418362648441
 20
105.27941284907263
 30
0.0
 11
10.664418362648441
 21
91.666855187603119
 31
0.0
  0
LINE
  5
D1
100
AcDbEntity
  8
SENZA_NOME
390
0
  6
Continuous
 62
               7
100
AcDbLine
 10
220.99656079372392
 20
42.62605488914744
 30
0.0
 11
203.08108031080874
 21
42.602119843557944
 31
0.0
  0
LINE
  5
D2
100
AcDbEntity
  8
0
390
0
  6
Continuous
 62
               7
100
AcDbLine
 10
220.99656079372392
 20
-25.379388922939029
 30
0.0
 11
203.08108031080869
 21
-25.35545387734976
 31
0.0
  0
ARC
  5
D3
100
AcDbEntity
  8
0
390
0
100
AcDbCircle
 10
200.60984998331082
 20
-2248.1152366633009
 30
0.0
 40
2290.7186894905062
100
AcDbArc
 50
89.938189225903557
 51
94.781521942175345
  0
ARC
  5
D4
100
AcDbEntity
  8
0
390
0
100
AcDbCircle
 10
200.60984998331082
 20
2265.3777954481429
 30
0.0
 40
2290.7186894905062
100
AcDbArc
 50
265.21847805782465
 51
270.06181077409644
  0
LINE
  5
D5
100
AcDbEntity
  8
SENZA_NOME_2
390
0
  6
Continuous
 62
               7
100
AcDbLine
 10
9.6636329048841318
 20
34.631279392422243
 30
0.0
 11
9.6636329048841318
 21
21.018532221343207
 31
0.0
  0
LINE
  5
D6
100
AcDbEntity
  8
SENZA_NOME_2
390
0
  6
Continuous
 62
               7
100
AcDbLine
 10
9.6613846008659223
 20
-3.7559734364989481
 30
0.0
 11
9.6613846008659223
 21
-17.368532541279251
 31
0.0
  0
LINE
  5
D7
100
AcDbEntity
  8
0
390
0
100
AcDbLine
 10
568.92973289179986
 20
35.556757621979045
 30
0.0
 11
588.75853454378648
 21
34.666529167253543
 31
0.0
  0
LINE
  5
D8
100
AcDbEntity
  8
0
390
0
100
AcDbLine
 10
568.92973289179986
 20
-18.991434851928148
 30
0.0
 11
588.75853454378648
 21
-18.101206397202645
 31
0.0
  0
LINE
  5
D9
100
AcDbEntity
  8
SENZA_NOME
390
0
  6
Continuous
 62
               7
100
AcDbLine
 10
591.78765240526559
 20
32.033259432727277
 30
0.0
 11
588.75853454378648
 21
32.169253879609755
 31
0.0
  0
LINE
  5
DA
100
AcDbEntity
  8
0
390
0
  6
Continuous
 62
               7
100
AcDbLine
 10
591.78765240526559
 20
-15.529218979653137
 30
0.0
 11
588.75853454378648
 21
-15.665213426535843
 31
0.0
  0
LINE
  5
DB
100
AcDbEntity
  8
SENZA_NOME
390
0
  6
Continuous
 62
               7
100
AcDbLine
 10
568.92973289179986
 20
33.059482334335257
 30
0.0
 11
521.21300642442543
 21
35.201759432727272
 31
0.0
  0
LINE
  5
DC
100
AcDbEntity
  8
0
390
0
  6
Continuous
 62
               7
100
AcDbLine
 10
568.92973289179986
 20
-16.555441881261117
 30
0.0
 11
521.21300642442543
 21
-18.697718979653132
 31
0.0
  0
LINE
  5
DD
100
AcDbEntity
  8
0
390
0
100
AcDbLine
 10
588.75853454378648
 20
34.666529167253543
 30
0.0
 11
588.75853454378648
 21
32.169253879609755
 31
0.0
  0
LINE
  5
DE
100
AcDbEntity
  8
0
390
0
100
AcDbLine
 10
568.92973289179986
 20
35.556757621979045
 30
0.0
 11
568.92973289179986
 21
33.059482334335257
 31
0.0
  0
LINE
  5
DF
100
AcDbEntity
  8
0
390
0
100
AcDbLine
 10
568.92973289179986
 20
-16.555441881261117
 30
0.0
 11
568.92973289179986
 21
-18.991434851928148
 31
0.0
  0
LINE
  5
E0
100
AcDbEntity
  8
0
390
0
100
AcDbLine
 10
588.75853454378648
 20
-15.665213426535843
 30
0.0
 11
588.75853454378648
 21
-18.101206397202645
 31
0.0
  0
ENDSEC
  0
SECTION
  2
OBJECTS
  0
DICTIONARY
  5
19
100
AcDbDictionary
280
               0
281
               1
  3
ACAD_GROUP
350
1A
  3
ACAD_MLINESTYLE
350
1B
  3
ACAD_LAYOUT
350
1E
  3
ACAD_PLOTSETTINGS
350
22
  3
ACAD_PLOTSTYLENAME
350
1F
  0
DICTIONARY
  5
1A
102
{ACAD_REACTORS
330
19
102
}
100
AcDbDictionary
280
               0
281
               1
  0
DICTIONARY
  5
1B
102
{ACAD_REACTORS
330
19
102
}
100
AcDbDictionary
280
               0
281
               1
  3
Standard
350
1C
  0
MLINESTYLE
  5
1C
102
{ACAD_REACTORS
330
1B
102
}
100
AcDbMlineStyle
  2
Standard
 70
               0
  3

 62
               0
 51
90.0
 52
90.0
 71
               2
 49
0.5
 62
             256
  6
ByLayer
 49
-0.5
 62
             256
  6
ByLayer
  0
ACDBDICTIONARYWDFLT
  5
1F
102
{ACAD_REACTORS
330
19
102
}
100
AcDbDictionary
281
               1
  3
Normal
350
1D
100
AcDbDictionaryWithDefault
340
1D
  0
ACDBPLACEHOLDER
  5
1D
102
{ACAD_REACTORS
330
1F
102
}
  0
LAYOUT
  5
20
102
{ACAD_REACTORS
330
1E
102
}
100
AcDbPlotSettings
  1

  2

  4

  6

 40
0.0
 41
0.0
 42
0.0
 43
0.0
 44
0.0
 45
0.0
 46
0.0
 47
0.0
 48
0.0
 49
0.0
140
0.0
141
0.0
142
1.0
143
1.0
 70
            1024
 72
               0
 73
               0
 74
               0
  7

 75
               0
147
1.0
148
0.0
149
0.0
100
AcDbLayout
  1
Model
 70
               0
 71
               0
 10
0.0
 20
0.0
 11
0.0
 21
0.0
 12
0.0
 22
0.0
 32
0.0
 14
0.0
 24
0.0
 34
0.0
 15
0.0
 25
0.0
 35
0.0
146
0.0
 13
0.0
 23
0.0
 33
0.0
 16
0.0
 26
0.0
 36
0.0
 17
0.0
 27
0.0
 37
0.0
 76
               0
330
A
331
0
345
0
346
0
  0
LAYOUT
  5
21
102
{ACAD_REACTORS
330
1E
102
}
100
AcDbPlotSettings
  1

  2

  4

  6

 40
0.0
 41
0.0
 42
0.0
 43
0.0
 44
0.0
 45
0.0
 46
0.0
 47
0.0
 48
0.0
 49
0.0
140
0.0
141
0.0
142
1.0
143
1.0
 70
               0
 72
               0
 73
               0
 74
               0
  7

 75
               0
147
1.0
148
0.0
149
0.0
100
AcDbLayout
  1
Layout1
 70
               0
 71
               0
 10
0.0
 20
0.0
 11
0.0
 21
0.0
 12
0.0
 22
0.0
 32
0.0
 14
0.0
 24
0.0
 34
0.0
 15
0.0
 25
0.0
 35
0.0
146
0.0
 13
0.0
 23
0.0
 33
0.0
 16
0.0
 26
0.0
 36
0.0
 17
0.0
 27
0.0
 37
0.0
 76
               0
330
B
331
0
345
0
346
0
  0
DICTIONARY
  5
1E
102
{ACAD_REACTORS
330
19
102
}
100
AcDbDictionary
280
               0
281
               1
  3
Layout1
350
21
  3
Model
350
20
  0
DICTIONARY
  5
22
102
{ACAD_REACTORS
330
19
102
}
100
AcDbDictionary
280
               0
281
               1
  0
ENDSEC
  0
EOF
