  0
SECTION
  2
HEADER
  9
$ACADVER
  1
AC1015
  9
$ACADMAINTVER
 70
    20
  9
$DWGCODEPAGE
  3
ANSI_1252
  9
$INSBASE
 10
0.0
 20
0.0
 30
0.0
  9
$EXTMIN
 10
-1129.899301756243
 20
434.7463952288135
 30
-0.0000000349181948
  9
$EXTMAX
 10
1209.552830851852
 20
1797.85518736393
 30
0.0000000814935746
  9
$LIMMIN
 10
0.0
 20
0.0
  9
$LIMMAX
 10
420.0
 20
297.0
  9
$ORTHOMODE
 70
     0
  9
$REGENMODE
 70
     1
  9
$FILLMODE
 70
     1
  9
$QTEXTMODE
 70
     0
  9
$MIRRTEXT
 70
     1
  9
$LTSCALE
 40
1.0
  9
$ATTMODE
 70
     1
  9
$TEXTSIZE
 40
2.5
  9
$TRACEWID
 40
1.0
  9
$TEXTSTYLE
  7
STANDARD
  9
$CLAYER
  8
Fuso Corretta
  9
$CELTYPE
  6
ByLayer
  9
$CECOLOR
 62
   256
  9
$CELTSCALE
 40
1.0
  9
$DISPSILH
 70
     0
  9
$DIMSCALE
 40
1.0
  9
$DIMASZ
 40
2.5
  9
$DIMEXO
 40
1.0
  9
$DIMDLI
 40
10.0
  9
$DIMRND
 40
0.0
  9
$DIMDLE
 40
0.0
  9
$DIMEXE
 40
1.0
  9
$DIMTP
 40
0.1
  9
$DIMTM
 40
0.1
  9
$DIMTXT
 40
3.5
  9
$DIMCEN
 40
0.0
  9
$DIMTSZ
 40
0.0
  9
$DIMTOL
 70
     0
  9
$DIMLIM
 70
     0
  9
$DIMTIH
 70
     0
  9
$DIMTOH
 70
     0
  9
$DIMSE1
 70
     0
  9
$DIMSE2
 70
     0
  9
$DIMTAD
 70
     1
  9
$DIMZIN
 70
     8
  9
$DIMBLK
  1

  9
$DIMASO
 70
     1
  9
$DIMSHO
 70
     1
  9
$DIMPOST
  1

  9
$DIMAPOST
  1
"
  9
$DIMALT
 70
     0
  9
$DIMALTD
 70
     2
  9
$DIMALTF
 40
0.0393701
  9
$DIMLFAC
 40
1.0
  9
$DIMTOFL
 70
     1
  9
$DIMTVP
 40
0.0
  9
$DIMTIX
 70
     0
  9
$DIMSOXD
 70
     0
  9
$DIMSAH
 70
     0
  9
$DIMBLK1
  1

  9
$DIMBLK2
  1

  9
$DIMSTYLE
  2
AM_ISO
  9
$DIMCLRD
 70
   256
  9
$DIMCLRE
 70
   256
  9
$DIMCLRT
 70
     2
  9
$DIMTFAC
 40
0.71
  9
$DIMGAP
 40
1.5
  9
$DIMJUST
 70
     0
  9
$DIMSD1
 70
     0
  9
$DIMSD2
 70
     0
  9
$DIMTOLJ
 70
     0
  9
$DIMTZIN
 70
     8
  9
$DIMALTZ
 70
     0
  9
$DIMALTTZ
 70
     0
  9
$DIMUPT
 70
     0
  9
$DIMDEC
 70
     2
  9
$DIMTDEC
 70
     3
  9
$DIMALTU
 70
     2
  9
$DIMALTTD
 70
     4
  9
$DIMTXSTY
  7
STANDARD
  9
$DIMAUNIT
 70
     0
  9
$DIMADEC
 70
     0
  9
$DIMALTRND
 40
0.0
  9
$DIMAZIN
 70
     2
  9
$DIMDSEP
 70
    46
  9
$DIMATFIT
 70
     3
  9
$DIMFRAC
 70
     0
  9
$DIMLDRBLK
  1

  9
$DIMLUNIT
 70
     2
  9
$DIMLWD
 70
    -1
  9
$DIMLWE
 70
    -1
  9
$DIMTMOVE
 70
     0
  9
$LUNITS
 70
     2
  9
$LUPREC
 70
     2
  9
$SKETCHINC
 40
1.0
  9
$FILLETRAD
 40
5.0
  9
$AUNITS
 70
     0
  9
$AUPREC
 70
     0
  9
$MENU
  1
.
  9
$ELEVATION
 40
0.0
  9
$PELEVATION
 40
0.0
  9
$THICKNESS
 40
0.0
  9
$LIMCHECK
 70
     0
  9
$CHAMFERA
 40
2.5
  9
$CHAMFERB
 40
2.5
  9
$CHAMFERC
 40
20.0
  9
$CHAMFERD
 40
0.0
  9
$SKPOLY
 70
     0
  9
$TDCREATE
 40
2453765.535069977
  9
$TDUCREATE
 40
2453765.493403310
  9
$TDUPDATE
 40
2453766.453536597
  9
$TDUUPDATE
 40
2453766.411869930
  9
$TDINDWG
 40
0.3590733102
  9
$TDUSRTIMER
 40
0.3590087500
  9
$USRTIMER
 70
     1
  9
$ANGBASE
 50
0.0
  9
$ANGDIR
 70
     0
  9
$PDMODE
 70
     0
  9
$PDSIZE
 40
0.0
  9
$PLINEWID
 40
0.0
  9
$SPLFRAME
 70
     0
  9
$SPLINETYPE
 70
     6
  9
$SPLINESEGS
 70
     8
  9
$HANDSEED
  5
11E0
  9
$SURFTAB1
 70
     6
  9
$SURFTAB2
 70
     6
  9
$SURFTYPE
 70
     6
  9
$SURFU
 70
     6
  9
$SURFV
 70
     6
  9
$UCSBASE
  2

  9
$UCSNAME
  2

  9
$UCSORG
 10
0.0
 20
0.0
 30
0.0
  9
$UCSXDIR
 10
1.0
 20
0.0
 30
0.0
  9
$UCSYDIR
 10
0.0
 20
1.0
 30
0.0
  9
$UCSORTHOREF
  2

  9
$UCSORTHOVIEW
 70
     0
  9
$UCSORGTOP
 10
0.0
 20
0.0
 30
0.0
  9
$UCSORGBOTTOM
 10
0.0
 20
0.0
 30
0.0
  9
$UCSORGLEFT
 10
0.0
 20
0.0
 30
0.0
  9
$UCSORGRIGHT
 10
0.0
 20
0.0
 30
0.0
  9
$UCSORGFRONT
 10
0.0
 20
0.0
 30
0.0
  9
$UCSORGBACK
 10
0.0
 20
0.0
 30
0.0
  9
$PUCSBASE
  2

  9
$PUCSNAME
  2

  9
$PUCSORG
 10
0.0
 20
0.0
 30
0.0
  9
$PUCSXDIR
 10
1.0
 20
0.0
 30
0.0
  9
$PUCSYDIR
 10
0.0
 20
1.0
 30
0.0
  9
$PUCSORTHOREF
  2

  9
$PUCSORTHOVIEW
 70
     0
  9
$PUCSORGTOP
 10
0.0
 20
0.0
 30
0.0
  9
$PUCSORGBOTTOM
 10
0.0
 20
0.0
 30
0.0
  9
$PUCSORGLEFT
 10
0.0
 20
0.0
 30
0.0
  9
$PUCSORGRIGHT
 10
0.0
 20
0.0
 30
0.0
  9
$PUCSORGFRONT
 10
0.0
 20
0.0
 30
0.0
  9
$PUCSORGBACK
 10
0.0
 20
0.0
 30
0.0
  9
$USERI1
 70
     0
  9
$USERI2
 70
     0
  9
$USERI3
 70
     0
  9
$USERI4
 70
     0
  9
$USERI5
 70
     0
  9
$USERR1
 40
0.0
  9
$USERR2
 40
0.0
  9
$USERR3
 40
0.0
  9
$USERR4
 40
0.0
  9
$USERR5
 40
0.0
  9
$WORLDVIEW
 70
     1
  9
$SHADEDGE
 70
     3
  9
$SHADEDIF
 70
    70
  9
$TILEMODE
 70
     1
  9
$MAXACTVP
 70
    64
  9
$PINSBASE
 10
0.0
 20
0.0
 30
0.0
  9
$PLIMCHECK
 70
     0
  9
$PEXTMIN
 10
1.000000000000000E+20
 20
1.000000000000000E+20
 30
1.000000000000000E+20
  9
$PEXTMAX
 10
-1.000000000000000E+20
 20
-1.000000000000000E+20
 30
-1.000000000000000E+20
  9
$PLIMMIN
 10
0.0
 20
0.0
  9
$PLIMMAX
 10
420.0
 20
297.0
  9
$UNITMODE
 70
     0
  9
$VISRETAIN
 70
     1
  9
$PLINEGEN
 70
     0
  9
$PSLTSCALE
 70
     1
  9
$TREEDEPTH
 70
  3020
  9
$CMLSTYLE
  2
Standard
  9
$CMLJUST
 70
     0
  9
$CMLSCALE
 40
20.0
  9
$PROXYGRAPHICS
 70
     1
  9
$MEASUREMENT
 70
     1
  9
$CELWEIGHT
370
    -1
  9
$ENDCAPS
280
     0
  9
$JOINSTYLE
280
     0
  9
$LWDISPLAY
290
     0
  9
$INSUNITS
 70
     4
  9
$HYPERLINKBASE
  1

  9
$STYLESHEET
  1

  9
$XEDIT
290
     1
  9
$CEPSNTYPE
380
     0
  9
$PSTYLEMODE
290
     1
  9
$FINGERPRINTGUID
  2
{87C30C44-3DDF-464D-8D67-DAA0041064BF}
  9
$VERSIONGUID
  2
{411691AA-7931-462D-8577-B44B28F055FE}
  9
$EXTNAMES
290
     1
  9
$PSVPSCALE
 40
0.0
  9
$OLESTARTUP
290
     0
  0
ENDSEC
  0
SECTION
  2
CLASSES
  0
CLASS
  1
ACDBDICTIONARYWDFLT
  2
AcDbDictionaryWithDefault
  3
ObjectDBX Classes
 90
        0
280
     0
281
     0
  0
CLASS
  1
ACDBPLACEHOLDER
  2
AcDbPlaceHolder
  3
ObjectDBX Classes
 90
        0
280
     0
281
     0
  0
CLASS
  1
LAYOUT
  2
AcDbLayout
  3
ObjectDBX Classes
 90
        0
280
     0
281
     0
  0
CLASS
  1
ACME_DOCUMENT
  2
AcMeDbDoc
  3
AcMeServices
 90
        0
280
     0
281
     0
  0
CLASS
  1
AMGSETTINGSOBJ
  2
AmgSettingsObj
  3
"AcadM|Product Description: AutoCAD Mechanical 2000|Company: Autodesk"
 90
        0
280
     0
281
     0
  0
CLASS
  1
ACMESCOPE
  2
AcMeScope
  3
AcMeServices
 90
        0
280
     0
281
     0
  0
CLASS
  1
ACMECOMMANDHISTORY
  2
AcMeCommandHistory
  3
AcMeServices
 90
        0
280
     0
281
     0
  0
CLASS
  1
ACIMSYSVARMAN
  2
AcImSysVarManager
  3
AcMeServices
 90
        0
280
     0
281
     0
  0
CLASS
  1
ACIMREALSYSVAR
  2
AcImRealSysVar
  3
AcMeServices
 90
        0
280
     0
281
     0
  0
CLASS
  1
ACIMINTSYSVAR
  2
AcImIntSysVar
  3
AcMeServices
 90
        0
280
     0
281
     0
  0
CLASS
  1
ACMEDRAWINGMAN
  2
AcMeDrawingMan
  3
AcMeServices
 90
        0
280
     0
281
     0
  0
CLASS
  1
ACMEVIEW
  2
AcMeView
  3
AcMeServices
 90
        0
280
     0
281
     0
  0
CLASS
  1
ACDBENTITYCACHE
  2
AcMeEntityCache
  3
AcMeServices
 90
        0
280
     0
281
     0
  0
CLASS
  1
GSMANAGER
  2
AcMeGSManager
  3
AcMeServices
 90
        0
280
     0
281
     0
  0
CLASS
  1
AMDTINTERNALREACTOR
  2
AmdtInternalReactor
  3
AcMeServices
 90
        0
280
     0
281
     0
  0
CLASS
  1
ACMESTATEMGR
  2
AcMeStateMgr
  3
AcMeServices
 90
        0
280
     0
281
     0
  0
CLASS
  1
ACGREFMASTER
  2
AcGrefMaster
  3
AcAttribServices
 90
        0
280
     0
281
     0
  0
CLASS
  1
ACME_DATABASE
  2
AcMeDbDatabase
  3
AcMeServices
 90
        0
280
     0
281
     0
  0
CLASS
  1
ACRFINSADJUSTERMGR
  2
AcRfInsAdjusterMgr
  3
AcMeServices
 90
        0
280
     0
281
     0
  0
CLASS
  1
ACGREFACADMASTER
  2
AcGrefacadMaster
  3
AcGrefServices
 90
        0
280
     0
281
     0
  0
CLASS
  1
AMIMASTER
  2
AmiMaster
  3
AmiServices
 90
        0
280
     0
281
     0
  0
CLASS
  1
ACMDATADICTIONARY
  2
AcmDataDictionary
  3
"AcmSymBB|Product Description: AutoCAD Mechanical 2004 DX|Company: Autodesk"
 90
        0
280
     0
281
     0
  0
CLASS
  1
ACMDATAENTRYBLOCK
  2
AcmDataEntryBlock
  3
"AcmSymBB|Product Description: AutoCAD Mechanical 2004 DX|Company: Autodesk"
 90
        0
280
     0
281
     0
  0
CLASS
  1
ACIMSTRSYSVAR
  2
AcImStrSysVar
  3
AcMeServices
 90
        0
280
     0
281
     0
  0
CLASS
  1
ACMSTANDARDISO
  2
AcmStandardISO
  3
"Amdt_StdImp|Product Description: AutoCAD Mechanical 2004 DX|Company: Autodesk"
 90
        0
280
     0
281
     0
  0
CLASS
  1
AMGOBJPROPCFG
  2
AmgObjPropCfg
  3
"AmgLay|Product Description: AutoCAD Mechanical 2000|Company: Autodesk"
 90
        1
280
     0
281
     0
  0
CLASS
  1
AMDTEDGESTANDARDISO
  2
AmdtEdgeStdISO
  3
"Amdt_StdImp|Product Description: AutoCAD Mechanical 2004 DX|Company: Autodesk"
 90
        0
280
     0
281
     0
  0
CLASS
  1
ACMSURFSTANDARDISO
  2
AcmSurfTextStdISO
  3
"Amdt_StdImp|Product Description: AutoCAD Mechanical 2004 DX|Company: Autodesk"
 90
        0
280
     0
281
     0
  0
CLASS
  1
ACMFCFSTANDARDISO
  2
AcmFCFStdISO
  3
"Amdt_StdImp|Product Description: AutoCAD Mechanical 2004 DX|Company: Autodesk"
 90
        0
280
     0
281
     0
  0
CLASS
  1
ACMWELDSTANDARDISO
  2
AcmWeldingStdISO
  3
"Amdt_StdImp|Product Description: AutoCAD Mechanical 2004 DX|Company: Autodesk"
 90
        0
280
     0
281
     0
  0
CLASS
  1
ACMIDSTANDARDISO
  2
AcmIdStdISO
  3
"Amdt_StdImp|Product Description: AutoCAD Mechanical 2004 DX|Company: Autodesk"
 90
        0
280
     0
281
     0
  0
CLASS
  1
ACMDATUMSTANDARDISO
  2
AcmDatumStdISO
  3
"Amdt_StdImp|Product Description: AutoCAD Mechanical 2004 DX|Company: Autodesk"
 90
        0
280
     0
281
     0
  0
CLASS
  1
ACMBOMSTANDARDISO
  2
AcmBOMStdISO
  3
"Amdt_StdImp|Product Description: AutoCAD Mechanical 2004 DX|Company: Autodesk"
 90
        0
280
     0
281
     0
  0
CLASS
  1
ACMDETAILSTANDARDISO
  2
AmdtDetailSymStdISO
  3
"Amdt_StdImp|Product Description: AutoCAD Mechanical 2004 DX|Company: Autodesk"
 90
        0
280
     0
281
     0
  0
CLASS
  1
ACMSECTIONSTANDARDISO
  2
AmdtSectionSymStdISO
  3
"Amdt_StdImp|Product Description: AutoCAD Mechanical 2004 DX|Company: Autodesk"
 90
        0
280
     0
281
     0
  0
CLASS
  1
ACMCENTERLINESTANDARDISO
  2
AmdtCenterLineStdISO
  3
"Amdt_StdImp|Product Description: AutoCAD Mechanical 2004 DX|Company: Autodesk"
 90
        0
280
     0
281
     0
  0
CLASS
  1
ACMNOTESTANDARDISO
  2
AmdtNoteStdISO
  3
"Amdt_StdImp|Product Description: AutoCAD Mechanical 2004 DX|Company: Autodesk"
 90
        0
280
     0
281
     0
  0
CLASS
  1
ACAMGLAYSTD
  2
AcAmgLayStd
  3
"AcAmgLayStd|Product Description: AutoCAD Mechanical 2000|Company: Autodesk"
 90
        0
280
     0
281
     0
  0
CLASS
  1
ACAMGDIMSTD
  2
AcAmgDimStd
  3
"AcAmgDimStd|Product Description: AutoCAD Mechanical 2000|Company: Autodesk"
 90
        0
280
     0
281
     0
  0
CLASS
  1
ACAMGHOLECHARTSTDISO
  2
AcAmgHoleChartStdISO
  3
ACMSYMBB_MODULE_NAME
 90
        0
280
     0
281
     0
  0
CLASS
  1
ACAMGTITLESTD
  2
AcAmgTitleStd
  3
"TITLEAPP"
 90
        0
280
     0
281
     0
  0
CLASS
  1
LAYER_INDEX
  2
AcDbLayerIndex
  3
ObjectDBX Classes
 90
    32768
280
     0
281
     0
  0
CLASS
  1
IDBUFFER
  2
AcDbIdBuffer
  3
ObjectDBX Classes
 90
    32768
280
     0
281
     0
  0
CLASS
  1
DICTIONARYVAR
  2
AcDbDictionaryVar
  3
ObjectDBX Classes
 90
        0
280
     0
281
     0
  0
CLASS
  1
AM_DRAWING_MGR
  2
AcDmDwgMgr
  3
AcMechDwgViewMgmt
 90
        0
280
     0
281
     0
  0
CLASS
  1
AM_DWG_DOCUMENT
  2
AcDmDwgDocument
  3
AcMechDwgViewMgmt
 90
        0
280
     0
281
     0
  0
CLASS
  1
AM_DWG_SHEET
  2
AcDmSheet
  3
AcMechDwgViewMgmt
 90
        0
280
     0
281
     0
  0
CLASS
  1
AM_VIEWDIMPARMAP
  2
AcDmViewDimParMap
  3
AcMechDwgViewMgmt
 90
        0
280
     0
281
     0
  0
CLASS
  1
AM_DWGMGR_NAME
  2
AcDmDwgMgrName
  3
AcMechDwgViewMgmt
 90
        0
280
     0
281
     0
  0
CLASS
  1
AMDTMENUSTATEMGR
  2
AmdtMenuStateMgr
  3
McadcomServices
 90
        0
280
     0
281
     0
  0
CLASS
  1
AMDTMCOMMENUSTATE
  2
AmdtMcomMenuState
  3
McadcomServices
 90
        0
280
     0
281
     0
  0
CLASS
  1
MAPIAMMOUDLE
  2
MApiAmModule
  3
MApiAmServices
 90
        0
280
     0
281
     0
  0
CLASS
  1
AMDTADMENUSTATE
  2
AmdtAdMenuState
  3
DesignerServices
 90
        0
280
     0
281
     0
  0
CLASS
  1
ADAPPL
  2
AcAdAppl
  3
DesignerServices
 90
        0
280
     0
281
     0
  0
CLASS
  1
DEPMGR
  2
AcAdDepMgr
  3
DesignerServices
 90
        0
280
     0
281
     0
  0
CLASS
  1
PARAMMGR
  2
AcAdParamMgr
  3
DesignerServices
 90
        0
280
     0
281
     0
  0
CLASS
  1
PARAMSCOPE
  2
AcAdParamScope
  3
DesignerServices
 90
        0
280
     0
281
     0
  0
CLASS
  1
NAMEDAPPL
  2
AcAdNamedAppl
  3
DesignerServices
 90
        0
280
     0
281
     0
  0
CLASS
  1
AMDTDMMENUSTATE
  2
AmdtDmMenuState
  3
AcMechDwgViewMgmt
 90
        0
280
     0
281
     0
  0
CLASS
  1
AMDTAMMENUSTATE
  2
AmdtAmMenuState
  3
DesignerAssemblies
 90
        0
280
     0
281
     0
  0
CLASS
  1
ACAMPROJECT
  2
AcAmProject
  3
DesignerAssemblies
 90
        0
280
     0
281
     0
  0
CLASS
  1
ACAMGRCOMPDEF
  2
AcAmGrCompDef
  3
DesignerAssemblies
 90
        0
280
     0
281
     0
  0
CLASS
  1
ACCMCONTEXT
  2
AcCmContext
  3
DesignerAssemblies
 90
        0
280
     0
281
     0
  0
CLASS
  1
ACAMCOMPDEF
  2
AcAmCompDef
  3
DesignerAssemblies
 90
        0
280
     0
281
     0
  0
CLASS
  1
ACAMCOMPDEFMGR
  2
AcAmCompDefMgr
  3
DesignerAssemblies
 90
        0
280
     0
281
     0
  0
CLASS
  1
AMCONTEXTMGR
  2
AcAmContextMgr
  3
DesignerAssemblies
 90
        0
280
     0
281
     0
  0
CLASS
  1
ACAMCONTEXTMODELER
  2
AcAmContextModeler
  3
DesignerAssemblies
 90
        0
280
     0
281
     0
  0
CLASS
  1
ACMTHREADLINESTANDARDISO
  2
AmdtThreadLineStdISO
  3
"Amdt_StdImp|Product Description: AutoCAD Mechanical 2004 DX|Company: Autodesk"
 90
        0
280
     0
281
     0
  0
CLASS
  1
CATALOGSTATE
  2
AcAmCatalogState
  3
DesignerAssemblies
 90
        0
280
     0
281
     0
  0
CLASS
  1
ACAMGRCOMPDEFSET
  2
AcAmGrCompDefSet
  3
DesignerAssemblies
 90
        0
280
     0
281
     0
  0
CLASS
  1
AMDTBROWSERDBTAB
  2
AmdtBrowserDbTab
  3
McadcomServices
 90
        0
280
     0
281
     0
  0
CLASS
  1
CBROWSERAPPOBJECT
  2
CBrowserAppObject
  3
McadcomServices
 90
        0
280
     0
281
     0
  0
CLASS
  1
DM_PLACEHOLDER
  2
AcDmSelsetPlaceholder
  3
AcMechDwgViewMgmt
 90
        0
280
     0
281
     0
  0
CLASS
  1
TABLESTYLE
  2
AcDbTableStyle
  3
ObjectDBX Classes
 90
     2047
280
     0
281
     0
  0
CLASS
  1
VAACXREFPANELOBJECT
  2
VaAcXREFPanelObject
  3
VAAC_ADDIN
 90
    32768
280
     0
281
     0
  0
CLASS
  1
VAACIMAGEINVENTORY
  2
VaAcImageInventory
  3
VAAC_ADDIN
 90
    32768
280
     0
281
     0
  0
CLASS
  1
AMDTNOTETEMPLATEDB
  2
AmdtNoteTemplateDB
  3
AMDT_STDIMP_MODULE_NAME
 90
        0
280
     0
281
     0
  0
CLASS
  1
RASTERVARIABLES
  2
AcDbRasterVariables
  3
ISM
 90
        0
280
     0
281
     0
  0
CLASS
  1
IMAGEDEF
  2
AcDbRasterImageDef
  3
ISM
 90
        0
280
     0
281
     0
  0
CLASS
  1
IMAGEDEF_REACTOR
  2
AcDbRasterImageDefReactor
  3
ISM
 90
        1
280
     0
281
     0
  0
CLASS
  1
IMAGE
  2
AcDbRasterImage
  3
ISM
 90
      127
280
     0
281
     1
  0
CLASS
  1
ACAMGFILTERDAT
  2
AcAmgFilterDat
  3
"AcadM|Product Description: AutoCAD Mechanical 2000|Company: Autodesk"
 90
        0
280
     0
281
     0
  0
CLASS
  1
SORTENTSTABLE
  2
AcDbSortentsTable
  3
ObjectDBX Classes
 90
        0
280
     0
281
     0
  0
CLASS
  1
DIMASSOC
  2
AcDbDimAssoc
  3
"AcDbDimAssoc|Product Desc:     AcDim ARX App For Dimension|Company:          Autodesk, Inc.|WEB Address:      www.autodesk.com"
 90
        0
280
     0
281
     0
  0
CLASS
  1
ACRFATTGENMGR
  2
AcRfAttGeneralMgr
  3
AcAttribServices
 90
        0
280
     0
281
     0
  0
ENDSEC
  0
SECTION
  2
TABLES
  0
TABLE
  2
VPORT
  5
8
330
0
100
AcDbSymbolTable
 70
   265
  0
VPORT
  5
11D7
330
8
100
AcDbSymbolTableRecord
100
AcDbViewportTableRecord
  2
*Active
 70
     0
 10
0.0
 20
0.0
 11
1.0
 21
1.0
 12
39.82676454780445
 22
1116.300791296372
 13
0.0
 23
0.0
 14
2.5
 24
2.5
 15
10.0
 25
10.0
 16
0.0
 26
0.0
 36
1.0
 17
0.0
 27
0.0
 37
0.0
 40
1376.785468979282
 41
1.762144053601339
 42
50.0
 43
0.0
 44
0.0
 50
0.0
 51
0.0
 71
     0
 72
   100
 73
     1
 74
     2
 75
     0
 76
     1
 77
     0
 78
     0
281
     0
 65
     1
110
0.0
120
0.0
130
0.0
111
1.0
121
0.0
131
0.0
112
0.0
122
1.0
132
0.0
 79
     0
146
0.0
  0
ENDTAB
  0
TABLE
  2
LTYPE
  5
5
330
0
100
AcDbSymbolTable
 70
    23
  0
LTYPE
  5
14
330
5
100
AcDbSymbolTableRecord
100
AcDbLinetypeTableRecord
  2
ByBlock
 70
     0
  3

 72
    65
 73
     0
 40
0.0
  0
LTYPE
  5
15
330
5
100
AcDbSymbolTableRecord
100
AcDbLinetypeTableRecord
  2
ByLayer
 70
     0
  3

 72
    65
 73
     0
 40
0.0
  0
LTYPE
  5
16
330
5
100
AcDbSymbolTableRecord
100
AcDbLinetypeTableRecord
  2
Continuous
 70
     0
  3
Solid line
 72
    65
 73
     0
 40
0.0
  0
LTYPE
  5
64
330
5
100
AcDbSymbolTableRecord
100
AcDbLinetypeTableRecord
  2
AM_ISO02W050
 70
     0
  3
__ __ __ __ __ __ __ __ __ __ __ __ __ __ __
 72
    65
 73
     2
 40
7.5
 49
6.0
 74
     0
 49
-1.5
 74
     0
  0
LTYPE
  5
65
330
5
100
AcDbSymbolTableRecord
100
AcDbLinetypeTableRecord
  2
AM_ISO08W050
 70
     0
  3
____ . ____ . ____ . ____ . ____ . ____ . ____
 72
    65
 73
     4
 40
18.0
 49
12.0
 74
     0
 49
-1.5
 74
     0
 49
3.0
 74
     0
 49
-1.5
 74
     0
  0
LTYPE
  5
66
330
5
100
AcDbSymbolTableRecord
100
AcDbLinetypeTableRecord
  2
AM_ISO09W050
 70
     0
  3
_____ . . _____ . . _____ . . ____ .. ____
 72
    65
 73
     6
 40
22.5
 49
12.0
 74
     0
 49
-1.5
 74
     0
 49
3.0
 74
     0
 49
-1.5
 74
     0
 49
3.0
 74
     0
 49
-1.5
 74
     0
  0
LTYPE
  5
67
330
5
100
AcDbSymbolTableRecord
100
AcDbLinetypeTableRecord
  2
Amconstr
 70
     0
  3
_______________________
 72
    65
 73
     2
 40
9999.0
 49
9999.0
 74
     0
 49
0.0
 74
     0
  0
LTYPE
  5
68
330
5
100
AcDbSymbolTableRecord
100
AcDbLinetypeTableRecord
  2
AM_ISO08W050x2
 70
     0
  3
__ . __ . __ . __ . __ . __
 72
    65
 73
     4
 40
9.0
 49
6.0
 74
     0
 49
-0.75
 74
     0
 49
1.5
 74
     0
 49
-0.75
 74
     0
  0
LTYPE
  5
69
330
5
100
AcDbSymbolTableRecord
100
AcDbLinetypeTableRecord
  2
AM_ISO02W050x2
 70
     0
  3
 _ _ _ _ _ _ _ _ _ _ _ _
 72
    65
 73
     2
 40
3.75
 49
3.0
 74
     0
 49
-0.75
 74
     0
  0
LTYPE
  5
6C
330
5
100
AcDbSymbolTableRecord
100
AcDbLinetypeTableRecord
  2
Amzigzag
 70
     0
  3
/\/-/\/-/\/-/\/-/\/-/\/
 72
    65
 73
     2
 40
11.0001
 49
0.0001
 74
     4
 75
   136
340
22C
 46
0.04
 50
0.0
 44
0.0
 45
0.0
 49
-11.0
 74
     0
  0
LTYPE
  5
7A
330
5
100
AcDbSymbolTableRecord
100
AcDbLinetypeTableRecord
  2
ACISOWELD
 70
     0
  3
_ _ _ _ _
 72
    65
 73
     2
 40
2.0
 49
2.0
 74
     0
 49
-1.0
 74
     0
  0
LTYPE
  5
7B
330
5
100
AcDbSymbolTableRecord
100
AcDbLinetypeTableRecord
  2
ACISOTGB
 70
     0
  3
__ . . __ . .
 72
    65
 73
     6
 40
9.0
 49
4.0
 74
     0
 49
-1.0
 74
     0
 49
1.0
 74
     0
 49
-1.0
 74
     0
 49
1.0
 74
     0
 49
-1.0
 74
     0
  0
LTYPE
  5
7C
330
5
100
AcDbSymbolTableRecord
100
AcDbLinetypeTableRecord
  2
ACISOTGL
 70
     0
  3
_ _ _ _ _
 72
    65
 73
     2
 40
3.0
 49
2.0
 74
     0
 49
-1.0
 74
     0
  0
LTYPE
  5
7E
330
5
100
AcDbSymbolTableRecord
100
AcDbLinetypeTableRecord
  2
CENTER
 70
     0
  3
__ . __
 72
    65
 73
     4
 40
7.0
 49
4.0
 74
     0
 49
-1.0
 74
     0
 49
1.0
 74
     0
 49
-1.0
 74
     0
  0
LTYPE
  5
D8
330
5
100
AcDbSymbolTableRecord
100
AcDbLinetypeTableRecord
  2
HIDDEN
 70
     0
  3
Hidden __ __ __ __ __ __ __ __ __ __ __ __ __ _
 72
    65
 73
     2
 40
9.524999999999998
 49
6.349999999999999
 74
     0
 49
-3.174999999999999
 74
     0
  0
LTYPE
  5
D9
330
5
100
AcDbSymbolTableRecord
100
AcDbLinetypeTableRecord
  2
PHANTOM2
 70
     0
  3
Phantom (.5x) ___ _ _ ___ _ _ ___ _ _ ___ _ _
 72
    65
 73
     6
 40
31.75
 49
15.875
 74
     0
 49
-3.174999999999999
 74
     0
 49
3.174999999999999
 74
     0
 49
-3.174999999999999
 74
     0
 49
3.174999999999999
 74
     0
 49
-3.174999999999999
 74
     0
  0
LTYPE
  5
5E6
330
5
100
AcDbSymbolTableRecord
100
AcDbLinetypeTableRecord
  2
DASHED
 70
     0
  3
__ __ __ __ __ __ __ __ __ __ __ __ __ __ __
 72
    65
 73
     2
 40
0.75
 49
0.5
 74
     0
 49
-0.25
 74
     0
  0
LTYPE
  5
5E7
330
5
100
AcDbSymbolTableRecord
100
AcDbLinetypeTableRecord
  2
PHANTOM
 70
     0
  3
_____ _ _ _____ _ _ _____ _ _ _____ _ _ ____
 72
    65
 73
     6
 40
2.5
 49
1.25
 74
     0
 49
-0.25
 74
     0
 49
0.25
 74
     0
 49
-0.25
 74
     0
 49
0.25
 74
     0
 49
-0.25
 74
     0
  0
LTYPE
  5
5E8
330
5
100
AcDbSymbolTableRecord
100
AcDbLinetypeTableRecord
  2
DOT
 70
     0
  3
............................................
 72
    65
 73
     2
 40
0.25
 49
0.0
 74
     0
 49
-0.25
 74
     0
  0
LTYPE
  5
5E9
330
5
100
AcDbSymbolTableRecord
100
AcDbLinetypeTableRecord
  2
DASHDOT
 70
     0
  3
__ . __ . __ . __ . __ . __ . __ . __ . __ .
 72
    65
 73
     4
 40
1.0
 49
0.5
 74
     0
 49
-0.25
 74
     0
 49
0.0
 74
     0
 49
-0.25
 74
     0
  0
LTYPE
  5
5EA
330
5
100
AcDbSymbolTableRecord
100
AcDbLinetypeTableRecord
  2
BORDER
 70
     0
  3
__ __ . __ __ . __ __ . __ __ . __ __ . __ _
 72
    65
 73
     6
 40
1.75
 49
0.5
 74
     0
 49
-0.25
 74
     0
 49
0.5
 74
     0
 49
-0.25
 74
     0
 49
0.0
 74
     0
 49
-0.25
 74
     0
  0
LTYPE
  5
5EB
330
5
100
AcDbSymbolTableRecord
100
AcDbLinetypeTableRecord
  2
DIVIDE
 70
     0
  3
__ . . __ . . __ . . __ . . __ . . __ . . __
 72
    65
 73
     6
 40
1.25
 49
0.5
 74
     0
 49
-0.25
 74
     0
 49
0.0
 74
     0
 49
-0.25
 74
     0
 49
0.0
 74
     0
 49
-0.25
 74
     0
  0
LTYPE
  5
5EC
330
5
100
AcDbSymbolTableRecord
100
AcDbLinetypeTableRecord
  2
DOTS
 70
     0
  3
close                                       
 72
    65
 73
     2
 40
0.1
 49
0.05
 74
     0
 49
-0.05
 74
     0
  0
LTYPE
  5
5ED
330
5
100
AcDbSymbolTableRecord
100
AcDbLinetypeTableRecord
  2
CLOSE
 70
     0
  3
                                            
 72
    65
 73
     0
 40
0.0
  0
ENDTAB
  0
TABLE
  2
LAYER
  5
2
102
{ACAD_XDICTIONARY
360
46F
102
}
330
0
100
AcDbSymbolTable
 70
    20
  0
LAYER
  5
10
330
2
100
AcDbSymbolTableRecord
100
AcDbLayerTableRecord
  2
0
 70
     0
 62
     7
  6
Continuous
370
    -3
390
F
  0
LAYER
  5
2DF
330
2
100
AcDbSymbolTableRecord
100
AcDbLayerTableRecord
  2
AM_5
 70
     0
 62
     3
  6
Continuous
370
    25
390
F
1001
AcAecLayerStandard
1000

1000

  0
LAYER
  5
340
330
2
100
AcDbSymbolTableRecord
100
AcDbLayerTableRecord
  2
Defpoints
 70
     0
 62
     7
  6
Continuous
290
     0
370
    -3
390
F
  0
LAYER
  5
46E
330
2
100
AcDbSymbolTableRecord
100
AcDbLayerTableRecord
  2
Trittici
 70
     0
 62
   210
  6
Continuous
370
    -3
390
F
1001
AcAecLayerStandard
1000

1000

  0
LAYER
  5
537
330
2
100
AcDbSymbolTableRecord
100
AcDbLayerTableRecord
  2
Fuso Corretta
 70
     0
 62
   140
  6
Continuous
370
    50
390
F
1001
AcAecLayerStandard
1000

1000

  0
LAYER
  5
53D
330
2
100
AcDbSymbolTableRecord
100
AcDbLayerTableRecord
  2
Assi
 70
     0
 62
    50
  6
AM_ISO08W050
370
    -3
390
F
1001
AcAecLayerStandard
1000

1000

  0
LAYER
  5
57C
330
2
100
AcDbSymbolTableRecord
100
AcDbLayerTableRecord
  2
Omesso
 70
     0
 62
    90
  6
AM_ISO02W050
370
    50
390
F
1001
AcAecLayerStandard
1000

1000

  0
LAYER
  5
5EE
330
2
100
AcDbSymbolTableRecord
100
AcDbLayerTableRecord
  2
LAYER01
 70
     0
 62
     7
  6
Continuous
370
    -3
390
F
  0
LAYER
  5
5EF
330
2
100
AcDbSymbolTableRecord
100
AcDbLayerTableRecord
  2
LAYER02
 70
     0
 62
     7
  6
Continuous
370
    -3
390
F
  0
LAYER
  5
5F0
330
2
100
AcDbSymbolTableRecord
100
AcDbLayerTableRecord
  2
LAYER03
 70
     0
 62
     7
  6
Continuous
370
    -3
390
F
  0
LAYER
  5
5F1
330
2
100
AcDbSymbolTableRecord
100
AcDbLayerTableRecord
  2
LAYER04
 70
     0
 62
     7
  6
Continuous
370
    -3
390
F
  0
LAYER
  5
5F2
330
2
100
AcDbSymbolTableRecord
100
AcDbLayerTableRecord
  2
LAYER05
 70
     0
 62
     7
  6
Continuous
370
    -3
390
F
  0
LAYER
  5
5F3
330
2
100
AcDbSymbolTableRecord
100
AcDbLayerTableRecord
  2
LAYER06
 70
     0
 62
     7
  6
Continuous
370
    -3
390
F
  0
LAYER
  5
5F4
330
2
100
AcDbSymbolTableRecord
100
AcDbLayerTableRecord
  2
LAYER07
 70
     0
 62
     7
  6
Continuous
370
    -3
390
F
  0
LAYER
  5
5F5
330
2
100
AcDbSymbolTableRecord
100
AcDbLayerTableRecord
  2
LAYER08
 70
     0
 62
     7
  6
Continuous
370
    -3
390
F
  0
LAYER
  5
5F6
330
2
100
AcDbSymbolTableRecord
100
AcDbLayerTableRecord
  2
LAYER09
 70
     0
 62
     7
  6
Continuous
370
    -3
390
F
  0
LAYER
  5
5F7
330
2
100
AcDbSymbolTableRecord
100
AcDbLayerTableRecord
  2
LAYER10
 70
     0
 62
     7
  6
Continuous
370
    -3
390
F
  0
LAYER
  5
5F8
330
2
100
AcDbSymbolTableRecord
100
AcDbLayerTableRecord
  2
7
 70
     0
 62
     7
  6
Continuous
370
    -3
390
F
  0
LAYER
  5
6EA
330
2
100
AcDbSymbolTableRecord
100
AcDbLayerTableRecord
  2
Ala
 70
     0
 62
   255
  6
Continuous
370
    50
390
F
1001
AcAecLayerStandard
1000

1000

  0
LAYER
  5
F43
330
2
100
AcDbSymbolTableRecord
100
AcDbLayerTableRecord
  2
Nascosto
 70
     0
 62
   220
  6
ACISOTGL
370
    30
390
F
1001
AcAecLayerStandard
1000

1000

  0
ENDTAB
  0
TABLE
  2
STYLE
  5
3
330
0
100
AcDbSymbolTable
 70
     8
  0
STYLE
  5
11
330
3
100
AcDbSymbolTableRecord
100
AcDbTextStyleTableRecord
  2
STANDARD
 70
     0
 40
0.0
 41
1.0
 50
0.0
 71
     0
 42
2.5
  3
ISOCP.SHX
  4

  0
STYLE
  5
6B
330
3
100
AcDbSymbolTableRecord
100
AcDbTextStyleTableRecord
  2

 70
     1
 40
0.0
 41
1.0
 50
0.0
 71
     0
 42
2.5
  3
ltypeshp.shx
  4

  0
STYLE
  5
6D
330
3
100
AcDbSymbolTableRecord
100
AcDbTextStyleTableRecord
  2
ACISOTS
 70
     0
 40
1.0
 41
1.0
 50
0.0
 71
     0
 42
2.5
  3
isocp.shx
  4

  0
STYLE
  5
79
330
3
100
AcDbSymbolTableRecord
100
AcDbTextStyleTableRecord
  2
ACISOGDT
 70
     0
 40
0.0
 41
1.0
 50
0.0
 71
     0
 42
2.5
  3
AMGDT
  4

  0
STYLE
  5
1ED
330
3
100
AcDbSymbolTableRecord
100
AcDbTextStyleTableRecord
  2
USER1
 70
     0
 40
0.0
 41
1.0
 50
0.0
 71
     0
 42
2.5
  3
TXT.SHX
  4

  0
STYLE
  5
1EE
330
3
100
AcDbSymbolTableRecord
100
AcDbTextStyleTableRecord
  2
USER2
 70
     0
 40
0.0
 41
1.0
 50
0.0
 71
     0
 42
2.5
  3
SIMPLEX.SHX
  4

  0
STYLE
  5
1EF
330
3
100
AcDbSymbolTableRecord
100
AcDbTextStyleTableRecord
  2
USER3
 70
     0
 40
0.0
 41
1.0
 50
0.0
 71
     0
 42
2.5
  3
ITALIC.SHX
  4

  0
STYLE
  5
22C
330
3
100
AcDbSymbolTableRecord
100
AcDbTextStyleTableRecord
  2

 70
     1
 40
0.0
 41
1.0
 50
0.0
 71
     0
 42
2.5
  3
genltshp.shx
  4

  0
ENDTAB
  0
TABLE
  2
VIEW
  5
6
330
0
100
AcDbSymbolTable
 70
     0
  0
ENDTAB
  0
TABLE
  2
UCS
  5
7
330
0
100
AcDbSymbolTable
 70
     0
  0
ENDTAB
  0
TABLE
  2
APPID
  5
9
330
0
100
AcDbSymbolTable
 70
    13
  0
APPID
  5
12
330
9
100
AcDbSymbolTableRecord
100
AcDbRegAppTableRecord
  2
ACAD
 70
     0
  0
APPID
  5
46
330
9
100
AcDbSymbolTableRecord
100
AcDbRegAppTableRecord
  2
MCAD_NO_VIS
 70
     0
  0
APPID
  5
47
330
9
100
AcDbSymbolTableRecord
100
AcDbRegAppTableRecord
  2
ACAD_TEMP_GRAPHIC
 70
     0
  0
APPID
  5
58
330
9
100
AcDbSymbolTableRecord
100
AcDbRegAppTableRecord
  2
ACATTRIBSERVICES
 70
     0
  0
APPID
  5
EE
330
9
100
AcDbSymbolTableRecord
100
AcDbRegAppTableRecord
  2
AD_DRAW
 70
     0
  0
APPID
  5
10C
330
9
100
AcDbSymbolTableRecord
100
AcDbRegAppTableRecord
  2
DESIGNERASSEMBLIES
 70
     0
  0
APPID
  5
111
330
9
100
AcDbSymbolTableRecord
100
AcDbRegAppTableRecord
  2
ACADM_DIM_EDIT
 70
     0
  0
APPID
  5
112
330
9
100
AcDbSymbolTableRecord
100
AcDbRegAppTableRecord
  2
AMDT_DM_ADJ
 70
     0
  0
APPID
  5
1A3
330
9
100
AcDbSymbolTableRecord
100
AcDbRegAppTableRecord
  2
ACAD_DSTYLE_DIMARC_LENGTH_SYMBOL
 70
     0
  0
APPID
  5
1A4
330
9
100
AcDbSymbolTableRecord
100
AcDbRegAppTableRecord
  2
ACAD_DSTYLE_DIMJOGGED_JOGANGLE_SYMBOL
 70
     0
  0
APPID
  5
294
330
9
100
AcDbSymbolTableRecord
100
AcDbRegAppTableRecord
  2
ACAD_EXEMPT_FROM_CAD_STANDARDS
 70
     0
  0
APPID
  5
2E0
330
9
100
AcDbSymbolTableRecord
100
AcDbRegAppTableRecord
  2
AcAecLayerStandard
 70
     0
  0
APPID
  5
3C6
330
9
100
AcDbSymbolTableRecord
100
AcDbRegAppTableRecord
  2
ACAD_PSEXT
 70
     0
  0
ENDTAB
  0
TABLE
  2
DIMSTYLE
  5
A
330
0
100
AcDbSymbolTable
 70
    12
100
AcDbDimStyleTable
 71
     1
340
81
  0
DIMSTYLE
105
27
330
A
100
AcDbSymbolTableRecord
100
AcDbDimStyleTableRecord
  2
ISO-25
 70
     0
 41
2.5
 42
0.625
 43
3.75
 44
1.25
 73
     0
 74
     0
 77
     1
 78
     8
140
2.5
141
2.5
143
0.03937007874016
147
0.625
171
     3
172
     1
271
     2
272
     2
274
     3
278
    44
283
     0
284
     8
340
11
  0
DIMSTYLE
105
81
330
A
100
AcDbSymbolTableRecord
100
AcDbDimStyleTableRecord
  2
AM_ISO
 70
     0
  4
"
 41
2.5
 42
1.0
 43
10.0
 44
1.0
 47
0.1
 48
0.1
 73
     0
 74
     0
 77
     1
 78
     8
 79
     2
140
3.5
141
0.0
143
0.0393701
146
0.71
147
1.5
172
     1
176
   256
177
   256
178
     2
271
     2
272
     3
274
     4
283
     0
284
     8
340
11
371
    -1
372
    -1
1001
ACAD_DSTYLE_DIMARC_LENGTH_SYMBOL
1070
   379
1070
     1
1001
ACAD_DSTYLE_DIMJOGGED_JOGANGLE_SYMBOL
1070
   384
1040
0.7853981633974483
  0
DIMSTYLE
105
82
330
A
100
AcDbSymbolTableRecord
100
AcDbDimStyleTableRecord
  2
AM_ISO$3
 70
     0
  4
"
 41
2.5
 42
1.0
 43
10.0
 44
1.0
 47
0.1
 48
0.1
 73
     0
 77
     1
 78
     8
 79
     2
140
3.5
141
0.0
143
0.0393701
146
0.71
147
1.5
176
   256
177
   256
178
     2
271
     2
272
     3
274
     4
283
     0
284
     8
288
     1
289
     0
340
11
371
    -1
372
    -1
1001
ACAD_DSTYLE_DIMARC_LENGTH_SYMBOL
1070
   379
1070
     1
1001
ACAD_DSTYLE_DIMJOGGED_JOGANGLE_SYMBOL
1070
   384
1040
0.7853981633974483
  0
DIMSTYLE
105
83
330
A
100
AcDbSymbolTableRecord
100
AcDbDimStyleTableRecord
  2
AM_ISO$4
 70
     0
  4
"
 41
2.5
 42
1.0
 43
10.0
 44
1.0
 47
0.1
 48
0.1
 73
     0
 77
     1
 78
     8
 79
     2
140
3.5
141
0.0
143
0.0393701
146
0.71
147
1.5
176
   256
177
   256
178
     2
271
     2
272
     3
274
     4
283
     0
284
     8
288
     1
289
     0
340
11
371
    -1
372
    -1
1001
ACAD_DSTYLE_DIMARC_LENGTH_SYMBOL
1070
   379
1070
     1
1001
ACAD_DSTYLE_DIMJOGGED_JOGANGLE_SYMBOL
1070
   384
1040
0.7853981633974483
  0
DIMSTYLE
105
84
330
A
100
AcDbSymbolTableRecord
100
AcDbDimStyleTableRecord
  2
AM_ISO$6
 70
     0
  4
"
 41
2.5
 42
1.0
 43
10.0
 44
1.0
 47
0.1
 48
0.1
 73
     0
 74
     0
 78
     8
 79
     2
140
3.5
141
0.0
143
0.0393701
146
0.71
147
1.5
172
     1
176
   256
177
   256
178
     2
271
     2
272
     3
274
     4
283
     0
284
     8
340
11
371
    -1
372
    -1
1001
ACAD_DSTYLE_DIMARC_LENGTH_SYMBOL
1070
   379
1070
     1
1001
ACAD_DSTYLE_DIMJOGGED_JOGANGLE_SYMBOL
1070
   384
1040
0.7853981633974483
  0
DIMSTYLE
105
85
330
A
100
AcDbSymbolTableRecord
100
AcDbDimStyleTableRecord
  2
AM_ISO$7
 70
     0
  4
"
 41
2.5
 42
1.0
 43
10.0
 44
1.0
 47
0.1
 48
0.1
 73
     0
 74
     0
 77
     1
 78
     8
 79
     2
140
5.0
141
0.0
143
0.0393701
146
0.71
147
1.5
172
     1
176
   256
177
   256
178
     2
271
     2
272
     3
274
     4
283
     0
284
     8
340
11
371
    -1
372
    -1
1001
ACAD_DSTYLE_DIMARC_LENGTH_SYMBOL
1070
   379
1070
     1
1001
ACAD_DSTYLE_DIMJOGGED_JOGANGLE_SYMBOL
1070
   384
1040
0.7853981633974483
  0
DIMSTYLE
105
86
330
A
100
AcDbSymbolTableRecord
100
AcDbDimStyleTableRecord
  2
AM_ISO$SF
 70
     0
  4
"
 41
2.5
 42
1.0
 43
10.0
 44
1.0
 47
0.1
 48
0.1
 73
     0
 74
     0
 75
     1
 76
     1
 77
     1
 78
     8
 79
     2
140
3.5
141
0.0
143
0.0393701
146
0.71
147
1.5
172
     1
176
   256
177
   256
178
     2
271
     2
272
     3
274
     4
283
     0
284
     8
340
11
371
    -1
372
    -1
1001
ACAD_DSTYLE_DIMARC_LENGTH_SYMBOL
1070
   379
1070
     1
1001
ACAD_DSTYLE_DIMJOGGED_JOGANGLE_SYMBOL
1070
   384
1040
0.7853981633974483
  0
DIMSTYLE
105
8B
330
A
100
AcDbSymbolTableRecord
100
AcDbDimStyleTableRecord
  2
AM_ISO$SH
 70
     0
  4
"
 41
2.5
 42
1.0
 43
10.0
 44
1.0
 47
0.1
 48
0.1
 73
     0
 74
     0
 75
     1
 76
     1
 77
     1
 78
     8
 79
     2
140
3.5
141
0.0
143
0.0393701
144
2.0
146
0.71
147
1.5
172
     1
173
     1
176
   256
177
   256
178
     2
271
     2
272
     3
274
     4
283
     0
284
     8
340
11
343
87
371
    -1
372
    -1
1001
ACAD_DSTYLE_DIMARC_LENGTH_SYMBOL
1070
   379
1070
     1
1001
ACAD_DSTYLE_DIMJOGGED_JOGANGLE_SYMBOL
1070
   384
1040
0.7853981633974483
  0
DIMSTYLE
105
33B
330
A
100
AcDbSymbolTableRecord
100
AcDbDimStyleTableRecord
  2
AM_ISO$0
 70
     0
  4
"
 41
2.5
 42
1.0
 43
10.0
 44
1.0
 47
0.1
 48
0.1
 73
     0
 74
     0
 77
     1
 78
     8
 79
     2
140
3.5
141
0.0
143
0.0393701
146
0.71
147
1.5
172
     1
176
   256
177
   256
178
     2
271
     2
272
     3
274
     4
283
     0
284
     8
340
11
371
    -1
372
    -1
1001
ACAD_DSTYLE_DIMARC_LENGTH_SYMBOL
1070
   379
1070
     1
1001
ACAD_DSTYLE_DIMJOGGED_JOGANGLE_SYMBOL
1070
   384
1040
0.7853981633974483
  0
DIMSTYLE
105
3D2
330
A
100
AcDbSymbolTableRecord
100
AcDbDimStyleTableRecord
  2
AM_ISO$2
 70
     0
  4
"
 41
2.5
 42
1.0
 43
10.0
 44
1.0
 47
0.1
 48
0.1
 73
     0
 74
     0
 77
     1
 78
     8
 79
     2
140
3.5
141
0.0
143
0.0393701
146
0.71
147
1.5
172
     1
176
   256
177
   256
178
     2
271
     2
272
     3
274
     4
283
     0
284
     8
340
11
371
    -1
372
    -1
1001
ACAD_DSTYLE_DIMARC_LENGTH_SYMBOL
1070
   379
1070
     1
1001
ACAD_DSTYLE_DIMJOGGED_JOGANGLE_SYMBOL
1070
   384
1040
0.7853981633974483
  0
DIMSTYLE
105
5F9
330
A
100
AcDbSymbolTableRecord
100
AcDbDimStyleTableRecord
  2
Standard
 70
     0
340
11
  0
ENDTAB
  0
TABLE
  2
BLOCK_RECORD
  5
1
330
0
100
AcDbSymbolTable
 70
    25
  0
BLOCK_RECORD
  5
1F
102
{ACAD_XDICTIONARY
360
8F
102
}
330
1
100
AcDbSymbolTableRecord
100
AcDbBlockTableRecord
  2
*Model_Space
340
22
  0
BLOCK_RECORD
  5
1B
330
1
100
AcDbSymbolTableRecord
100
AcDbBlockTableRecord
  2
*Paper_Space
340
1E
  0
BLOCK_RECORD
  5
23
330
1
100
AcDbSymbolTableRecord
100
AcDbBlockTableRecord
  2
*Paper_Space0
340
26
  0
BLOCK_RECORD
  5
87
330
1
100
AcDbSymbolTableRecord
100
AcDbBlockTableRecord
  2
GENAXEH
340
0
  0
BLOCK_RECORD
  5
3D4
330
1
100
AcDbSymbolTableRecord
100
AcDbBlockTableRecord
  2
*D3
340
0
  0
BLOCK_RECORD
  5
488
330
1
100
AcDbSymbolTableRecord
100
AcDbBlockTableRecord
  2
*D4
340
0
  0
BLOCK_RECORD
  5
4DB
330
1
100
AcDbSymbolTableRecord
100
AcDbBlockTableRecord
  2
*D6
340
0
  0
BLOCK_RECORD
  5
596
330
1
100
AcDbSymbolTableRecord
100
AcDbBlockTableRecord
  2
*D7
340
0
  0
BLOCK_RECORD
  5
5FA
330
1
100
AcDbSymbolTableRecord
100
AcDbBlockTableRecord
  2
CLARK YM-15 - 214 mm
340
0
102
{BLKREFS
331
6E5
102
}
  0
BLOCK_RECORD
  5
76B
330
1
100
AcDbSymbolTableRecord
100
AcDbBlockTableRecord
  2
*D9
340
0
  0
BLOCK_RECORD
  5
785
330
1
100
AcDbSymbolTableRecord
100
AcDbBlockTableRecord
  2
CLARK Y - 149
340
0
1001
ACAD
1000
DesignCenter Data
1002
{
1070
     1
1070
     0
1002
}
  0
BLOCK_RECORD
  5
889
330
1
100
AcDbSymbolTableRecord
100
AcDbBlockTableRecord
  2
*D11
340
0
  0
BLOCK_RECORD
  5
8A3
330
1
100
AcDbSymbolTableRecord
100
AcDbBlockTableRecord
  2
CLARK Y - 166
340
0
102
{BLKREFS
331
B18
102
}
1001
ACAD
1000
DesignCenter Data
1002
{
1070
     1
1070
     0
1002
}
  0
BLOCK_RECORD
  5
9D6
330
1
100
AcDbSymbolTableRecord
100
AcDbBlockTableRecord
  2
*D13
340
0
  0
BLOCK_RECORD
  5
A06
330
1
100
AcDbSymbolTableRecord
100
AcDbBlockTableRecord
  2
*D14
340
0
  0
BLOCK_RECORD
  5
B21
330
1
100
AcDbSymbolTableRecord
100
AcDbBlockTableRecord
  2
*D15
340
0
  0
BLOCK_RECORD
  5
B71
330
1
100
AcDbSymbolTableRecord
100
AcDbBlockTableRecord
  2
*D16
340
0
  0
BLOCK_RECORD
  5
B8B
330
1
100
AcDbSymbolTableRecord
100
AcDbBlockTableRecord
  2
CLARK Y - 230
340
0
1001
ACAD
1000
DesignCenter Data
1002
{
1070
     1
1070
     0
1002
}
  0
BLOCK_RECORD
  5
C87
330
1
100
AcDbSymbolTableRecord
100
AcDbBlockTableRecord
  2
CLARK YM-15 - 230 mm
340
0
1001
ACAD
1000
DesignCenter Data
1002
{
1070
     1
1070
     0
1002
}
  0
BLOCK_RECORD
  5
F69
330
1
100
AcDbSymbolTableRecord
100
AcDbBlockTableRecord
  2
*D19
340
0
  0
BLOCK_RECORD
  5
F81
330
1
100
AcDbSymbolTableRecord
100
AcDbBlockTableRecord
  2
CLARK Y - 105
340
0
102
{BLKREFS
331
107C
102
}
1001
ACAD
1000
DesignCenter Data
1002
{
1070
     1
1070
     0
1002
}
  0
BLOCK_RECORD
  5
1094
330
1
100
AcDbSymbolTableRecord
100
AcDbBlockTableRecord
  2
*D21
340
0
  0
BLOCK_RECORD
  5
10D6
330
1
100
AcDbSymbolTableRecord
100
AcDbBlockTableRecord
  2
*D22
340
0
  0
BLOCK_RECORD
  5
10FC
330
1
100
AcDbSymbolTableRecord
100
AcDbBlockTableRecord
  2
*D23
340
0
  0
BLOCK_RECORD
  5
1169
330
1
100
AcDbSymbolTableRecord
100
AcDbBlockTableRecord
  2
*D24
340
0
  0
ENDTAB
  0
ENDSEC
  0
SECTION
  2
BLOCKS
  0
BLOCK
  5
20
330
1F
100
AcDbEntity
  8
0
100
AcDbBlockBegin
  2
*Model_Space
 70
     0
 10
0.0
 20
0.0
 30
0.0
  3
*Model_Space
  1

  0
ENDBLK
  5
21
330
1F
100
AcDbEntity
  8
0
100
AcDbBlockEnd
  0
BLOCK
  5
1C
330
1B
100
AcDbEntity
 67
     1
  8
0
100
AcDbBlockBegin
  2
*Paper_Space
 70
     0
 10
0.0
 20
0.0
 30
0.0
  3
*Paper_Space
  1

  0
ENDBLK
  5
1D
330
1B
100
AcDbEntity
 67
     1
  8
0
100
AcDbBlockEnd
  0
BLOCK
  5
24
330
23
100
AcDbEntity
 67
     1
  8
0
100
AcDbBlockBegin
  2
*Paper_Space0
 70
     0
 10
0.0
 20
0.0
 30
0.0
  3
*Paper_Space0
  1

  0
ENDBLK
  5
25
330
23
100
AcDbEntity
 67
     1
  8
0
100
AcDbBlockEnd
  0
BLOCK
  5
89
330
87
100
AcDbEntity
  8
0
100
AcDbBlockBegin
  2
GENAXEH
 70
     0
 10
0.0
 20
0.0
 30
0.0
  3
GENAXEH
  1

  0
LINE
  5
88
330
87
100
AcDbEntity
  8
0
100
AcDbLine
 10
-1.0
 20
0.0
 30
0.0
 11
1.0
 21
0.0
 31
0.0
  0
ENDBLK
  5
8A
330
87
100
AcDbEntity
  8
0
100
AcDbBlockEnd
  0
BLOCK
  5
3E2
330
3D4
100
AcDbEntity
  8
0
 62
     1
100
AcDbBlockBegin
  2
*D3
 70
     1
 10
0.0
 20
0.0
 30
0.0
  3
*D3
  1

  0
LINE
  5
507
330
3D4
100
AcDbEntity
  8
AM_5
100
AcDbLine
 10
237.5726901879605
 20
910.2849222730791
 30
0.0
 11
179.7775684257116
 21
916.596105439067
 31
0.0
  0
LINE
  5
508
330
3D4
100
AcDbEntity
  8
AM_5
100
AcDbLine
 10
282.805990302034
 20
866.7692433017812
 30
0.0
 11
177.0651029932567
 21
866.7692433017814
 31
0.0
  0
ARC
  5
509
330
3D4
100
AcDbEntity
  8
AM_5
100
AcDbCircle
 10
636.0707053092202
 20
866.7692433017814
 30
0.0
 40
458.0056023159635
100
AcDbArc
 50
174.0807837547417
 51
179.6872535491208
  0
SOLID
  5
50A
330
3D4
100
AcDbEntity
  8
AM_5
100
AcDbTrace
 10
180.0927316094422
 20
914.0456938702604
 30
0.0
 11
180.9213842153342
 21
913.9574935120254
 31
0.0
 12
180.771658987093
 22
916.4875515088189
 32
0.0
 13
180.771658987093
 23
916.4875515088189
 33
0.0
  0
SOLID
  5
50B
330
3D4
100
AcDbEntity
  8
AM_5
100
AcDbTrace
 10
178.4885911687594
 20
869.2680968141585
 30
0.0
 11
177.6552609390423
 21
869.2703711677065
 31
0.0
 12
178.0651029932567
 22
866.7692433017812
 32
0.0
 13
178.0651029932567
 23
866.7692433017812
 33
0.0
  0
MTEXT
  5
50C
330
3D4
100
AcDbEntity
  8
AM_5
 62
     2
100
AcDbMText
 10
175.4970475219123
 20
891.8418662256422
 30
0.0
 40
3.5
 41
0.0
 71
     5
 72
     1
  1
6°
 11
0.0543573298578293
 21
0.9985215474343691
 31
0.0
 73
     1
 44
1.0
1001
ACAD
1000
MTEXTBEGIN
1070
    73
1070
     1
1070
    44
1040
1.0
1070
    74
1070
     0
1000
MTEXTEND
  0
POINT
  5
50D
330
3D4
100
AcDbEntity
  8
Defpoints
 62
     0
100
AcDbPoint
 10
179.2686758905607
 20
899.9511310088223
 30
0.0
  0
POINT
  5
50E
330
3D4
100
AcDbEntity
  8
Defpoints
 62
     0
100
AcDbPoint
 10
636.0707053092202
 20
866.7692433017814
 30
0.0
  0
POINT
  5
50F
330
3D4
100
AcDbEntity
  8
Defpoints
 62
     0
100
AcDbPoint
 10
636.0707053092202
 20
866.7692433017814
 30
0.0
  0
POINT
  5
510
330
3D4
100
AcDbEntity
  8
Defpoints
 62
     0
100
AcDbPoint
 10
283.805990302034
 20
866.7692433017812
 30
0.0
  0
POINT
  5
511
330
3D4
100
AcDbEntity
  8
Defpoints
 62
     0
100
AcDbPoint
 10
238.5667807493419
 20
910.1763683428309
 30
0.0
  0
ENDBLK
  5
3E3
330
3D4
100
AcDbEntity
  8
0
 62
     1
100
AcDbBlockEnd
  0
BLOCK
  5
492
330
488
100
AcDbEntity
  8
0
 62
     1
100
AcDbBlockBegin
  2
*D4
 70
     1
 10
0.0
 20
0.0
 30
0.0
  3
*D4
  1

  0
LINE
  5
496
330
488
100
AcDbEntity
  8
AM_5
100
AcDbLine
 10
-1038.44309459332
 20
571.3195767815938
 30
0.0
 11
-1086.116946638783
 21
571.3195767815938
 31
0.0
  0
LINE
  5
497
330
488
100
AcDbEntity
  8
AM_5
100
AcDbLine
 10
-1038.44309459332
 20
508.7823006606032
 30
0.0
 11
-1086.116946638784
 21
508.7823006606032
 31
0.0
  0
LINE
  5
498
330
488
100
AcDbEntity
  8
AM_5
100
AcDbLine
 10
-1085.116946638783
 20
568.8195767815938
 30
0.0
 11
-1085.116946638784
 21
511.2823006606032
 31
0.0
  0
SOLID
  5
499
330
488
100
AcDbEntity
  8
AM_5
100
AcDbTrace
 10
-1085.53361330545
 20
568.8195767815938
 30
0.0
 11
-1084.700279972117
 21
568.8195767815938
 31
0.0
 12
-1085.116946638783
 22
571.3195767815938
 32
0.0
 13
-1085.116946638783
 23
571.3195767815938
 33
0.0
  0
SOLID
  5
49A
330
488
100
AcDbEntity
  8
AM_5
100
AcDbTrace
 10
-1085.53361330545
 20
511.2823006606032
 30
0.0
 11
-1084.700279972117
 21
511.2823006606032
 31
0.0
 12
-1085.116946638784
 22
508.7823006606032
 32
0.0
 13
-1085.116946638784
 23
508.7823006606032
 33
0.0
  0
MTEXT
  5
49B
330
488
100
AcDbEntity
  8
AM_5
 62
     2
100
AcDbMText
 10
-1088.367291126973
 20
540.0509387210984
 30
0.0
 40
3.5
 41
0.0
 71
     5
 72
     1
  1
62.54
 11
0.0000000000000001
 21
1.0
 31
0.0
 73
     1
 44
1.0
1001
ACAD
1000
MTEXTBEGIN
1070
    73
1070
     1
1070
    44
1040
1.0
1070
    74
1070
     0
1000
MTEXTEND
  0
POINT
  5
49C
330
488
100
AcDbEntity
  8
Defpoints
 62
     0
100
AcDbPoint
 10
-1037.44309459332
 20
571.3195767815938
 30
0.0
  0
POINT
  5
49D
330
488
100
AcDbEntity
  8
Defpoints
 62
     0
100
AcDbPoint
 10
-1037.44309459332
 20
508.7823006606032
 30
0.0
  0
POINT
  5
49E
330
488
100
AcDbEntity
  8
Defpoints
 62
     0
100
AcDbPoint
 10
-1085.116946638784
 20
508.7823006606032
 30
0.0
  0
ENDBLK
  5
493
330
488
100
AcDbEntity
  8
0
 62
     1
100
AcDbBlockEnd
  0
BLOCK
  5
4E5
330
4DB
100
AcDbEntity
  8
0
 62
     1
100
AcDbBlockBegin
  2
*D6
 70
     1
 10
0.0
 20
0.0
 30
0.0
  3
*D6
  1

  0
LINE
  5
4E9
330
4DB
100
AcDbEntity
  8
AM_5
100
AcDbLine
 10
183.5622442591116
 20
190.0675092627077
 30
0.0
 11
199.4633799195631
 21
200.0801751645421
 31
0.0
  0
LINE
  5
4EA
330
4DB
100
AcDbEntity
  8
AM_5
100
AcDbLine
 10
172.8003886864696
 20
207.1584346063183
 30
0.0
 11
188.7015243469211
 21
217.1711005081528
 31
0.0
  0
LINE
  5
4EB
330
4DB
100
AcDbEntity
  8
AM_5
100
AcDbLine
 10
197.2850540510055
 20
201.6628616181307
 30
0.0
 11
189.1874248354707
 21
214.5227235117213
 31
0.0
  0
SOLID
  5
4EC
330
4DB
100
AcDbEntity
  8
AM_5
100
AcDbTrace
 10
197.6376426718405
 20
201.8848804812229
 30
0.0
 11
196.9324654301705
 21
201.4408427550384
 31
0.0
 12
198.6171672295591
 22
199.5473298931207
 32
0.0
 13
198.6171672295591
 23
199.5473298931207
 33
0.0
  0
SOLID
  5
4ED
330
4DB
100
AcDbEntity
  8
AM_5
100
AcDbTrace
 10
189.5400134563058
 20
214.7447423748136
 30
0.0
 11
188.8348362146357
 21
214.3007046486291
 31
0.0
 12
187.8553116569171
 22
216.6382552367313
 32
0.0
 13
187.8553116569171
 23
216.6382552367313
 33
0.0
  0
MTEXT
  5
4EE
330
4DB
100
AcDbEntity
  8
AM_5
 62
     2
100
AcDbMText
 10
195.9867221960282
 20
209.8247232559482
 30
0.0
 40
3.5
 41
0.0
 71
     5
 72
     1
  1
20.2
 11
0.5328452714214484
 21
-0.8462126900039983
 31
0.0
 73
     1
 44
1.0
1001
ACAD
1000
MTEXTBEGIN
1070
    73
1070
     1
1070
    44
1040
1.0
1070
    74
1070
     0
1000
MTEXTEND
  0
POINT
  5
4EF
330
4DB
100
AcDbEntity
  8
Defpoints
 62
     0
100
AcDbPoint
 10
182.7160315691076
 20
189.5346639912863
 30
0.0
  0
POINT
  5
4F0
330
4DB
100
AcDbEntity
  8
Defpoints
 62
     0
100
AcDbPoint
 10
171.9541759964656
 20
206.6255893348969
 30
0.0
  0
POINT
  5
4F1
330
4DB
100
AcDbEntity
  8
Defpoints
 62
     0
100
AcDbPoint
 10
187.8553116569171
 20
216.6382552367313
 30
0.0
  0
ENDBLK
  5
4E6
330
4DB
100
AcDbEntity
  8
0
 62
     1
100
AcDbBlockEnd
  0
BLOCK
  5
5A2
330
596
100
AcDbEntity
  8
0
100
AcDbBlockBegin
  2
*D7
 70
     1
 10
0.0
 20
0.0
 30
0.0
  3
*D7
  1

  0
LINE
  5
5A6
330
596
100
AcDbEntity
  8
AM_5
100
AcDbLine
 10
-292.565939613857
 20
561.1071278030952
 30
0.0
 11
-289.5780135497334
 21
561.1071278030952
 31
0.0
  0
LINE
  5
5A7
330
596
100
AcDbEntity
  8
AM_5
100
AcDbLine
 10
-292.565939613857
 20
558.3889433455736
 30
0.0
 11
-289.5780135497334
 21
558.3889433455736
 31
0.0
  0
LINE
  5
5A8
330
596
100
AcDbEntity
  8
AM_5
100
AcDbLine
 10
-290.5780135497334
 20
563.6071278030953
 30
0.0
 11
-290.5780135497334
 21
566.1071278030952
 31
0.0
  0
LINE
  5
5A9
330
596
100
AcDbEntity
  8
AM_5
100
AcDbLine
 10
-290.5780135497334
 20
555.8889433455735
 30
0.0
 11
-290.5780135497334
 21
542.7398586999043
 31
0.0
  0
LINE
  5
5AA
330
596
100
AcDbEntity
  8
AM_5
100
AcDbLine
 10
-290.5780135497334
 20
561.1071278030952
 30
0.0
 11
-290.5780135497334
 21
558.3889433455736
 31
0.0
  0
SOLID
  5
5AB
330
596
100
AcDbEntity
  8
AM_5
100
AcDbTrace
 10
-290.9946802164001
 20
563.6071278030953
 30
0.0
 11
-290.1613468830667
 21
563.6071278030953
 31
0.0
 12
-290.5780135497334
 22
561.1071278030952
 32
0.0
 13
-290.5780135497334
 23
561.1071278030952
 33
0.0
  0
SOLID
  5
5AC
330
596
100
AcDbEntity
  8
AM_5
100
AcDbTrace
 10
-290.9946802164001
 20
555.8889433455735
 30
0.0
 11
-290.1613468830667
 21
555.8889433455735
 31
0.0
 12
-290.5780135497334
 22
558.3889433455736
 32
0.0
 13
-290.5780135497334
 23
558.3889433455736
 33
0.0
  0
MTEXT
  5
5AD
330
596
100
AcDbEntity
  8
AM_5
 62
     2
100
AcDbMText
 10
-293.8283580379225
 20
548.0644010227388
 30
0.0
 40
3.5
 41
0.0
 71
     5
 72
     1
  1
2.72
 11
0.0000000000000001
 21
1.0
 31
0.0
 73
     1
 44
1.0
1001
ACAD
1000
MTEXTBEGIN
1070
    73
1070
     1
1070
    44
1040
1.0
1070
    74
1070
     0
1000
MTEXTEND
  0
POINT
  5
5AE
330
596
100
AcDbEntity
  8
Defpoints
 62
     0
100
AcDbPoint
 10
-293.565939613857
 20
561.1071278030952
 30
0.0
  0
POINT
  5
5AF
330
596
100
AcDbEntity
  8
Defpoints
 62
     0
100
AcDbPoint
 10
-293.565939613857
 20
558.3889433455736
 30
0.0
  0
POINT
  5
5B0
330
596
100
AcDbEntity
  8
Defpoints
 62
     0
100
AcDbPoint
 10
-290.5780135497334
 20
558.3889433455736
 30
0.0
  0
ENDBLK
  5
5A3
330
596
100
AcDbEntity
  8
0
100
AcDbBlockEnd
  0
BLOCK
  5
6E3
330
5FA
100
AcDbEntity
  8
0
100
AcDbBlockBegin
  2
CLARK YM-15 - 214 mm
 70
     0
 10
0.0
 20
0.0
 30
0.0
  3
CLARK YM-15 - 214 mm
  1

  0
POLYLINE
  5
5FB
330
5FA
100
AcDbEntity
  8
7
  6
Continuous
100
AcDb2dPolyline
 66
     1
 10
0.0
 20
0.0
 30
0.0
  0
VERTEX
  5
5FC
330
5FB
100
AcDbEntity
  8
7
100
AcDbVertex
100
AcDb2dVertex
 10
37.0
 20
169.362
 30
0.0
  0
VERTEX
  5
5FD
330
5FB
100
AcDbEntity
  8
7
100
AcDbVertex
100
AcDb2dVertex
 10
251.0
 20
169.362
 30
0.0
  0
SEQEND
  5
5FE
330
5FB
100
AcDbEntity
  8
7
  0
POLYLINE
  5
5FF
330
5FA
100
AcDbEntity
  8
7
  6
Continuous
100
AcDb2dPolyline
 66
     1
 10
0.0
 20
0.0
 30
0.0
  0
VERTEX
  5
600
330
5FF
100
AcDbEntity
  8
7
100
AcDbVertex
100
AcDb2dVertex
 10
251.0
 20
169.533
 30
0.0
  0
VERTEX
  5
601
330
5FF
100
AcDbEntity
  8
7
100
AcDbVertex
100
AcDb2dVertex
 10
249.456
 20
169.96
 30
0.0
  0
VERTEX
  5
602
330
5FF
100
AcDbEntity
  8
7
100
AcDbVertex
100
AcDb2dVertex
 10
247.913
 20
170.386
 30
0.0
  0
VERTEX
  5
603
330
5FF
100
AcDbEntity
  8
7
100
AcDbVertex
100
AcDb2dVertex
 10
246.37
 20
170.812
 30
0.0
  0
VERTEX
  5
604
330
5FF
100
AcDbEntity
  8
7
100
AcDbVertex
100
AcDb2dVertex
 10
244.827
 20
171.236
 30
0.0
  0
VERTEX
  5
605
330
5FF
100
AcDbEntity
  8
7
100
AcDbVertex
100
AcDb2dVertex
 10
243.283
 20
171.659
 30
0.0
  0
VERTEX
  5
606
330
5FF
100
AcDbEntity
  8
7
100
AcDbVertex
100
AcDb2dVertex
 10
241.739
 20
172.08
 30
0.0
  0
VERTEX
  5
607
330
5FF
100
AcDbEntity
  8
7
100
AcDbVertex
100
AcDb2dVertex
 10
240.193
 20
172.499
 30
0.0
  0
VERTEX
  5
608
330
5FF
100
AcDbEntity
  8
7
100
AcDbVertex
100
AcDb2dVertex
 10
238.652
 20
172.914
 30
0.0
  0
VERTEX
  5
609
330
5FF
100
AcDbEntity
  8
7
100
AcDbVertex
100
AcDb2dVertex
 10
237.111
 20
173.326
 30
0.0
  0
VERTEX
  5
60A
330
5FF
100
AcDbEntity
  8
7
100
AcDbVertex
100
AcDb2dVertex
 10
235.57
 20
173.735
 30
0.0
  0
VERTEX
  5
60B
330
5FF
100
AcDbEntity
  8
7
100
AcDbVertex
100
AcDb2dVertex
 10
234.028
 20
174.141
 30
0.0
  0
VERTEX
  5
60C
330
5FF
100
AcDbEntity
  8
7
100
AcDbVertex
100
AcDb2dVertex
 10
232.485
 20
174.543
 30
0.0
  0
VERTEX
  5
60D
330
5FF
100
AcDbEntity
  8
7
100
AcDbVertex
100
AcDb2dVertex
 10
230.94
 20
174.943
 30
0.0
  0
VERTEX
  5
60E
330
5FF
100
AcDbEntity
  8
7
100
AcDbVertex
100
AcDb2dVertex
 10
229.395
 20
175.339
 30
0.0
  0
VERTEX
  5
60F
330
5FF
100
AcDbEntity
  8
7
100
AcDbVertex
100
AcDb2dVertex
 10
226.321
 20
176.114
 30
0.0
  0
VERTEX
  5
610
330
5FF
100
AcDbEntity
  8
7
100
AcDbVertex
100
AcDb2dVertex
 10
223.245
 20
176.875
 30
0.0
  0
VERTEX
  5
611
330
5FF
100
AcDbEntity
  8
7
100
AcDbVertex
100
AcDb2dVertex
 10
220.166
 20
177.622
 30
0.0
  0
VERTEX
  5
612
330
5FF
100
AcDbEntity
  8
7
100
AcDbVertex
100
AcDb2dVertex
 10
217.084
 20
178.356
 30
0.0
  0
VERTEX
  5
613
330
5FF
100
AcDbEntity
  8
7
100
AcDbVertex
100
AcDb2dVertex
 10
213.998
 20
179.076
 30
0.0
  0
VERTEX
  5
614
330
5FF
100
AcDbEntity
  8
7
100
AcDbVertex
100
AcDb2dVertex
 10
210.909
 20
179.785
 30
0.0
  0
VERTEX
  5
615
330
5FF
100
AcDbEntity
  8
7
100
AcDbVertex
100
AcDb2dVertex
 10
207.817
 20
180.481
 30
0.0
  0
VERTEX
  5
616
330
5FF
100
AcDbEntity
  8
7
100
AcDbVertex
100
AcDb2dVertex
 10
204.745
 20
181.1609999999999
 30
0.0
  0
VERTEX
  5
617
330
5FF
100
AcDbEntity
  8
7
100
AcDbVertex
100
AcDb2dVertex
 10
201.672
 20
181.828
 30
0.0
  0
VERTEX
  5
618
330
5FF
100
AcDbEntity
  8
7
100
AcDbVertex
100
AcDb2dVertex
 10
198.596
 20
182.483
 30
0.0
  0
VERTEX
  5
619
330
5FF
100
AcDbEntity
  8
7
100
AcDbVertex
100
AcDb2dVertex
 10
195.518
 20
183.124
 30
0.0
  0
VERTEX
  5
61A
330
5FF
100
AcDbEntity
  8
7
100
AcDbVertex
100
AcDb2dVertex
 10
192.437
 20
183.7509999999999
 30
0.0
  0
VERTEX
  5
61B
330
5FF
100
AcDbEntity
  8
7
100
AcDbVertex
100
AcDb2dVertex
 10
189.352
 20
184.363
 30
0.0
  0
VERTEX
  5
61C
330
5FF
100
AcDbEntity
  8
7
100
AcDbVertex
100
AcDb2dVertex
 10
186.263
 20
184.96
 30
0.0
  0
VERTEX
  5
61D
330
5FF
100
AcDbEntity
  8
7
100
AcDbVertex
100
AcDb2dVertex
 10
183.197
 20
185.5359999999999
 30
0.0
  0
VERTEX
  5
61E
330
5FF
100
AcDbEntity
  8
7
100
AcDbVertex
100
AcDb2dVertex
 10
180.128
 20
186.095
 30
0.0
  0
VERTEX
  5
61F
330
5FF
100
AcDbEntity
  8
7
100
AcDbVertex
100
AcDb2dVertex
 10
177.057
 20
186.636
 30
0.0
  0
VERTEX
  5
620
330
5FF
100
AcDbEntity
  8
7
100
AcDbVertex
100
AcDb2dVertex
 10
173.983
 20
187.1579999999999
 30
0.0
  0
VERTEX
  5
621
330
5FF
100
AcDbEntity
  8
7
100
AcDbVertex
100
AcDb2dVertex
 10
170.905
 20
187.662
 30
0.0
  0
VERTEX
  5
622
330
5FF
100
AcDbEntity
  8
7
100
AcDbVertex
100
AcDb2dVertex
 10
167.824
 20
188.145
 30
0.0
  0
VERTEX
  5
623
330
5FF
100
AcDbEntity
  8
7
100
AcDbVertex
100
AcDb2dVertex
 10
164.739
 20
188.607
 30
0.0
  0
VERTEX
  5
624
330
5FF
100
AcDbEntity
  8
7
100
AcDbVertex
100
AcDb2dVertex
 10
161.676
 20
189.043
 30
0.0
  0
VERTEX
  5
625
330
5FF
100
AcDbEntity
  8
7
100
AcDbVertex
100
AcDb2dVertex
 10
158.612
 20
189.458
 30
0.0
  0
VERTEX
  5
626
330
5FF
100
AcDbEntity
  8
7
100
AcDbVertex
100
AcDb2dVertex
 10
155.545
 20
189.851
 30
0.0
  0
VERTEX
  5
627
330
5FF
100
AcDbEntity
  8
7
100
AcDbVertex
100
AcDb2dVertex
 10
152.476
 20
190.223
 30
0.0
  0
VERTEX
  5
628
330
5FF
100
AcDbEntity
  8
7
100
AcDbVertex
100
AcDb2dVertex
 10
149.403
 20
190.573
 30
0.0
  0
VERTEX
  5
629
330
5FF
100
AcDbEntity
  8
7
100
AcDbVertex
100
AcDb2dVertex
 10
146.328
 20
190.901
 30
0.0
  0
VERTEX
  5
62A
330
5FF
100
AcDbEntity
  8
7
100
AcDbVertex
100
AcDb2dVertex
 10
143.249
 20
191.207
 30
0.0
  0
VERTEX
  5
62B
330
5FF
100
AcDbEntity
  8
7
100
AcDbVertex
100
AcDb2dVertex
 10
140.189
 20
191.489
 30
0.0
  0
VERTEX
  5
62C
330
5FF
100
AcDbEntity
  8
7
100
AcDbVertex
100
AcDb2dVertex
 10
137.128
 20
191.748
 30
0.0
  0
VERTEX
  5
62D
330
5FF
100
AcDbEntity
  8
7
100
AcDbVertex
100
AcDb2dVertex
 10
134.065
 20
191.981
 30
0.0
  0
VERTEX
  5
62E
330
5FF
100
AcDbEntity
  8
7
100
AcDbVertex
100
AcDb2dVertex
 10
131.001
 20
192.188
 30
0.0
  0
VERTEX
  5
62F
330
5FF
100
AcDbEntity
  8
7
100
AcDbVertex
100
AcDb2dVertex
 10
127.936
 20
192.366
 30
0.0
  0
VERTEX
  5
630
330
5FF
100
AcDbEntity
  8
7
100
AcDbVertex
100
AcDb2dVertex
 10
124.869
 20
192.514
 30
0.0
  0
VERTEX
  5
631
330
5FF
100
AcDbEntity
  8
7
100
AcDbVertex
100
AcDb2dVertex
 10
121.8
 20
192.63
 30
0.0
  0
VERTEX
  5
632
330
5FF
100
AcDbEntity
  8
7
100
AcDbVertex
100
AcDb2dVertex
 10
118.744
 20
192.712
 30
0.0
  0
VERTEX
  5
633
330
5FF
100
AcDbEntity
  8
7
100
AcDbVertex
100
AcDb2dVertex
 10
115.688
 20
192.763
 30
0.0
  0
VERTEX
  5
634
330
5FF
100
AcDbEntity
  8
7
100
AcDbVertex
100
AcDb2dVertex
 10
112.632
 20
192.785
 30
0.0
  0
VERTEX
  5
635
330
5FF
100
AcDbEntity
  8
7
100
AcDbVertex
100
AcDb2dVertex
 10
109.576
 20
192.779
 30
0.0
  0
VERTEX
  5
636
330
5FF
100
AcDbEntity
  8
7
100
AcDbVertex
100
AcDb2dVertex
 10
106.518
 20
192.749
 30
0.0
  0
VERTEX
  5
637
330
5FF
100
AcDbEntity
  8
7
100
AcDbVertex
100
AcDb2dVertex
 10
103.46
 20
192.695
 30
0.0
  0
VERTEX
  5
638
330
5FF
100
AcDbEntity
  8
7
100
AcDbVertex
100
AcDb2dVertex
 10
100.4
 20
192.621
 30
0.0
  0
VERTEX
  5
639
330
5FF
100
AcDbEntity
  8
7
100
AcDbVertex
100
AcDb2dVertex
 10
97.338
 20
192.527
 30
0.0
  0
VERTEX
  5
63A
330
5FF
100
AcDbEntity
  8
7
100
AcDbVertex
100
AcDb2dVertex
 10
94.27899999999999
 20
192.405
 30
0.0
  0
VERTEX
  5
63B
330
5FF
100
AcDbEntity
  8
7
100
AcDbVertex
100
AcDb2dVertex
 10
91.22200000000001
 20
192.245
 30
0.0
  0
VERTEX
  5
63C
330
5FF
100
AcDbEntity
  8
7
100
AcDbVertex
100
AcDb2dVertex
 10
88.17
 20
192.04
 30
0.0
  0
VERTEX
  5
63D
330
5FF
100
AcDbEntity
  8
7
100
AcDbVertex
100
AcDb2dVertex
 10
85.12399999999999
 20
191.779
 30
0.0
  0
VERTEX
  5
63E
330
5FF
100
AcDbEntity
  8
7
100
AcDbVertex
100
AcDb2dVertex
 10
82.08400000000001
 20
191.453
 30
0.0
  0
VERTEX
  5
63F
330
5FF
100
AcDbEntity
  8
7
100
AcDbVertex
100
AcDb2dVertex
 10
79.053
 20
191.053
 30
0.0
  0
VERTEX
  5
640
330
5FF
100
AcDbEntity
  8
7
100
AcDbVertex
100
AcDb2dVertex
 10
77.524
 20
190.819
 30
0.0
  0
VERTEX
  5
641
330
5FF
100
AcDbEntity
  8
7
100
AcDbVertex
100
AcDb2dVertex
 10
75.998
 20
190.565
 30
0.0
  0
VERTEX
  5
642
330
5FF
100
AcDbEntity
  8
7
100
AcDbVertex
100
AcDb2dVertex
 10
74.476
 20
190.291
 30
0.0
  0
VERTEX
  5
643
330
5FF
100
AcDbEntity
  8
7
100
AcDbVertex
100
AcDb2dVertex
 10
72.957
 20
189.996
 30
0.0
  0
VERTEX
  5
644
330
5FF
100
AcDbEntity
  8
7
100
AcDbVertex
100
AcDb2dVertex
 10
71.44199999999999
 20
189.682
 30
0.0
  0
VERTEX
  5
645
330
5FF
100
AcDbEntity
  8
7
100
AcDbVertex
100
AcDb2dVertex
 10
69.931
 20
189.349
 30
0.0
  0
VERTEX
  5
646
330
5FF
100
AcDbEntity
  8
7
100
AcDbVertex
100
AcDb2dVertex
 10
68.42399999999999
 20
188.996
 30
0.0
  0
VERTEX
  5
647
330
5FF
100
AcDbEntity
  8
7
100
AcDbVertex
100
AcDb2dVertex
 10
66.89199999999999
 20
188.618
 30
0.0
  0
VERTEX
  5
648
330
5FF
100
AcDbEntity
  8
7
100
AcDbVertex
100
AcDb2dVertex
 10
65.365
 20
188.219
 30
0.0
  0
VERTEX
  5
649
330
5FF
100
AcDbEntity
  8
7
100
AcDbVertex
100
AcDb2dVertex
 10
63.84399999999999
 20
187.8
 30
0.0
  0
VERTEX
  5
64A
330
5FF
100
AcDbEntity
  8
7
100
AcDbVertex
100
AcDb2dVertex
 10
62.33
 20
187.359
 30
0.0
  0
VERTEX
  5
64B
330
5FF
100
AcDbEntity
  8
7
100
AcDbVertex
100
AcDb2dVertex
 10
60.823
 20
186.895
 30
0.0
  0
VERTEX
  5
64C
330
5FF
100
AcDbEntity
  8
7
100
AcDbVertex
100
AcDb2dVertex
 10
59.323
 20
186.407
 30
0.0
  0
VERTEX
  5
64D
330
5FF
100
AcDbEntity
  8
7
100
AcDbVertex
100
AcDb2dVertex
 10
57.83100000000001
 20
185.893
 30
0.0
  0
VERTEX
  5
64E
330
5FF
100
AcDbEntity
  8
7
100
AcDbVertex
100
AcDb2dVertex
 10
57.06800000000001
 20
185.62
 30
0.0
  0
VERTEX
  5
64F
330
5FF
100
AcDbEntity
  8
7
100
AcDbVertex
100
AcDb2dVertex
 10
56.308
 20
185.339
 30
0.0
  0
VERTEX
  5
650
330
5FF
100
AcDbEntity
  8
7
100
AcDbVertex
100
AcDb2dVertex
 10
55.54999999999999
 20
185.052
 30
0.0
  0
VERTEX
  5
651
330
5FF
100
AcDbEntity
  8
7
100
AcDbVertex
100
AcDb2dVertex
 10
54.79600000000001
 20
184.757
 30
0.0
  0
VERTEX
  5
652
330
5FF
100
AcDbEntity
  8
7
100
AcDbVertex
100
AcDb2dVertex
 10
54.04399999999999
 20
184.455
 30
0.0
  0
VERTEX
  5
653
330
5FF
100
AcDbEntity
  8
7
100
AcDbVertex
100
AcDb2dVertex
 10
53.29600000000001
 20
184.145
 30
0.0
  0
VERTEX
  5
654
330
5FF
100
AcDbEntity
  8
7
100
AcDbVertex
100
AcDb2dVertex
 10
52.551
 20
183.828
 30
0.0
  0
VERTEX
  5
655
330
5FF
100
AcDbEntity
  8
7
100
AcDbVertex
100
AcDb2dVertex
 10
51.78499999999999
 20
183.4909999999999
 30
0.0
  0
VERTEX
  5
656
330
5FF
100
AcDbEntity
  8
7
100
AcDbVertex
100
AcDb2dVertex
 10
51.02199999999999
 20
183.145
 30
0.0
  0
VERTEX
  5
657
330
5FF
100
AcDbEntity
  8
7
100
AcDbVertex
100
AcDb2dVertex
 10
50.265
 20
182.788
 30
0.0
  0
VERTEX
  5
658
330
5FF
100
AcDbEntity
  8
7
100
AcDbVertex
100
AcDb2dVertex
 10
49.513
 20
182.42
 30
0.0
  0
VERTEX
  5
659
330
5FF
100
AcDbEntity
  8
7
100
AcDbVertex
100
AcDb2dVertex
 10
48.766
 20
182.037
 30
0.0
  0
VERTEX
  5
65A
330
5FF
100
AcDbEntity
  8
7
100
AcDbVertex
100
AcDb2dVertex
 10
48.026
 20
181.641
 30
0.0
  0
VERTEX
  5
65B
330
5FF
100
AcDbEntity
  8
7
100
AcDbVertex
100
AcDb2dVertex
 10
47.291
 20
181.228
 30
0.0
  0
VERTEX
  5
65C
330
5FF
100
AcDbEntity
  8
7
100
AcDbVertex
100
AcDb2dVertex
 10
46.49499999999999
 20
180.756
 30
0.0
  0
VERTEX
  5
65D
330
5FF
100
AcDbEntity
  8
7
100
AcDbVertex
100
AcDb2dVertex
 10
45.71
 20
180.264
 30
0.0
  0
VERTEX
  5
65E
330
5FF
100
AcDbEntity
  8
7
100
AcDbVertex
100
AcDb2dVertex
 10
44.93999999999999
 20
179.7509999999999
 30
0.0
  0
VERTEX
  5
65F
330
5FF
100
AcDbEntity
  8
7
100
AcDbVertex
100
AcDb2dVertex
 10
44.188
 20
179.2159999999999
 30
0.0
  0
VERTEX
  5
660
330
5FF
100
AcDbEntity
  8
7
100
AcDbVertex
100
AcDb2dVertex
 10
43.45699999999999
 20
178.659
 30
0.0
  0
VERTEX
  5
661
330
5FF
100
AcDbEntity
  8
7
100
AcDbVertex
100
AcDb2dVertex
 10
42.75100000000001
 20
178.079
 30
0.0
  0
VERTEX
  5
662
330
5FF
100
AcDbEntity
  8
7
100
AcDbVertex
100
AcDb2dVertex
 10
42.07199999999999
 20
177.477
 30
0.0
  0
VERTEX
  5
663
330
5FF
100
AcDbEntity
  8
7
100
AcDbVertex
100
AcDb2dVertex
 10
41.685
 20
177.109
 30
0.0
  0
VERTEX
  5
664
330
5FF
100
AcDbEntity
  8
7
100
AcDbVertex
100
AcDb2dVertex
 10
41.307
 20
176.733
 30
0.0
  0
VERTEX
  5
665
330
5FF
100
AcDbEntity
  8
7
100
AcDbVertex
100
AcDb2dVertex
 10
40.936
 20
176.348
 30
0.0
  0
VERTEX
  5
666
330
5FF
100
AcDbEntity
  8
7
100
AcDbVertex
100
AcDb2dVertex
 10
40.571
 20
175.951
 30
0.0
  0
VERTEX
  5
667
330
5FF
100
AcDbEntity
  8
7
100
AcDbVertex
100
AcDb2dVertex
 10
40.209
 20
175.544
 30
0.0
  0
VERTEX
  5
668
330
5FF
100
AcDbEntity
  8
7
100
AcDbVertex
100
AcDb2dVertex
 10
39.85
 20
175.124
 30
0.0
  0
VERTEX
  5
669
330
5FF
100
AcDbEntity
  8
7
100
AcDbVertex
100
AcDb2dVertex
 10
39.491
 20
174.69
 30
0.0
  0
VERTEX
  5
66A
330
5FF
100
AcDbEntity
  8
7
100
AcDbVertex
100
AcDb2dVertex
 10
38.937
 20
173.993
 30
0.0
  0
VERTEX
  5
66B
330
5FF
100
AcDbEntity
  8
7
100
AcDbVertex
100
AcDb2dVertex
 10
38.405
 20
173.266
 30
0.0
  0
VERTEX
  5
66C
330
5FF
100
AcDbEntity
  8
7
100
AcDbVertex
100
AcDb2dVertex
 10
37.922
 20
172.515
 30
0.0
  0
VERTEX
  5
66D
330
5FF
100
AcDbEntity
  8
7
100
AcDbVertex
100
AcDb2dVertex
 10
37.514
 20
171.745
 30
0.0
  0
VERTEX
  5
66E
330
5FF
100
AcDbEntity
  8
7
100
AcDbVertex
100
AcDb2dVertex
 10
37.207
 20
170.96
 30
0.0
  0
VERTEX
  5
66F
330
5FF
100
AcDbEntity
  8
7
100
AcDbVertex
100
AcDb2dVertex
 10
37.027
 20
170.164
 30
0.0
  0
VERTEX
  5
670
330
5FF
100
AcDbEntity
  8
7
100
AcDbVertex
100
AcDb2dVertex
 10
37.0
 20
169.362
 30
0.0
  0
VERTEX
  5
671
330
5FF
100
AcDbEntity
  8
7
100
AcDbVertex
100
AcDb2dVertex
 10
37.118
 20
168.657
 30
0.0
  0
VERTEX
  5
672
330
5FF
100
AcDbEntity
  8
7
100
AcDbVertex
100
AcDb2dVertex
 10
37.357
 20
167.962
 30
0.0
  0
VERTEX
  5
673
330
5FF
100
AcDbEntity
  8
7
100
AcDbVertex
100
AcDb2dVertex
 10
37.70300000000001
 20
167.288
 30
0.0
  0
VERTEX
  5
674
330
5FF
100
AcDbEntity
  8
7
100
AcDbVertex
100
AcDb2dVertex
 10
38.139
 20
166.647
 30
0.0
  0
VERTEX
  5
675
330
5FF
100
AcDbEntity
  8
7
100
AcDbVertex
100
AcDb2dVertex
 10
38.649
 20
166.049
 30
0.0
  0
VERTEX
  5
676
330
5FF
100
AcDbEntity
  8
7
100
AcDbVertex
100
AcDb2dVertex
 10
39.216
 20
165.5059999999999
 30
0.0
  0
VERTEX
  5
677
330
5FF
100
AcDbEntity
  8
7
100
AcDbVertex
100
AcDb2dVertex
 10
39.825
 20
165.028
 30
0.0
  0
VERTEX
  5
678
330
5FF
100
AcDbEntity
  8
7
100
AcDbVertex
100
AcDb2dVertex
 10
40.19499999999999
 20
164.782
 30
0.0
  0
VERTEX
  5
679
330
5FF
100
AcDbEntity
  8
7
100
AcDbVertex
100
AcDb2dVertex
 10
40.57199999999999
 20
164.56
 30
0.0
  0
VERTEX
  5
67A
330
5FF
100
AcDbEntity
  8
7
100
AcDbVertex
100
AcDb2dVertex
 10
40.956
 20
164.358
 30
0.0
  0
VERTEX
  5
67B
330
5FF
100
AcDbEntity
  8
7
100
AcDbVertex
100
AcDb2dVertex
 10
41.347
 20
164.172
 30
0.0
  0
VERTEX
  5
67C
330
5FF
100
AcDbEntity
  8
7
100
AcDbVertex
100
AcDb2dVertex
 10
41.74199999999999
 20
164.001
 30
0.0
  0
VERTEX
  5
67D
330
5FF
100
AcDbEntity
  8
7
100
AcDbVertex
100
AcDb2dVertex
 10
42.14199999999999
 20
163.841
 30
0.0
  0
VERTEX
  5
67E
330
5FF
100
AcDbEntity
  8
7
100
AcDbVertex
100
AcDb2dVertex
 10
42.545
 20
163.689
 30
0.0
  0
VERTEX
  5
67F
330
5FF
100
AcDbEntity
  8
7
100
AcDbVertex
100
AcDb2dVertex
 10
43.298
 20
163.419
 30
0.0
  0
VERTEX
  5
680
330
5FF
100
AcDbEntity
  8
7
100
AcDbVertex
100
AcDb2dVertex
 10
44.06
 20
163.166
 30
0.0
  0
VERTEX
  5
681
330
5FF
100
AcDbEntity
  8
7
100
AcDbVertex
100
AcDb2dVertex
 10
44.827
 20
162.929
 30
0.0
  0
VERTEX
  5
682
330
5FF
100
AcDbEntity
  8
7
100
AcDbVertex
100
AcDb2dVertex
 10
45.60100000000001
 20
162.709
 30
0.0
  0
VERTEX
  5
683
330
5FF
100
AcDbEntity
  8
7
100
AcDbVertex
100
AcDb2dVertex
 10
46.379
 20
162.504
 30
0.0
  0
VERTEX
  5
684
330
5FF
100
AcDbEntity
  8
7
100
AcDbVertex
100
AcDb2dVertex
 10
47.16199999999999
 20
162.315
 30
0.0
  0
VERTEX
  5
685
330
5FF
100
AcDbEntity
  8
7
100
AcDbVertex
100
AcDb2dVertex
 10
47.948
 20
162.141
 30
0.0
  0
VERTEX
  5
686
330
5FF
100
AcDbEntity
  8
7
100
AcDbVertex
100
AcDb2dVertex
 10
48.71199999999999
 20
161.988
 30
0.0
  0
VERTEX
  5
687
330
5FF
100
AcDbEntity
  8
7
100
AcDbVertex
100
AcDb2dVertex
 10
49.478
 20
161.848
 30
0.0
  0
VERTEX
  5
688
330
5FF
100
AcDbEntity
  8
7
100
AcDbVertex
100
AcDb2dVertex
 10
50.24499999999999
 20
161.72
 30
0.0
  0
VERTEX
  5
689
330
5FF
100
AcDbEntity
  8
7
100
AcDbVertex
100
AcDb2dVertex
 10
51.01399999999999
 20
161.603
 30
0.0
  0
VERTEX
  5
68A
330
5FF
100
AcDbEntity
  8
7
100
AcDbVertex
100
AcDb2dVertex
 10
51.78499999999999
 20
161.494
 30
0.0
  0
VERTEX
  5
68B
330
5FF
100
AcDbEntity
  8
7
100
AcDbVertex
100
AcDb2dVertex
 10
52.55600000000001
 20
161.393
 30
0.0
  0
VERTEX
  5
68C
330
5FF
100
AcDbEntity
  8
7
100
AcDbVertex
100
AcDb2dVertex
 10
53.328
 20
161.298
 30
0.0
  0
VERTEX
  5
68D
330
5FF
100
AcDbEntity
  8
7
100
AcDbVertex
100
AcDb2dVertex
 10
54.09399999999999
 20
161.209
 30
0.0
  0
VERTEX
  5
68E
330
5FF
100
AcDbEntity
  8
7
100
AcDbVertex
100
AcDb2dVertex
 10
54.86
 20
161.124
 30
0.0
  0
VERTEX
  5
68F
330
5FF
100
AcDbEntity
  8
7
100
AcDbVertex
100
AcDb2dVertex
 10
55.626
 20
161.044
 30
0.0
  0
VERTEX
  5
690
330
5FF
100
AcDbEntity
  8
7
100
AcDbVertex
100
AcDb2dVertex
 10
56.393
 20
160.967
 30
0.0
  0
VERTEX
  5
691
330
5FF
100
AcDbEntity
  8
7
100
AcDbVertex
100
AcDb2dVertex
 10
57.16
 20
160.894
 30
0.0
  0
VERTEX
  5
692
330
5FF
100
AcDbEntity
  8
7
100
AcDbVertex
100
AcDb2dVertex
 10
57.92699999999999
 20
160.824
 30
0.0
  0
VERTEX
  5
693
330
5FF
100
AcDbEntity
  8
7
100
AcDbVertex
100
AcDb2dVertex
 10
58.695
 20
160.757
 30
0.0
  0
VERTEX
  5
694
330
5FF
100
AcDbEntity
  8
7
100
AcDbVertex
100
AcDb2dVertex
 10
60.225
 20
160.631
 30
0.0
  0
VERTEX
  5
695
330
5FF
100
AcDbEntity
  8
7
100
AcDbVertex
100
AcDb2dVertex
 10
61.756
 20
160.517
 30
0.0
  0
VERTEX
  5
696
330
5FF
100
AcDbEntity
  8
7
100
AcDbVertex
100
AcDb2dVertex
 10
63.287
 20
160.414
 30
0.0
  0
VERTEX
  5
697
330
5FF
100
AcDbEntity
  8
7
100
AcDbVertex
100
AcDb2dVertex
 10
64.819
 20
160.323
 30
0.0
  0
VERTEX
  5
698
330
5FF
100
AcDbEntity
  8
7
100
AcDbVertex
100
AcDb2dVertex
 10
66.351
 20
160.243
 30
0.0
  0
VERTEX
  5
699
330
5FF
100
AcDbEntity
  8
7
100
AcDbVertex
100
AcDb2dVertex
 10
67.885
 20
160.175
 30
0.0
  0
VERTEX
  5
69A
330
5FF
100
AcDbEntity
  8
7
100
AcDbVertex
100
AcDb2dVertex
 10
69.419
 20
160.119
 30
0.0
  0
VERTEX
  5
69B
330
5FF
100
AcDbEntity
  8
7
100
AcDbVertex
100
AcDb2dVertex
 10
70.94800000000001
 20
160.075
 30
0.0
  0
VERTEX
  5
69C
330
5FF
100
AcDbEntity
  8
7
100
AcDbVertex
100
AcDb2dVertex
 10
72.476
 20
160.043
 30
0.0
  0
VERTEX
  5
69D
330
5FF
100
AcDbEntity
  8
7
100
AcDbVertex
100
AcDb2dVertex
 10
74.005
 20
160.021
 30
0.0
  0
VERTEX
  5
69E
330
5FF
100
AcDbEntity
  8
7
100
AcDbVertex
100
AcDb2dVertex
 10
75.53399999999999
 20
160.008
 30
0.0
  0
VERTEX
  5
69F
330
5FF
100
AcDbEntity
  8
7
100
AcDbVertex
100
AcDb2dVertex
 10
77.06199999999999
 20
160.004
 30
0.0
  0
VERTEX
  5
6A0
330
5FF
100
AcDbEntity
  8
7
100
AcDbVertex
100
AcDb2dVertex
 10
78.59100000000001
 20
160.007
 30
0.0
  0
VERTEX
  5
6A1
330
5FF
100
AcDbEntity
  8
7
100
AcDbVertex
100
AcDb2dVertex
 10
80.12100000000001
 20
160.016
 30
0.0
  0
VERTEX
  5
6A2
330
5FF
100
AcDbEntity
  8
7
100
AcDbVertex
100
AcDb2dVertex
 10
83.177
 20
160.051
 30
0.0
  0
VERTEX
  5
6A3
330
5FF
100
AcDbEntity
  8
7
100
AcDbVertex
100
AcDb2dVertex
 10
86.23299999999998
 20
160.105
 30
0.0
  0
VERTEX
  5
6A4
330
5FF
100
AcDbEntity
  8
7
100
AcDbVertex
100
AcDb2dVertex
 10
89.287
 20
160.176
 30
0.0
  0
VERTEX
  5
6A5
330
5FF
100
AcDbEntity
  8
7
100
AcDbVertex
100
AcDb2dVertex
 10
92.34100000000001
 20
160.259
 30
0.0
  0
VERTEX
  5
6A6
330
5FF
100
AcDbEntity
  8
7
100
AcDbVertex
100
AcDb2dVertex
 10
95.395
 20
160.353
 30
0.0
  0
VERTEX
  5
6A7
330
5FF
100
AcDbEntity
  8
7
100
AcDbVertex
100
AcDb2dVertex
 10
98.449
 20
160.454
 30
0.0
  0
VERTEX
  5
6A8
330
5FF
100
AcDbEntity
  8
7
100
AcDbVertex
100
AcDb2dVertex
 10
101.504
 20
160.56
 30
0.0
  0
VERTEX
  5
6A9
330
5FF
100
AcDbEntity
  8
7
100
AcDbVertex
100
AcDb2dVertex
 10
104.558
 20
160.668
 30
0.0
  0
VERTEX
  5
6AA
330
5FF
100
AcDbEntity
  8
7
100
AcDbVertex
100
AcDb2dVertex
 10
107.611
 20
160.778
 30
0.0
  0
VERTEX
  5
6AB
330
5FF
100
AcDbEntity
  8
7
100
AcDbVertex
100
AcDb2dVertex
 10
110.664
 20
160.891
 30
0.0
  0
VERTEX
  5
6AC
330
5FF
100
AcDbEntity
  8
7
100
AcDbVertex
100
AcDb2dVertex
 10
113.716
 20
161.007
 30
0.0
  0
VERTEX
  5
6AD
330
5FF
100
AcDbEntity
  8
7
100
AcDbVertex
100
AcDb2dVertex
 10
116.768
 20
161.127
 30
0.0
  0
VERTEX
  5
6AE
330
5FF
100
AcDbEntity
  8
7
100
AcDbVertex
100
AcDb2dVertex
 10
119.821
 20
161.251
 30
0.0
  0
VERTEX
  5
6AF
330
5FF
100
AcDbEntity
  8
7
100
AcDbVertex
100
AcDb2dVertex
 10
122.874
 20
161.379
 30
0.0
  0
VERTEX
  5
6B0
330
5FF
100
AcDbEntity
  8
7
100
AcDbVertex
100
AcDb2dVertex
 10
125.928
 20
161.513
 30
0.0
  0
VERTEX
  5
6B1
330
5FF
100
AcDbEntity
  8
7
100
AcDbVertex
100
AcDb2dVertex
 10
128.98
 20
161.651
 30
0.0
  0
VERTEX
  5
6B2
330
5FF
100
AcDbEntity
  8
7
100
AcDbVertex
100
AcDb2dVertex
 10
132.032
 20
161.793
 30
0.0
  0
VERTEX
  5
6B3
330
5FF
100
AcDbEntity
  8
7
100
AcDbVertex
100
AcDb2dVertex
 10
135.083
 20
161.939
 30
0.0
  0
VERTEX
  5
6B4
330
5FF
100
AcDbEntity
  8
7
100
AcDbVertex
100
AcDb2dVertex
 10
138.135
 20
162.088
 30
0.0
  0
VERTEX
  5
6B5
330
5FF
100
AcDbEntity
  8
7
100
AcDbVertex
100
AcDb2dVertex
 10
141.187
 20
162.24
 30
0.0
  0
VERTEX
  5
6B6
330
5FF
100
AcDbEntity
  8
7
100
AcDbVertex
100
AcDb2dVertex
 10
144.24
 20
162.394
 30
0.0
  0
VERTEX
  5
6B7
330
5FF
100
AcDbEntity
  8
7
100
AcDbVertex
100
AcDb2dVertex
 10
147.293
 20
162.55
 30
0.0
  0
VERTEX
  5
6B8
330
5FF
100
AcDbEntity
  8
7
100
AcDbVertex
100
AcDb2dVertex
 10
150.345
 20
162.708
 30
0.0
  0
VERTEX
  5
6B9
330
5FF
100
AcDbEntity
  8
7
100
AcDbVertex
100
AcDb2dVertex
 10
153.396
 20
162.868
 30
0.0
  0
VERTEX
  5
6BA
330
5FF
100
AcDbEntity
  8
7
100
AcDbVertex
100
AcDb2dVertex
 10
156.447
 20
163.031
 30
0.0
  0
VERTEX
  5
6BB
330
5FF
100
AcDbEntity
  8
7
100
AcDbVertex
100
AcDb2dVertex
 10
159.498
 20
163.196
 30
0.0
  0
VERTEX
  5
6BC
330
5FF
100
AcDbEntity
  8
7
100
AcDbVertex
100
AcDb2dVertex
 10
162.549
 20
163.364
 30
0.0
  0
VERTEX
  5
6BD
330
5FF
100
AcDbEntity
  8
7
100
AcDbVertex
100
AcDb2dVertex
 10
165.601
 20
163.534
 30
0.0
  0
VERTEX
  5
6BE
330
5FF
100
AcDbEntity
  8
7
100
AcDbVertex
100
AcDb2dVertex
 10
168.653
 20
163.708
 30
0.0
  0
VERTEX
  5
6BF
330
5FF
100
AcDbEntity
  8
7
100
AcDbVertex
100
AcDb2dVertex
 10
171.704
 20
163.885
 30
0.0
  0
VERTEX
  5
6C0
330
5FF
100
AcDbEntity
  8
7
100
AcDbVertex
100
AcDb2dVertex
 10
174.755
 20
164.064
 30
0.0
  0
VERTEX
  5
6C1
330
5FF
100
AcDbEntity
  8
7
100
AcDbVertex
100
AcDb2dVertex
 10
177.805
 20
164.245
 30
0.0
  0
VERTEX
  5
6C2
330
5FF
100
AcDbEntity
  8
7
100
AcDbVertex
100
AcDb2dVertex
 10
180.855
 20
164.43
 30
0.0
  0
VERTEX
  5
6C3
330
5FF
100
AcDbEntity
  8
7
100
AcDbVertex
100
AcDb2dVertex
 10
183.905
 20
164.617
 30
0.0
  0
VERTEX
  5
6C4
330
5FF
100
AcDbEntity
  8
7
100
AcDbVertex
100
AcDb2dVertex
 10
186.956
 20
164.806
 30
0.0
  0
VERTEX
  5
6C5
330
5FF
100
AcDbEntity
  8
7
100
AcDbVertex
100
AcDb2dVertex
 10
190.0079999999999
 20
164.997
 30
0.0
  0
VERTEX
  5
6C6
330
5FF
100
AcDbEntity
  8
7
100
AcDbVertex
100
AcDb2dVertex
 10
193.059
 20
165.19
 30
0.0
  0
VERTEX
  5
6C7
330
5FF
100
AcDbEntity
  8
7
100
AcDbVertex
100
AcDb2dVertex
 10
196.108
 20
165.385
 30
0.0
  0
VERTEX
  5
6C8
330
5FF
100
AcDbEntity
  8
7
100
AcDbVertex
100
AcDb2dVertex
 10
199.158
 20
165.582
 30
0.0
  0
VERTEX
  5
6C9
330
5FF
100
AcDbEntity
  8
7
100
AcDbVertex
100
AcDb2dVertex
 10
202.208
 20
165.78
 30
0.0
  0
VERTEX
  5
6CA
330
5FF
100
AcDbEntity
  8
7
100
AcDbVertex
100
AcDb2dVertex
 10
205.258
 20
165.98
 30
0.0
  0
VERTEX
  5
6CB
330
5FF
100
AcDbEntity
  8
7
100
AcDbVertex
100
AcDb2dVertex
 10
208.309
 20
166.182
 30
0.0
  0
VERTEX
  5
6CC
330
5FF
100
AcDbEntity
  8
7
100
AcDbVertex
100
AcDb2dVertex
 10
211.361
 20
166.384
 30
0.0
  0
VERTEX
  5
6CD
330
5FF
100
AcDbEntity
  8
7
100
AcDbVertex
100
AcDb2dVertex
 10
214.411
 20
166.589
 30
0.0
  0
VERTEX
  5
6CE
330
5FF
100
AcDbEntity
  8
7
100
AcDbVertex
100
AcDb2dVertex
 10
217.461
 20
166.795
 30
0.0
  0
VERTEX
  5
6CF
330
5FF
100
AcDbEntity
  8
7
100
AcDbVertex
100
AcDb2dVertex
 10
220.51
 20
167.003
 30
0.0
  0
VERTEX
  5
6D0
330
5FF
100
AcDbEntity
  8
7
100
AcDbVertex
100
AcDb2dVertex
 10
223.56
 20
167.213
 30
0.0
  0
VERTEX
  5
6D1
330
5FF
100
AcDbEntity
  8
7
100
AcDbVertex
100
AcDb2dVertex
 10
226.609
 20
167.427
 30
0.0
  0
VERTEX
  5
6D2
330
5FF
100
AcDbEntity
  8
7
100
AcDbVertex
100
AcDb2dVertex
 10
229.66
 20
167.643
 30
0.0
  0
VERTEX
  5
6D3
330
5FF
100
AcDbEntity
  8
7
100
AcDbVertex
100
AcDb2dVertex
 10
231.185
 20
167.753
 30
0.0
  0
VERTEX
  5
6D4
330
5FF
100
AcDbEntity
  8
7
100
AcDbVertex
100
AcDb2dVertex
 10
232.71
 20
167.863
 30
0.0
  0
VERTEX
  5
6D5
330
5FF
100
AcDbEntity
  8
7
100
AcDbVertex
100
AcDb2dVertex
 10
234.234
 20
167.973
 30
0.0
  0
VERTEX
  5
6D6
330
5FF
100
AcDbEntity
  8
7
100
AcDbVertex
100
AcDb2dVertex
 10
235.758
 20
168.084
 30
0.0
  0
VERTEX
  5
6D7
330
5FF
100
AcDbEntity
  8
7
100
AcDbVertex
100
AcDb2dVertex
 10
237.283
 20
168.196
 30
0.0
  0
VERTEX
  5
6D8
330
5FF
100
AcDbEntity
  8
7
100
AcDbVertex
100
AcDb2dVertex
 10
238.807
 20
168.307
 30
0.0
  0
VERTEX
  5
6D9
330
5FF
100
AcDbEntity
  8
7
100
AcDbVertex
100
AcDb2dVertex
 10
240.332
 20
168.418
 30
0.0
  0
VERTEX
  5
6DA
330
5FF
100
AcDbEntity
  8
7
100
AcDbVertex
100
AcDb2dVertex
 10
241.857
 20
168.529
 30
0.0
  0
VERTEX
  5
6DB
330
5FF
100
AcDbEntity
  8
7
100
AcDbVertex
100
AcDb2dVertex
 10
243.38
 20
168.639
 30
0.0
  0
VERTEX
  5
6DC
330
5FF
100
AcDbEntity
  8
7
100
AcDbVertex
100
AcDb2dVertex
 10
244.904
 20
168.75
 30
0.0
  0
VERTEX
  5
6DD
330
5FF
100
AcDbEntity
  8
7
100
AcDbVertex
100
AcDb2dVertex
 10
246.428
 20
168.86
 30
0.0
  0
VERTEX
  5
6DE
330
5FF
100
AcDbEntity
  8
7
100
AcDbVertex
100
AcDb2dVertex
 10
247.952
 20
168.97
 30
0.0
  0
VERTEX
  5
6DF
330
5FF
100
AcDbEntity
  8
7
100
AcDbVertex
100
AcDb2dVertex
 10
249.476
 20
169.08
 30
0.0
  0
VERTEX
  5
6E0
330
5FF
100
AcDbEntity
  8
7
100
AcDbVertex
100
AcDb2dVertex
 10
251.0
 20
169.19
 30
0.0
  0
VERTEX
  5
6E1
330
5FF
100
AcDbEntity
  8
7
100
AcDbVertex
100
AcDb2dVertex
 10
251.0
 20
169.533
 30
0.0
  0
SEQEND
  5
6E2
330
5FF
100
AcDbEntity
  8
7
  0
ENDBLK
  5
6E4
330
5FA
100
AcDbEntity
  8
0
100
AcDbBlockEnd
  0
BLOCK
  5
775
330
76B
100
AcDbEntity
  8
0
100
AcDbBlockBegin
  2
*D9
 70
     1
 10
0.0
 20
0.0
 30
0.0
  3
*D9
  1

  0
LINE
  5
779
330
76B
100
AcDbEntity
  8
AM_5
100
AcDbLine
 10
-865.6972913686031
 20
1147.723067776007
 30
0.0
 11
-865.6972913686031
 21
1178.260850273572
 31
0.0
  0
LINE
  5
77A
330
76B
100
AcDbEntity
  8
AM_5
100
AcDbLine
 10
-716.5495014677563
 20
1147.424301148292
 30
0.0
 11
-716.5495014677563
 21
1178.260850273572
 31
0.0
  0
LINE
  5
77B
330
76B
100
AcDbEntity
  8
AM_5
100
AcDbLine
 10
-863.1972913686031
 20
1177.260850273572
 30
0.0
 11
-719.0495014677562
 21
1177.260850273572
 31
0.0
  0
SOLID
  5
77C
330
76B
100
AcDbEntity
  8
AM_5
100
AcDbTrace
 10
-863.1972913686031
 20
1177.677516940239
 30
0.0
 11
-863.1972913686031
 21
1176.844183606905
 31
0.0
 12
-865.6972913686031
 22
1177.260850273572
 32
0.0
 13
-865.6972913686031
 23
1177.260850273572
 33
0.0
  0
SOLID
  5
77D
330
76B
100
AcDbEntity
  8
AM_5
100
AcDbTrace
 10
-719.0495014677562
 20
1177.677516940239
 30
0.0
 11
-719.0495014677562
 21
1176.844183606905
 31
0.0
 12
-716.5495014677563
 22
1177.260850273572
 32
0.0
 13
-716.5495014677563
 23
1177.260850273572
 33
0.0
  0
MTEXT
  5
77E
330
76B
100
AcDbEntity
  8
AM_5
 62
     2
100
AcDbMText
 10
-791.1233964181797
 20
1180.510850273572
 30
0.0
 40
3.5
 41
0.0
 71
     5
 72
     1
  1
149.15
 73
     1
 44
1.0
1001
ACAD
1000
MTEXTBEGIN
1070
    73
1070
     1
1070
    44
1040
1.0
1070
    74
1070
     0
1000
MTEXTEND
  0
POINT
  5
77F
330
76B
100
AcDbEntity
  8
Defpoints
 62
     0
100
AcDbPoint
 10
-865.6972913686031
 20
1146.723067776006
 30
0.0
  0
POINT
  5
780
330
76B
100
AcDbEntity
  8
Defpoints
 62
     0
100
AcDbPoint
 10
-716.5495014677563
 20
1146.424301148291
 30
0.0
  0
POINT
  5
781
330
76B
100
AcDbEntity
  8
Defpoints
 62
     0
100
AcDbPoint
 10
-716.5495014677563
 20
1177.260850273572
 30
0.0
  0
ENDBLK
  5
776
330
76B
100
AcDbEntity
  8
0
100
AcDbBlockEnd
  0
BLOCK
  5
87E
330
785
100
AcDbEntity
  8
0
100
AcDbBlockBegin
  2
CLARK Y - 149
 70
     0
 10
0.0
 20
0.0
 30
0.0
  3
CLARK Y - 149
  1

  0
POLYLINE
  5
786
330
785
100
AcDbEntity
  8
7
  6
Continuous
100
AcDb2dPolyline
 66
     1
 10
0.0
 20
0.0
 30
0.0
  0
VERTEX
  5
787
330
786
100
AcDbEntity
  8
7
100
AcDbVertex
100
AcDb2dVertex
 10
69.42499999999999
 20
179.149
 30
0.0
  0
VERTEX
  5
788
330
786
100
AcDbEntity
  8
7
100
AcDbVertex
100
AcDb2dVertex
 10
218.575
 20
179.149
 30
0.0
  0
SEQEND
  5
789
330
786
100
AcDbEntity
  8
7
  0
POLYLINE
  5
78A
330
785
100
AcDbEntity
  8
7
  6
Continuous
100
AcDb2dPolyline
 66
     1
 10
0.0
 20
0.0
 30
0.0
  0
VERTEX
  5
78B
330
78A
100
AcDbEntity
  8
7
100
AcDbVertex
100
AcDb2dVertex
 10
218.575
 20
179.238
 30
0.0
  0
VERTEX
  5
78C
330
78A
100
AcDbEntity
  8
7
100
AcDbVertex
100
AcDb2dVertex
 10
217.829
 20
179.415
 30
0.0
  0
VERTEX
  5
78D
330
78A
100
AcDbEntity
  8
7
100
AcDbVertex
100
AcDb2dVertex
 10
217.084
 20
179.592
 30
0.0
  0
VERTEX
  5
78E
330
78A
100
AcDbEntity
  8
7
100
AcDbVertex
100
AcDb2dVertex
 10
216.338
 20
179.768
 30
0.0
  0
VERTEX
  5
78F
330
78A
100
AcDbEntity
  8
7
100
AcDbVertex
100
AcDb2dVertex
 10
215.592
 20
179.944
 30
0.0
  0
VERTEX
  5
790
330
78A
100
AcDbEntity
  8
7
100
AcDbVertex
100
AcDb2dVertex
 10
214.846
 20
180.12
 30
0.0
  0
VERTEX
  5
791
330
78A
100
AcDbEntity
  8
7
100
AcDbVertex
100
AcDb2dVertex
 10
214.101
 20
180.295
 30
0.0
  0
VERTEX
  5
792
330
78A
100
AcDbEntity
  8
7
100
AcDbVertex
100
AcDb2dVertex
 10
213.355
 20
180.47
 30
0.0
  0
VERTEX
  5
793
330
78A
100
AcDbEntity
  8
7
100
AcDbVertex
100
AcDb2dVertex
 10
212.609
 20
180.644
 30
0.0
  0
VERTEX
  5
794
330
78A
100
AcDbEntity
  8
7
100
AcDbVertex
100
AcDb2dVertex
 10
211.118
 20
180.989
 30
0.0
  0
VERTEX
  5
795
330
78A
100
AcDbEntity
  8
7
100
AcDbVertex
100
AcDb2dVertex
 10
209.626
 20
181.33
 30
0.0
  0
VERTEX
  5
796
330
78A
100
AcDbEntity
  8
7
100
AcDbVertex
100
AcDb2dVertex
 10
208.135
 20
181.667
 30
0.0
  0
VERTEX
  5
797
330
78A
100
AcDbEntity
  8
7
100
AcDbVertex
100
AcDb2dVertex
 10
206.643
 20
182.0
 30
0.0
  0
VERTEX
  5
798
330
78A
100
AcDbEntity
  8
7
100
AcDbVertex
100
AcDb2dVertex
 10
205.152
 20
182.329
 30
0.0
  0
VERTEX
  5
799
330
78A
100
AcDbEntity
  8
7
100
AcDbVertex
100
AcDb2dVertex
 10
203.66
 20
182.654
 30
0.0
  0
VERTEX
  5
79A
330
78A
100
AcDbEntity
  8
7
100
AcDbVertex
100
AcDb2dVertex
 10
202.169
 20
182.976
 30
0.0
  0
VERTEX
  5
79B
330
78A
100
AcDbEntity
  8
7
100
AcDbVertex
100
AcDb2dVertex
 10
200.677
 20
183.294
 30
0.0
  0
VERTEX
  5
79C
330
78A
100
AcDbEntity
  8
7
100
AcDbVertex
100
AcDb2dVertex
 10
199.1859999999999
 20
183.608
 30
0.0
  0
VERTEX
  5
79D
330
78A
100
AcDbEntity
  8
7
100
AcDbVertex
100
AcDb2dVertex
 10
197.694
 20
183.918
 30
0.0
  0
VERTEX
  5
79E
330
78A
100
AcDbEntity
  8
7
100
AcDbVertex
100
AcDb2dVertex
 10
196.203
 20
184.224
 30
0.0
  0
VERTEX
  5
79F
330
78A
100
AcDbEntity
  8
7
100
AcDbVertex
100
AcDb2dVertex
 10
194.711
 20
184.526
 30
0.0
  0
VERTEX
  5
7A0
330
78A
100
AcDbEntity
  8
7
100
AcDbVertex
100
AcDb2dVertex
 10
193.22
 20
184.824
 30
0.0
  0
VERTEX
  5
7A1
330
78A
100
AcDbEntity
  8
7
100
AcDbVertex
100
AcDb2dVertex
 10
191.728
 20
185.119
 30
0.0
  0
VERTEX
  5
7A2
330
78A
100
AcDbEntity
  8
7
100
AcDbVertex
100
AcDb2dVertex
 10
190.237
 20
185.408
 30
0.0
  0
VERTEX
  5
7A3
330
78A
100
AcDbEntity
  8
7
100
AcDbVertex
100
AcDb2dVertex
 10
188.745
 20
185.694
 30
0.0
  0
VERTEX
  5
7A4
330
78A
100
AcDbEntity
  8
7
100
AcDbVertex
100
AcDb2dVertex
 10
187.254
 20
185.976
 30
0.0
  0
VERTEX
  5
7A5
330
78A
100
AcDbEntity
  8
7
100
AcDbVertex
100
AcDb2dVertex
 10
185.762
 20
186.2529999999999
 30
0.0
  0
VERTEX
  5
7A6
330
78A
100
AcDbEntity
  8
7
100
AcDbVertex
100
AcDb2dVertex
 10
184.271
 20
186.525
 30
0.0
  0
VERTEX
  5
7A7
330
78A
100
AcDbEntity
  8
7
100
AcDbVertex
100
AcDb2dVertex
 10
182.779
 20
186.794
 30
0.0
  0
VERTEX
  5
7A8
330
78A
100
AcDbEntity
  8
7
100
AcDbVertex
100
AcDb2dVertex
 10
181.288
 20
187.058
 30
0.0
  0
VERTEX
  5
7A9
330
78A
100
AcDbEntity
  8
7
100
AcDbVertex
100
AcDb2dVertex
 10
179.796
 20
187.3179999999999
 30
0.0
  0
VERTEX
  5
7AA
330
78A
100
AcDbEntity
  8
7
100
AcDbVertex
100
AcDb2dVertex
 10
178.305
 20
187.573
 30
0.0
  0
VERTEX
  5
7AB
330
78A
100
AcDbEntity
  8
7
100
AcDbVertex
100
AcDb2dVertex
 10
176.813
 20
187.824
 30
0.0
  0
VERTEX
  5
7AC
330
78A
100
AcDbEntity
  8
7
100
AcDbVertex
100
AcDb2dVertex
 10
175.322
 20
188.07
 30
0.0
  0
VERTEX
  5
7AD
330
78A
100
AcDbEntity
  8
7
100
AcDbVertex
100
AcDb2dVertex
 10
173.83
 20
188.312
 30
0.0
  0
VERTEX
  5
7AE
330
78A
100
AcDbEntity
  8
7
100
AcDbVertex
100
AcDb2dVertex
 10
172.339
 20
188.549
 30
0.0
  0
VERTEX
  5
7AF
330
78A
100
AcDbEntity
  8
7
100
AcDbVertex
100
AcDb2dVertex
 10
170.847
 20
188.782
 30
0.0
  0
VERTEX
  5
7B0
330
78A
100
AcDbEntity
  8
7
100
AcDbVertex
100
AcDb2dVertex
 10
169.356
 20
189.009
 30
0.0
  0
VERTEX
  5
7B1
330
78A
100
AcDbEntity
  8
7
100
AcDbVertex
100
AcDb2dVertex
 10
167.864
 20
189.232
 30
0.0
  0
VERTEX
  5
7B2
330
78A
100
AcDbEntity
  8
7
100
AcDbVertex
100
AcDb2dVertex
 10
166.373
 20
189.45
 30
0.0
  0
VERTEX
  5
7B3
330
78A
100
AcDbEntity
  8
7
100
AcDbVertex
100
AcDb2dVertex
 10
164.8809999999999
 20
189.6609999999999
 30
0.0
  0
VERTEX
  5
7B4
330
78A
100
AcDbEntity
  8
7
100
AcDbVertex
100
AcDb2dVertex
 10
163.39
 20
189.867
 30
0.0
  0
VERTEX
  5
7B5
330
78A
100
AcDbEntity
  8
7
100
AcDbVertex
100
AcDb2dVertex
 10
161.898
 20
190.068
 30
0.0
  0
VERTEX
  5
7B6
330
78A
100
AcDbEntity
  8
7
100
AcDbVertex
100
AcDb2dVertex
 10
160.407
 20
190.261
 30
0.0
  0
VERTEX
  5
7B7
330
78A
100
AcDbEntity
  8
7
100
AcDbVertex
100
AcDb2dVertex
 10
158.915
 20
190.449
 30
0.0
  0
VERTEX
  5
7B8
330
78A
100
AcDbEntity
  8
7
100
AcDbVertex
100
AcDb2dVertex
 10
157.424
 20
190.63
 30
0.0
  0
VERTEX
  5
7B9
330
78A
100
AcDbEntity
  8
7
100
AcDbVertex
100
AcDb2dVertex
 10
155.932
 20
190.804
 30
0.0
  0
VERTEX
  5
7BA
330
78A
100
AcDbEntity
  8
7
100
AcDbVertex
100
AcDb2dVertex
 10
154.441
 20
190.972
 30
0.0
  0
VERTEX
  5
7BB
330
78A
100
AcDbEntity
  8
7
100
AcDbVertex
100
AcDb2dVertex
 10
152.949
 20
191.1329999999999
 30
0.0
  0
VERTEX
  5
7BC
330
78A
100
AcDbEntity
  8
7
100
AcDbVertex
100
AcDb2dVertex
 10
151.458
 20
191.287
 30
0.0
  0
VERTEX
  5
7BD
330
78A
100
AcDbEntity
  8
7
100
AcDbVertex
100
AcDb2dVertex
 10
149.966
 20
191.435
 30
0.0
  0
VERTEX
  5
7BE
330
78A
100
AcDbEntity
  8
7
100
AcDbVertex
100
AcDb2dVertex
 10
148.475
 20
191.575
 30
0.0
  0
VERTEX
  5
7BF
330
78A
100
AcDbEntity
  8
7
100
AcDbVertex
100
AcDb2dVertex
 10
146.983
 20
191.71
 30
0.0
  0
VERTEX
  5
7C0
330
78A
100
AcDbEntity
  8
7
100
AcDbVertex
100
AcDb2dVertex
 10
145.492
 20
191.837
 30
0.0
  0
VERTEX
  5
7C1
330
78A
100
AcDbEntity
  8
7
100
AcDbVertex
100
AcDb2dVertex
 10
144.0
 20
191.958
 30
0.0
  0
VERTEX
  5
7C2
330
78A
100
AcDbEntity
  8
7
100
AcDbVertex
100
AcDb2dVertex
 10
142.509
 20
192.071
 30
0.0
  0
VERTEX
  5
7C3
330
78A
100
AcDbEntity
  8
7
100
AcDbVertex
100
AcDb2dVertex
 10
141.017
 20
192.178
 30
0.0
  0
VERTEX
  5
7C4
330
78A
100
AcDbEntity
  8
7
100
AcDbVertex
100
AcDb2dVertex
 10
139.526
 20
192.278
 30
0.0
  0
VERTEX
  5
7C5
330
78A
100
AcDbEntity
  8
7
100
AcDbVertex
100
AcDb2dVertex
 10
138.034
 20
192.37
 30
0.0
  0
VERTEX
  5
7C6
330
78A
100
AcDbEntity
  8
7
100
AcDbVertex
100
AcDb2dVertex
 10
136.543
 20
192.454
 30
0.0
  0
VERTEX
  5
7C7
330
78A
100
AcDbEntity
  8
7
100
AcDbVertex
100
AcDb2dVertex
 10
135.051
 20
192.53
 30
0.0
  0
VERTEX
  5
7C8
330
78A
100
AcDbEntity
  8
7
100
AcDbVertex
100
AcDb2dVertex
 10
133.56
 20
192.598
 30
0.0
  0
VERTEX
  5
7C9
330
78A
100
AcDbEntity
  8
7
100
AcDbVertex
100
AcDb2dVertex
 10
132.068
 20
192.657
 30
0.0
  0
VERTEX
  5
7CA
330
78A
100
AcDbEntity
  8
7
100
AcDbVertex
100
AcDb2dVertex
 10
130.577
 20
192.707
 30
0.0
  0
VERTEX
  5
7CB
330
78A
100
AcDbEntity
  8
7
100
AcDbVertex
100
AcDb2dVertex
 10
129.085
 20
192.747
 30
0.0
  0
VERTEX
  5
7CC
330
78A
100
AcDbEntity
  8
7
100
AcDbVertex
100
AcDb2dVertex
 10
127.594
 20
192.778
 30
0.0
  0
VERTEX
  5
7CD
330
78A
100
AcDbEntity
  8
7
100
AcDbVertex
100
AcDb2dVertex
 10
126.102
 20
192.799
 30
0.0
  0
VERTEX
  5
7CE
330
78A
100
AcDbEntity
  8
7
100
AcDbVertex
100
AcDb2dVertex
 10
124.611
 20
192.812
 30
0.0
  0
VERTEX
  5
7CF
330
78A
100
AcDbEntity
  8
7
100
AcDbVertex
100
AcDb2dVertex
 10
123.119
 20
192.815
 30
0.0
  0
VERTEX
  5
7D0
330
78A
100
AcDbEntity
  8
7
100
AcDbVertex
100
AcDb2dVertex
 10
121.627
 20
192.81
 30
0.0
  0
VERTEX
  5
7D1
330
78A
100
AcDbEntity
  8
7
100
AcDbVertex
100
AcDb2dVertex
 10
120.136
 20
192.797
 30
0.0
  0
VERTEX
  5
7D2
330
78A
100
AcDbEntity
  8
7
100
AcDbVertex
100
AcDb2dVertex
 10
118.644
 20
192.777
 30
0.0
  0
VERTEX
  5
7D3
330
78A
100
AcDbEntity
  8
7
100
AcDbVertex
100
AcDb2dVertex
 10
117.153
 20
192.749
 30
0.0
  0
VERTEX
  5
7D4
330
78A
100
AcDbEntity
  8
7
100
AcDbVertex
100
AcDb2dVertex
 10
115.661
 20
192.715
 30
0.0
  0
VERTEX
  5
7D5
330
78A
100
AcDbEntity
  8
7
100
AcDbVertex
100
AcDb2dVertex
 10
114.17
 20
192.674
 30
0.0
  0
VERTEX
  5
7D6
330
78A
100
AcDbEntity
  8
7
100
AcDbVertex
100
AcDb2dVertex
 10
112.678
 20
192.627
 30
0.0
  0
VERTEX
  5
7D7
330
78A
100
AcDbEntity
  8
7
100
AcDbVertex
100
AcDb2dVertex
 10
111.187
 20
192.573
 30
0.0
  0
VERTEX
  5
7D8
330
78A
100
AcDbEntity
  8
7
100
AcDbVertex
100
AcDb2dVertex
 10
109.695
 20
192.51
 30
0.0
  0
VERTEX
  5
7D9
330
78A
100
AcDbEntity
  8
7
100
AcDbVertex
100
AcDb2dVertex
 10
108.204
 20
192.436
 30
0.0
  0
VERTEX
  5
7DA
330
78A
100
AcDbEntity
  8
7
100
AcDbVertex
100
AcDb2dVertex
 10
106.712
 20
192.35
 30
0.0
  0
VERTEX
  5
7DB
330
78A
100
AcDbEntity
  8
7
100
AcDbVertex
100
AcDb2dVertex
 10
105.221
 20
192.249
 30
0.0
  0
VERTEX
  5
7DC
330
78A
100
AcDbEntity
  8
7
100
AcDbVertex
100
AcDb2dVertex
 10
103.729
 20
192.132
 30
0.0
  0
VERTEX
  5
7DD
330
78A
100
AcDbEntity
  8
7
100
AcDbVertex
100
AcDb2dVertex
 10
102.238
 20
191.997
 30
0.0
  0
VERTEX
  5
7DE
330
78A
100
AcDbEntity
  8
7
100
AcDbVertex
100
AcDb2dVertex
 10
100.745
 20
191.842
 30
0.0
  0
VERTEX
  5
7DF
330
78A
100
AcDbEntity
  8
7
100
AcDbVertex
100
AcDb2dVertex
 10
99.25499999999999
 20
191.666
 30
0.0
  0
VERTEX
  5
7E0
330
78A
100
AcDbEntity
  8
7
100
AcDbVertex
100
AcDb2dVertex
 10
97.76200000000001
 20
191.465
 30
0.0
  0
VERTEX
  5
7E1
330
78A
100
AcDbEntity
  8
7
100
AcDbVertex
100
AcDb2dVertex
 10
96.27200000000001
 20
191.24
 30
0.0
  0
VERTEX
  5
7E2
330
78A
100
AcDbEntity
  8
7
100
AcDbVertex
100
AcDb2dVertex
 10
94.778
 20
190.991
 30
0.0
  0
VERTEX
  5
7E3
330
78A
100
AcDbEntity
  8
7
100
AcDbVertex
100
AcDb2dVertex
 10
93.289
 20
190.719
 30
0.0
  0
VERTEX
  5
7E4
330
78A
100
AcDbEntity
  8
7
100
AcDbVertex
100
AcDb2dVertex
 10
91.795
 20
190.422
 30
0.0
  0
VERTEX
  5
7E5
330
78A
100
AcDbEntity
  8
7
100
AcDbVertex
100
AcDb2dVertex
 10
90.30599999999999
 20
190.102
 30
0.0
  0
VERTEX
  5
7E6
330
78A
100
AcDbEntity
  8
7
100
AcDbVertex
100
AcDb2dVertex
 10
88.81100000000001
 20
189.756
 30
0.0
  0
VERTEX
  5
7E7
330
78A
100
AcDbEntity
  8
7
100
AcDbVertex
100
AcDb2dVertex
 10
87.323
 20
189.384
 30
0.0
  0
VERTEX
  5
7E8
330
78A
100
AcDbEntity
  8
7
100
AcDbVertex
100
AcDb2dVertex
 10
85.827
 20
188.98
 30
0.0
  0
VERTEX
  5
7E9
330
78A
100
AcDbEntity
  8
7
100
AcDbVertex
100
AcDb2dVertex
 10
84.34000000000001
 20
188.545
 30
0.0
  0
VERTEX
  5
7EA
330
78A
100
AcDbEntity
  8
7
100
AcDbVertex
100
AcDb2dVertex
 10
82.84299999999999
 20
188.072
 30
0.0
  0
VERTEX
  5
7EB
330
78A
100
AcDbEntity
  8
7
100
AcDbVertex
100
AcDb2dVertex
 10
81.35699999999999
 20
187.566
 30
0.0
  0
VERTEX
  5
7EC
330
78A
100
AcDbEntity
  8
7
100
AcDbVertex
100
AcDb2dVertex
 10
79.857
 20
187.016
 30
0.0
  0
VERTEX
  5
7ED
330
78A
100
AcDbEntity
  8
7
100
AcDbVertex
100
AcDb2dVertex
 10
78.37399999999999
 20
186.421
 30
0.0
  0
VERTEX
  5
7EE
330
78A
100
AcDbEntity
  8
7
100
AcDbVertex
100
AcDb2dVertex
 10
77.62399999999999
 20
186.096
 30
0.0
  0
VERTEX
  5
7EF
330
78A
100
AcDbEntity
  8
7
100
AcDbVertex
100
AcDb2dVertex
 10
76.88200000000001
 20
185.753
 30
0.0
  0
VERTEX
  5
7F0
330
78A
100
AcDbEntity
  8
7
100
AcDbVertex
100
AcDb2dVertex
 10
76.131
 20
185.38
 30
0.0
  0
VERTEX
  5
7F1
330
78A
100
AcDbEntity
  8
7
100
AcDbVertex
100
AcDb2dVertex
 10
75.39100000000001
 20
184.985
 30
0.0
  0
VERTEX
  5
7F2
330
78A
100
AcDbEntity
  8
7
100
AcDbVertex
100
AcDb2dVertex
 10
74.635
 20
184.546
 30
0.0
  0
VERTEX
  5
7F3
330
78A
100
AcDbEntity
  8
7
100
AcDbVertex
100
AcDb2dVertex
 10
73.9
 20
184.074
 30
0.0
  0
VERTEX
  5
7F4
330
78A
100
AcDbEntity
  8
7
100
AcDbVertex
100
AcDb2dVertex
 10
73.137
 20
183.526
 30
0.0
  0
VERTEX
  5
7F5
330
78A
100
AcDbEntity
  8
7
100
AcDbVertex
100
AcDb2dVertex
 10
72.408
 20
182.933
 30
0.0
  0
VERTEX
  5
7F6
330
78A
100
AcDbEntity
  8
7
100
AcDbVertex
100
AcDb2dVertex
 10
71.80199999999999
 20
182.384
 30
0.0
  0
VERTEX
  5
7F7
330
78A
100
AcDbEntity
  8
7
100
AcDbVertex
100
AcDb2dVertex
 10
71.21500000000001
 20
181.813
 30
0.0
  0
VERTEX
  5
7F8
330
78A
100
AcDbEntity
  8
7
100
AcDbVertex
100
AcDb2dVertex
 10
70.913
 20
181.508
 30
0.0
  0
VERTEX
  5
7F9
330
78A
100
AcDbEntity
  8
7
100
AcDbVertex
100
AcDb2dVertex
 10
70.61799999999999
 20
181.198
 30
0.0
  0
VERTEX
  5
7FA
330
78A
100
AcDbEntity
  8
7
100
AcDbVertex
100
AcDb2dVertex
 10
70.30899999999999
 20
180.847
 30
0.0
  0
VERTEX
  5
7FB
330
78A
100
AcDbEntity
  8
7
100
AcDbVertex
100
AcDb2dVertex
 10
70.02199999999999
 20
180.48
 30
0.0
  0
VERTEX
  5
7FC
330
78A
100
AcDbEntity
  8
7
100
AcDbVertex
100
AcDb2dVertex
 10
69.86499999999999
 20
180.252
 30
0.0
  0
VERTEX
  5
7FD
330
78A
100
AcDbEntity
  8
7
100
AcDbVertex
100
AcDb2dVertex
 10
69.723
 20
180.014
 30
0.0
  0
VERTEX
  5
7FE
330
78A
100
AcDbEntity
  8
7
100
AcDbVertex
100
AcDb2dVertex
 10
69.64399999999999
 20
179.862
 30
0.0
  0
VERTEX
  5
7FF
330
78A
100
AcDbEntity
  8
7
100
AcDbVertex
100
AcDb2dVertex
 10
69.57399999999999
 20
179.705
 30
0.0
  0
VERTEX
  5
800
330
78A
100
AcDbEntity
  8
7
100
AcDbVertex
100
AcDb2dVertex
 10
69.535
 20
179.602
 30
0.0
  0
VERTEX
  5
801
330
78A
100
AcDbEntity
  8
7
100
AcDbVertex
100
AcDb2dVertex
 10
69.5
 20
179.498
 30
0.0
  0
VERTEX
  5
802
330
78A
100
AcDbEntity
  8
7
100
AcDbVertex
100
AcDb2dVertex
 10
69.45399999999999
 20
179.325
 30
0.0
  0
VERTEX
  5
803
330
78A
100
AcDbEntity
  8
7
100
AcDbVertex
100
AcDb2dVertex
 10
69.42499999999999
 20
179.149
 30
0.0
  0
VERTEX
  5
804
330
78A
100
AcDbEntity
  8
7
100
AcDbVertex
100
AcDb2dVertex
 10
69.42499999999999
 20
178.797
 30
0.0
  0
VERTEX
  5
805
330
78A
100
AcDbEntity
  8
7
100
AcDbVertex
100
AcDb2dVertex
 10
69.5
 20
178.452
 30
0.0
  0
VERTEX
  5
806
330
78A
100
AcDbEntity
  8
7
100
AcDbVertex
100
AcDb2dVertex
 10
69.53399999999999
 20
178.357
 30
0.0
  0
VERTEX
  5
807
330
78A
100
AcDbEntity
  8
7
100
AcDbVertex
100
AcDb2dVertex
 10
69.57399999999999
 20
178.263
 30
0.0
  0
VERTEX
  5
808
330
78A
100
AcDbEntity
  8
7
100
AcDbVertex
100
AcDb2dVertex
 10
69.64399999999999
 20
178.1209999999999
 30
0.0
  0
VERTEX
  5
809
330
78A
100
AcDbEntity
  8
7
100
AcDbVertex
100
AcDb2dVertex
 10
69.723
 20
177.984
 30
0.0
  0
VERTEX
  5
80A
330
78A
100
AcDbEntity
  8
7
100
AcDbVertex
100
AcDb2dVertex
 10
69.86399999999999
 20
177.777
 30
0.0
  0
VERTEX
  5
80B
330
78A
100
AcDbEntity
  8
7
100
AcDbVertex
100
AcDb2dVertex
 10
70.02199999999999
 20
177.581
 30
0.0
  0
VERTEX
  5
80C
330
78A
100
AcDbEntity
  8
7
100
AcDbVertex
100
AcDb2dVertex
 10
70.30599999999999
 20
177.285
 30
0.0
  0
VERTEX
  5
80D
330
78A
100
AcDbEntity
  8
7
100
AcDbVertex
100
AcDb2dVertex
 10
70.61799999999999
 20
177.018
 30
0.0
  0
VERTEX
  5
80E
330
78A
100
AcDbEntity
  8
7
100
AcDbVertex
100
AcDb2dVertex
 10
70.90899999999999
 20
176.806
 30
0.0
  0
VERTEX
  5
80F
330
78A
100
AcDbEntity
  8
7
100
AcDbVertex
100
AcDb2dVertex
 10
71.21500000000001
 20
176.617
 30
0.0
  0
VERTEX
  5
810
330
78A
100
AcDbEntity
  8
7
100
AcDbVertex
100
AcDb2dVertex
 10
71.797
 20
176.339
 30
0.0
  0
VERTEX
  5
811
330
78A
100
AcDbEntity
  8
7
100
AcDbVertex
100
AcDb2dVertex
 10
72.408
 20
176.125
 30
0.0
  0
VERTEX
  5
812
330
78A
100
AcDbEntity
  8
7
100
AcDbVertex
100
AcDb2dVertex
 10
73.15000000000001
 20
175.934
 30
0.0
  0
VERTEX
  5
813
330
78A
100
AcDbEntity
  8
7
100
AcDbVertex
100
AcDb2dVertex
 10
73.9
 20
175.777
 30
0.0
  0
VERTEX
  5
814
330
78A
100
AcDbEntity
  8
7
100
AcDbVertex
100
AcDb2dVertex
 10
74.64399999999999
 20
175.63
 30
0.0
  0
VERTEX
  5
815
330
78A
100
AcDbEntity
  8
7
100
AcDbVertex
100
AcDb2dVertex
 10
75.39100000000001
 20
175.492
 30
0.0
  0
VERTEX
  5
816
330
78A
100
AcDbEntity
  8
7
100
AcDbVertex
100
AcDb2dVertex
 10
76.13500000000001
 20
175.37
 30
0.0
  0
VERTEX
  5
817
330
78A
100
AcDbEntity
  8
7
100
AcDbVertex
100
AcDb2dVertex
 10
76.88200000000001
 20
175.264
 30
0.0
  0
VERTEX
  5
818
330
78A
100
AcDbEntity
  8
7
100
AcDbVertex
100
AcDb2dVertex
 10
77.62699999999999
 20
175.176
 30
0.0
  0
VERTEX
  5
819
330
78A
100
AcDbEntity
  8
7
100
AcDbVertex
100
AcDb2dVertex
 10
78.37399999999999
 20
175.103
 30
0.0
  0
VERTEX
  5
81A
330
78A
100
AcDbEntity
  8
7
100
AcDbVertex
100
AcDb2dVertex
 10
79.86399999999999
 20
174.99
 30
0.0
  0
VERTEX
  5
81B
330
78A
100
AcDbEntity
  8
7
100
AcDbVertex
100
AcDb2dVertex
 10
81.35699999999999
 20
174.904
 30
0.0
  0
VERTEX
  5
81C
330
78A
100
AcDbEntity
  8
7
100
AcDbVertex
100
AcDb2dVertex
 10
82.848
 20
174.83
 30
0.0
  0
VERTEX
  5
81D
330
78A
100
AcDbEntity
  8
7
100
AcDbVertex
100
AcDb2dVertex
 10
84.34000000000001
 20
174.767
 30
0.0
  0
VERTEX
  5
81E
330
78A
100
AcDbEntity
  8
7
100
AcDbVertex
100
AcDb2dVertex
 10
85.83099999999999
 20
174.717
 30
0.0
  0
VERTEX
  5
81F
330
78A
100
AcDbEntity
  8
7
100
AcDbVertex
100
AcDb2dVertex
 10
87.323
 20
174.68
 30
0.0
  0
VERTEX
  5
820
330
78A
100
AcDbEntity
  8
7
100
AcDbVertex
100
AcDb2dVertex
 10
88.81399999999999
 20
174.654
 30
0.0
  0
VERTEX
  5
821
330
78A
100
AcDbEntity
  8
7
100
AcDbVertex
100
AcDb2dVertex
 10
90.30599999999999
 20
174.639
 30
0.0
  0
VERTEX
  5
822
330
78A
100
AcDbEntity
  8
7
100
AcDbVertex
100
AcDb2dVertex
 10
91.79700000000002
 20
174.633
 30
0.0
  0
VERTEX
  5
823
330
78A
100
AcDbEntity
  8
7
100
AcDbVertex
100
AcDb2dVertex
 10
93.289
 20
174.637
 30
0.0
  0
VERTEX
  5
824
330
78A
100
AcDbEntity
  8
7
100
AcDbVertex
100
AcDb2dVertex
 10
94.78100000000001
 20
174.648
 30
0.0
  0
VERTEX
  5
825
330
78A
100
AcDbEntity
  8
7
100
AcDbVertex
100
AcDb2dVertex
 10
96.27200000000001
 20
174.667
 30
0.0
  0
VERTEX
  5
826
330
78A
100
AcDbEntity
  8
7
100
AcDbVertex
100
AcDb2dVertex
 10
97.764
 20
174.693
 30
0.0
  0
VERTEX
  5
827
330
78A
100
AcDbEntity
  8
7
100
AcDbVertex
100
AcDb2dVertex
 10
99.25499999999999
 20
174.724
 30
0.0
  0
VERTEX
  5
828
330
78A
100
AcDbEntity
  8
7
100
AcDbVertex
100
AcDb2dVertex
 10
100.747
 20
174.761
 30
0.0
  0
VERTEX
  5
829
330
78A
100
AcDbEntity
  8
7
100
AcDbVertex
100
AcDb2dVertex
 10
102.238
 20
174.802
 30
0.0
  0
VERTEX
  5
82A
330
78A
100
AcDbEntity
  8
7
100
AcDbVertex
100
AcDb2dVertex
 10
103.73
 20
174.847
 30
0.0
  0
VERTEX
  5
82B
330
78A
100
AcDbEntity
  8
7
100
AcDbVertex
100
AcDb2dVertex
 10
105.221
 20
174.896
 30
0.0
  0
VERTEX
  5
82C
330
78A
100
AcDbEntity
  8
7
100
AcDbVertex
100
AcDb2dVertex
 10
106.713
 20
174.947
 30
0.0
  0
VERTEX
  5
82D
330
78A
100
AcDbEntity
  8
7
100
AcDbVertex
100
AcDb2dVertex
 10
108.204
 20
175.0
 30
0.0
  0
VERTEX
  5
82E
330
78A
100
AcDbEntity
  8
7
100
AcDbVertex
100
AcDb2dVertex
 10
109.696
 20
175.055
 30
0.0
  0
VERTEX
  5
82F
330
78A
100
AcDbEntity
  8
7
100
AcDbVertex
100
AcDb2dVertex
 10
111.187
 20
175.112
 30
0.0
  0
VERTEX
  5
830
330
78A
100
AcDbEntity
  8
7
100
AcDbVertex
100
AcDb2dVertex
 10
112.678
 20
175.168
 30
0.0
  0
VERTEX
  5
831
330
78A
100
AcDbEntity
  8
7
100
AcDbVertex
100
AcDb2dVertex
 10
114.17
 20
175.225
 30
0.0
  0
VERTEX
  5
832
330
78A
100
AcDbEntity
  8
7
100
AcDbVertex
100
AcDb2dVertex
 10
115.661
 20
175.281
 30
0.0
  0
VERTEX
  5
833
330
78A
100
AcDbEntity
  8
7
100
AcDbVertex
100
AcDb2dVertex
 10
117.153
 20
175.337
 30
0.0
  0
VERTEX
  5
834
330
78A
100
AcDbEntity
  8
7
100
AcDbVertex
100
AcDb2dVertex
 10
118.644
 20
175.393
 30
0.0
  0
VERTEX
  5
835
330
78A
100
AcDbEntity
  8
7
100
AcDbVertex
100
AcDb2dVertex
 10
120.136
 20
175.447
 30
0.0
  0
VERTEX
  5
836
330
78A
100
AcDbEntity
  8
7
100
AcDbVertex
100
AcDb2dVertex
 10
121.627
 20
175.502
 30
0.0
  0
VERTEX
  5
837
330
78A
100
AcDbEntity
  8
7
100
AcDbVertex
100
AcDb2dVertex
 10
123.119
 20
175.556
 30
0.0
  0
VERTEX
  5
838
330
78A
100
AcDbEntity
  8
7
100
AcDbVertex
100
AcDb2dVertex
 10
124.61
 20
175.611
 30
0.0
  0
VERTEX
  5
839
330
78A
100
AcDbEntity
  8
7
100
AcDbVertex
100
AcDb2dVertex
 10
126.102
 20
175.665
 30
0.0
  0
VERTEX
  5
83A
330
78A
100
AcDbEntity
  8
7
100
AcDbVertex
100
AcDb2dVertex
 10
127.594
 20
175.719
 30
0.0
  0
VERTEX
  5
83B
330
78A
100
AcDbEntity
  8
7
100
AcDbVertex
100
AcDb2dVertex
 10
129.085
 20
175.773
 30
0.0
  0
VERTEX
  5
83C
330
78A
100
AcDbEntity
  8
7
100
AcDbVertex
100
AcDb2dVertex
 10
130.577
 20
175.827
 30
0.0
  0
VERTEX
  5
83D
330
78A
100
AcDbEntity
  8
7
100
AcDbVertex
100
AcDb2dVertex
 10
132.068
 20
175.882
 30
0.0
  0
VERTEX
  5
83E
330
78A
100
AcDbEntity
  8
7
100
AcDbVertex
100
AcDb2dVertex
 10
133.56
 20
175.937
 30
0.0
  0
VERTEX
  5
83F
330
78A
100
AcDbEntity
  8
7
100
AcDbVertex
100
AcDb2dVertex
 10
135.051
 20
175.991
 30
0.0
  0
VERTEX
  5
840
330
78A
100
AcDbEntity
  8
7
100
AcDbVertex
100
AcDb2dVertex
 10
136.543
 20
176.046
 30
0.0
  0
VERTEX
  5
841
330
78A
100
AcDbEntity
  8
7
100
AcDbVertex
100
AcDb2dVertex
 10
138.034
 20
176.101
 30
0.0
  0
VERTEX
  5
842
330
78A
100
AcDbEntity
  8
7
100
AcDbVertex
100
AcDb2dVertex
 10
139.526
 20
176.156
 30
0.0
  0
VERTEX
  5
843
330
78A
100
AcDbEntity
  8
7
100
AcDbVertex
100
AcDb2dVertex
 10
141.017
 20
176.211
 30
0.0
  0
VERTEX
  5
844
330
78A
100
AcDbEntity
  8
7
100
AcDbVertex
100
AcDb2dVertex
 10
142.508
 20
176.266
 30
0.0
  0
VERTEX
  5
845
330
78A
100
AcDbEntity
  8
7
100
AcDbVertex
100
AcDb2dVertex
 10
144.0
 20
176.321
 30
0.0
  0
VERTEX
  5
846
330
78A
100
AcDbEntity
  8
7
100
AcDbVertex
100
AcDb2dVertex
 10
145.491
 20
176.3759999999999
 30
0.0
  0
VERTEX
  5
847
330
78A
100
AcDbEntity
  8
7
100
AcDbVertex
100
AcDb2dVertex
 10
146.983
 20
176.431
 30
0.0
  0
VERTEX
  5
848
330
78A
100
AcDbEntity
  8
7
100
AcDbVertex
100
AcDb2dVertex
 10
148.474
 20
176.485
 30
0.0
  0
VERTEX
  5
849
330
78A
100
AcDbEntity
  8
7
100
AcDbVertex
100
AcDb2dVertex
 10
149.966
 20
176.54
 30
0.0
  0
VERTEX
  5
84A
330
78A
100
AcDbEntity
  8
7
100
AcDbVertex
100
AcDb2dVertex
 10
151.457
 20
176.595
 30
0.0
  0
VERTEX
  5
84B
330
78A
100
AcDbEntity
  8
7
100
AcDbVertex
100
AcDb2dVertex
 10
152.949
 20
176.65
 30
0.0
  0
VERTEX
  5
84C
330
78A
100
AcDbEntity
  8
7
100
AcDbVertex
100
AcDb2dVertex
 10
154.44
 20
176.704
 30
0.0
  0
VERTEX
  5
84D
330
78A
100
AcDbEntity
  8
7
100
AcDbVertex
100
AcDb2dVertex
 10
155.932
 20
176.759
 30
0.0
  0
VERTEX
  5
84E
330
78A
100
AcDbEntity
  8
7
100
AcDbVertex
100
AcDb2dVertex
 10
157.424
 20
176.814
 30
0.0
  0
VERTEX
  5
84F
330
78A
100
AcDbEntity
  8
7
100
AcDbVertex
100
AcDb2dVertex
 10
158.915
 20
176.869
 30
0.0
  0
VERTEX
  5
850
330
78A
100
AcDbEntity
  8
7
100
AcDbVertex
100
AcDb2dVertex
 10
160.407
 20
176.923
 30
0.0
  0
VERTEX
  5
851
330
78A
100
AcDbEntity
  8
7
100
AcDbVertex
100
AcDb2dVertex
 10
161.898
 20
176.978
 30
0.0
  0
VERTEX
  5
852
330
78A
100
AcDbEntity
  8
7
100
AcDbVertex
100
AcDb2dVertex
 10
163.39
 20
177.033
 30
0.0
  0
VERTEX
  5
853
330
78A
100
AcDbEntity
  8
7
100
AcDbVertex
100
AcDb2dVertex
 10
164.8809999999999
 20
177.088
 30
0.0
  0
VERTEX
  5
854
330
78A
100
AcDbEntity
  8
7
100
AcDbVertex
100
AcDb2dVertex
 10
166.373
 20
177.142
 30
0.0
  0
VERTEX
  5
855
330
78A
100
AcDbEntity
  8
7
100
AcDbVertex
100
AcDb2dVertex
 10
167.864
 20
177.197
 30
0.0
  0
VERTEX
  5
856
330
78A
100
AcDbEntity
  8
7
100
AcDbVertex
100
AcDb2dVertex
 10
169.356
 20
177.252
 30
0.0
  0
VERTEX
  5
857
330
78A
100
AcDbEntity
  8
7
100
AcDbVertex
100
AcDb2dVertex
 10
170.847
 20
177.307
 30
0.0
  0
VERTEX
  5
858
330
78A
100
AcDbEntity
  8
7
100
AcDbVertex
100
AcDb2dVertex
 10
172.338
 20
177.362
 30
0.0
  0
VERTEX
  5
859
330
78A
100
AcDbEntity
  8
7
100
AcDbVertex
100
AcDb2dVertex
 10
173.83
 20
177.416
 30
0.0
  0
VERTEX
  5
85A
330
78A
100
AcDbEntity
  8
7
100
AcDbVertex
100
AcDb2dVertex
 10
175.321
 20
177.4709999999999
 30
0.0
  0
VERTEX
  5
85B
330
78A
100
AcDbEntity
  8
7
100
AcDbVertex
100
AcDb2dVertex
 10
176.813
 20
177.526
 30
0.0
  0
VERTEX
  5
85C
330
78A
100
AcDbEntity
  8
7
100
AcDbVertex
100
AcDb2dVertex
 10
178.304
 20
177.581
 30
0.0
  0
VERTEX
  5
85D
330
78A
100
AcDbEntity
  8
7
100
AcDbVertex
100
AcDb2dVertex
 10
179.796
 20
177.635
 30
0.0
  0
VERTEX
  5
85E
330
78A
100
AcDbEntity
  8
7
100
AcDbVertex
100
AcDb2dVertex
 10
181.288
 20
177.69
 30
0.0
  0
VERTEX
  5
85F
330
78A
100
AcDbEntity
  8
7
100
AcDbVertex
100
AcDb2dVertex
 10
182.779
 20
177.745
 30
0.0
  0
VERTEX
  5
860
330
78A
100
AcDbEntity
  8
7
100
AcDbVertex
100
AcDb2dVertex
 10
184.27
 20
177.8
 30
0.0
  0
VERTEX
  5
861
330
78A
100
AcDbEntity
  8
7
100
AcDbVertex
100
AcDb2dVertex
 10
185.762
 20
177.855
 30
0.0
  0
VERTEX
  5
862
330
78A
100
AcDbEntity
  8
7
100
AcDbVertex
100
AcDb2dVertex
 10
187.254
 20
177.909
 30
0.0
  0
VERTEX
  5
863
330
78A
100
AcDbEntity
  8
7
100
AcDbVertex
100
AcDb2dVertex
 10
188.745
 20
177.964
 30
0.0
  0
VERTEX
  5
864
330
78A
100
AcDbEntity
  8
7
100
AcDbVertex
100
AcDb2dVertex
 10
190.236
 20
178.019
 30
0.0
  0
VERTEX
  5
865
330
78A
100
AcDbEntity
  8
7
100
AcDbVertex
100
AcDb2dVertex
 10
191.728
 20
178.074
 30
0.0
  0
VERTEX
  5
866
330
78A
100
AcDbEntity
  8
7
100
AcDbVertex
100
AcDb2dVertex
 10
193.22
 20
178.128
 30
0.0
  0
VERTEX
  5
867
330
78A
100
AcDbEntity
  8
7
100
AcDbVertex
100
AcDb2dVertex
 10
194.711
 20
178.183
 30
0.0
  0
VERTEX
  5
868
330
78A
100
AcDbEntity
  8
7
100
AcDbVertex
100
AcDb2dVertex
 10
196.203
 20
178.238
 30
0.0
  0
VERTEX
  5
869
330
78A
100
AcDbEntity
  8
7
100
AcDbVertex
100
AcDb2dVertex
 10
197.694
 20
178.293
 30
0.0
  0
VERTEX
  5
86A
330
78A
100
AcDbEntity
  8
7
100
AcDbVertex
100
AcDb2dVertex
 10
199.185
 20
178.348
 30
0.0
  0
VERTEX
  5
86B
330
78A
100
AcDbEntity
  8
7
100
AcDbVertex
100
AcDb2dVertex
 10
200.677
 20
178.402
 30
0.0
  0
VERTEX
  5
86C
330
78A
100
AcDbEntity
  8
7
100
AcDbVertex
100
AcDb2dVertex
 10
202.169
 20
178.457
 30
0.0
  0
VERTEX
  5
86D
330
78A
100
AcDbEntity
  8
7
100
AcDbVertex
100
AcDb2dVertex
 10
203.66
 20
178.512
 30
0.0
  0
VERTEX
  5
86E
330
78A
100
AcDbEntity
  8
7
100
AcDbVertex
100
AcDb2dVertex
 10
205.151
 20
178.567
 30
0.0
  0
VERTEX
  5
86F
330
78A
100
AcDbEntity
  8
7
100
AcDbVertex
100
AcDb2dVertex
 10
206.643
 20
178.621
 30
0.0
  0
VERTEX
  5
870
330
78A
100
AcDbEntity
  8
7
100
AcDbVertex
100
AcDb2dVertex
 10
208.135
 20
178.676
 30
0.0
  0
VERTEX
  5
871
330
78A
100
AcDbEntity
  8
7
100
AcDbVertex
100
AcDb2dVertex
 10
209.626
 20
178.731
 30
0.0
  0
VERTEX
  5
872
330
78A
100
AcDbEntity
  8
7
100
AcDbVertex
100
AcDb2dVertex
 10
211.117
 20
178.786
 30
0.0
  0
VERTEX
  5
873
330
78A
100
AcDbEntity
  8
7
100
AcDbVertex
100
AcDb2dVertex
 10
212.609
 20
178.84
 30
0.0
  0
VERTEX
  5
874
330
78A
100
AcDbEntity
  8
7
100
AcDbVertex
100
AcDb2dVertex
 10
213.355
 20
178.868
 30
0.0
  0
VERTEX
  5
875
330
78A
100
AcDbEntity
  8
7
100
AcDbVertex
100
AcDb2dVertex
 10
214.101
 20
178.895
 30
0.0
  0
VERTEX
  5
876
330
78A
100
AcDbEntity
  8
7
100
AcDbVertex
100
AcDb2dVertex
 10
214.846
 20
178.923
 30
0.0
  0
VERTEX
  5
877
330
78A
100
AcDbEntity
  8
7
100
AcDbVertex
100
AcDb2dVertex
 10
215.592
 20
178.95
 30
0.0
  0
VERTEX
  5
878
330
78A
100
AcDbEntity
  8
7
100
AcDbVertex
100
AcDb2dVertex
 10
216.338
 20
178.977
 30
0.0
  0
VERTEX
  5
879
330
78A
100
AcDbEntity
  8
7
100
AcDbVertex
100
AcDb2dVertex
 10
217.084
 20
179.005
 30
0.0
  0
VERTEX
  5
87A
330
78A
100
AcDbEntity
  8
7
100
AcDbVertex
100
AcDb2dVertex
 10
217.829
 20
179.032
 30
0.0
  0
VERTEX
  5
87B
330
78A
100
AcDbEntity
  8
7
100
AcDbVertex
100
AcDb2dVertex
 10
218.575
 20
179.06
 30
0.0
  0
VERTEX
  5
87C
330
78A
100
AcDbEntity
  8
7
100
AcDbVertex
100
AcDb2dVertex
 10
218.575
 20
179.238
 30
0.0
  0
SEQEND
  5
87D
330
78A
100
AcDbEntity
  8
7
  0
ENDBLK
  5
87F
330
785
100
AcDbEntity
  8
0
100
AcDbBlockEnd
  0
BLOCK
  5
893
330
889
100
AcDbEntity
  8
0
100
AcDbBlockBegin
  2
*D11
 70
     1
 10
0.0
 20
0.0
 30
0.0
  3
*D11
  1

  0
LINE
  5
897
330
889
100
AcDbEntity
  8
AM_5
100
AcDbLine
 10
-882.9761972081486
 20
1147.723067776007
 30
0.0
 11
-882.9761972081486
 21
1170.894872001021
 31
0.0
  0
LINE
  5
898
330
889
100
AcDbEntity
  8
AM_5
100
AcDbLine
 10
-716.5495014677563
 20
1147.723067776007
 30
0.0
 11
-716.5495014677563
 21
1170.894872001021
 31
0.0
  0
LINE
  5
899
330
889
100
AcDbEntity
  8
AM_5
100
AcDbLine
 10
-880.4761972081488
 20
1169.894872001021
 30
0.0
 11
-719.0495014677562
 21
1169.894872001021
 31
0.0
  0
SOLID
  5
89A
330
889
100
AcDbEntity
  8
AM_5
100
AcDbTrace
 10
-880.4761972081488
 20
1170.311538667688
 30
0.0
 11
-880.4761972081488
 21
1169.478205334355
 31
0.0
 12
-882.9761972081486
 22
1169.894872001021
 32
0.0
 13
-882.9761972081486
 23
1169.894872001021
 33
0.0
  0
SOLID
  5
89B
330
889
100
AcDbEntity
  8
AM_5
100
AcDbTrace
 10
-719.0495014677562
 20
1170.311538667688
 30
0.0
 11
-719.0495014677562
 21
1169.478205334355
 31
0.0
 12
-716.5495014677563
 22
1169.894872001021
 32
0.0
 13
-716.5495014677563
 23
1169.894872001021
 33
0.0
  0
MTEXT
  5
89C
330
889
100
AcDbEntity
  8
AM_5
 62
     2
100
AcDbMText
 10
-799.7628493379525
 20
1173.144872001022
 30
0.0
 40
3.5
 41
0.0
 71
     5
 72
     1
  1
166.43
 73
     1
 44
1.0
1001
ACAD
1000
MTEXTBEGIN
1070
    73
1070
     1
1070
    44
1040
1.0
1070
    74
1070
     0
1000
MTEXTEND
  0
POINT
  5
89D
330
889
100
AcDbEntity
  8
Defpoints
 62
     0
100
AcDbPoint
 10
-882.9761972081486
 20
1146.723067776006
 30
0.0
  0
POINT
  5
89E
330
889
100
AcDbEntity
  8
Defpoints
 62
     0
100
AcDbPoint
 10
-716.5495014677563
 20
1146.723067776006
 30
0.0
  0
POINT
  5
89F
330
889
100
AcDbEntity
  8
Defpoints
 62
     0
100
AcDbPoint
 10
-716.5495014677563
 20
1169.894872001021
 30
0.0
  0
ENDBLK
  5
894
330
889
100
AcDbEntity
  8
0
100
AcDbBlockEnd
  0
BLOCK
  5
99C
330
8A3
100
AcDbEntity
  8
0
100
AcDbBlockBegin
  2
CLARK Y - 166
 70
     0
 10
0.0
 20
0.0
 30
0.0
  3
CLARK Y - 166
  1

  0
POLYLINE
  5
A20
330
8A3
100
AcDbEntity
  8
7
  6
Continuous
100
AcDb2dPolyline
 66
     1
 10
0.0
 20
0.0
 30
0.0
  0
VERTEX
  5
A21
330
A20
100
AcDbEntity
  8
7
100
AcDbVertex
100
AcDb2dVertex
 10
60.905
 20
177.567
 30
0.0
  0
VERTEX
  5
A22
330
A20
100
AcDbEntity
  8
7
100
AcDbVertex
100
AcDb2dVertex
 10
227.095
 20
177.567
 30
0.0
  0
SEQEND
  5
A23
330
A20
100
AcDbEntity
  8
7
  0
POLYLINE
  5
A24
330
8A3
100
AcDbEntity
  8
7
  6
Continuous
100
AcDb2dPolyline
 66
     1
 10
0.0
 20
0.0
 30
0.0
  0
VERTEX
  5
A25
330
A24
100
AcDbEntity
  8
7
100
AcDbVertex
100
AcDb2dVertex
 10
227.095
 20
177.666
 30
0.0
  0
VERTEX
  5
A26
330
A24
100
AcDbEntity
  8
7
100
AcDbVertex
100
AcDb2dVertex
 10
226.264
 20
177.863
 30
0.0
  0
VERTEX
  5
A27
330
A24
100
AcDbEntity
  8
7
100
AcDbVertex
100
AcDb2dVertex
 10
225.433
 20
178.06
 30
0.0
  0
VERTEX
  5
A28
330
A24
100
AcDbEntity
  8
7
100
AcDbVertex
100
AcDb2dVertex
 10
224.602
 20
178.257
 30
0.0
  0
VERTEX
  5
A29
330
A24
100
AcDbEntity
  8
7
100
AcDbVertex
100
AcDb2dVertex
 10
223.771
 20
178.453
 30
0.0
  0
VERTEX
  5
A2A
330
A24
100
AcDbEntity
  8
7
100
AcDbVertex
100
AcDb2dVertex
 10
222.94
 20
178.649
 30
0.0
  0
VERTEX
  5
A2B
330
A24
100
AcDbEntity
  8
7
100
AcDbVertex
100
AcDb2dVertex
 10
222.109
 20
178.844
 30
0.0
  0
VERTEX
  5
A2C
330
A24
100
AcDbEntity
  8
7
100
AcDbVertex
100
AcDb2dVertex
 10
221.278
 20
179.039
 30
0.0
  0
VERTEX
  5
A2D
330
A24
100
AcDbEntity
  8
7
100
AcDbVertex
100
AcDb2dVertex
 10
220.447
 20
179.232
 30
0.0
  0
VERTEX
  5
A2E
330
A24
100
AcDbEntity
  8
7
100
AcDbVertex
100
AcDb2dVertex
 10
218.786
 20
179.617
 30
0.0
  0
VERTEX
  5
A2F
330
A24
100
AcDbEntity
  8
7
100
AcDbVertex
100
AcDb2dVertex
 10
217.124
 20
179.997
 30
0.0
  0
VERTEX
  5
A30
330
A24
100
AcDbEntity
  8
7
100
AcDbVertex
100
AcDb2dVertex
 10
215.462
 20
180.372
 30
0.0
  0
VERTEX
  5
A31
330
A24
100
AcDbEntity
  8
7
100
AcDbVertex
100
AcDb2dVertex
 10
213.8
 20
180.743
 30
0.0
  0
VERTEX
  5
A32
330
A24
100
AcDbEntity
  8
7
100
AcDbVertex
100
AcDb2dVertex
 10
212.138
 20
181.11
 30
0.0
  0
VERTEX
  5
A33
330
A24
100
AcDbEntity
  8
7
100
AcDbVertex
100
AcDb2dVertex
 10
210.476
 20
181.472
 30
0.0
  0
VERTEX
  5
A34
330
A24
100
AcDbEntity
  8
7
100
AcDbVertex
100
AcDb2dVertex
 10
208.815
 20
181.831
 30
0.0
  0
VERTEX
  5
A35
330
A24
100
AcDbEntity
  8
7
100
AcDbVertex
100
AcDb2dVertex
 10
207.152
 20
182.185
 30
0.0
  0
VERTEX
  5
A36
330
A24
100
AcDbEntity
  8
7
100
AcDbVertex
100
AcDb2dVertex
 10
205.491
 20
182.535
 30
0.0
  0
VERTEX
  5
A37
330
A24
100
AcDbEntity
  8
7
100
AcDbVertex
100
AcDb2dVertex
 10
203.828
 20
182.88
 30
0.0
  0
VERTEX
  5
A38
330
A24
100
AcDbEntity
  8
7
100
AcDbVertex
100
AcDb2dVertex
 10
202.167
 20
183.221
 30
0.0
  0
VERTEX
  5
A39
330
A24
100
AcDbEntity
  8
7
100
AcDbVertex
100
AcDb2dVertex
 10
200.505
 20
183.558
 30
0.0
  0
VERTEX
  5
A3A
330
A24
100
AcDbEntity
  8
7
100
AcDbVertex
100
AcDb2dVertex
 10
198.843
 20
183.89
 30
0.0
  0
VERTEX
  5
A3B
330
A24
100
AcDbEntity
  8
7
100
AcDbVertex
100
AcDb2dVertex
 10
197.1809999999999
 20
184.218
 30
0.0
  0
VERTEX
  5
A3C
330
A24
100
AcDbEntity
  8
7
100
AcDbVertex
100
AcDb2dVertex
 10
195.519
 20
184.541
 30
0.0
  0
VERTEX
  5
A3D
330
A24
100
AcDbEntity
  8
7
100
AcDbVertex
100
AcDb2dVertex
 10
193.857
 20
184.86
 30
0.0
  0
VERTEX
  5
A3E
330
A24
100
AcDbEntity
  8
7
100
AcDbVertex
100
AcDb2dVertex
 10
192.196
 20
185.173
 30
0.0
  0
VERTEX
  5
A3F
330
A24
100
AcDbEntity
  8
7
100
AcDbVertex
100
AcDb2dVertex
 10
190.533
 20
185.482
 30
0.0
  0
VERTEX
  5
A40
330
A24
100
AcDbEntity
  8
7
100
AcDbVertex
100
AcDb2dVertex
 10
188.872
 20
185.786
 30
0.0
  0
VERTEX
  5
A41
330
A24
100
AcDbEntity
  8
7
100
AcDbVertex
100
AcDb2dVertex
 10
187.209
 20
186.085
 30
0.0
  0
VERTEX
  5
A42
330
A24
100
AcDbEntity
  8
7
100
AcDbVertex
100
AcDb2dVertex
 10
185.548
 20
186.379
 30
0.0
  0
VERTEX
  5
A43
330
A24
100
AcDbEntity
  8
7
100
AcDbVertex
100
AcDb2dVertex
 10
183.886
 20
186.668
 30
0.0
  0
VERTEX
  5
A44
330
A24
100
AcDbEntity
  8
7
100
AcDbVertex
100
AcDb2dVertex
 10
182.224
 20
186.953
 30
0.0
  0
VERTEX
  5
A45
330
A24
100
AcDbEntity
  8
7
100
AcDbVertex
100
AcDb2dVertex
 10
180.562
 20
187.232
 30
0.0
  0
VERTEX
  5
A46
330
A24
100
AcDbEntity
  8
7
100
AcDbVertex
100
AcDb2dVertex
 10
178.9
 20
187.507
 30
0.0
  0
VERTEX
  5
A47
330
A24
100
AcDbEntity
  8
7
100
AcDbVertex
100
AcDb2dVertex
 10
177.238
 20
187.776
 30
0.0
  0
VERTEX
  5
A48
330
A24
100
AcDbEntity
  8
7
100
AcDbVertex
100
AcDb2dVertex
 10
175.577
 20
188.04
 30
0.0
  0
VERTEX
  5
A49
330
A24
100
AcDbEntity
  8
7
100
AcDbVertex
100
AcDb2dVertex
 10
173.914
 20
188.3
 30
0.0
  0
VERTEX
  5
A4A
330
A24
100
AcDbEntity
  8
7
100
AcDbVertex
100
AcDb2dVertex
 10
172.253
 20
188.554
 30
0.0
  0
VERTEX
  5
A4B
330
A24
100
AcDbEntity
  8
7
100
AcDbVertex
100
AcDb2dVertex
 10
170.59
 20
188.802
 30
0.0
  0
VERTEX
  5
A4C
330
A24
100
AcDbEntity
  8
7
100
AcDbVertex
100
AcDb2dVertex
 10
168.929
 20
189.044
 30
0.0
  0
VERTEX
  5
A4D
330
A24
100
AcDbEntity
  8
7
100
AcDbVertex
100
AcDb2dVertex
 10
167.267
 20
189.28
 30
0.0
  0
VERTEX
  5
A4E
330
A24
100
AcDbEntity
  8
7
100
AcDbVertex
100
AcDb2dVertex
 10
165.605
 20
189.51
 30
0.0
  0
VERTEX
  5
A4F
330
A24
100
AcDbEntity
  8
7
100
AcDbVertex
100
AcDb2dVertex
 10
163.943
 20
189.733
 30
0.0
  0
VERTEX
  5
A50
330
A24
100
AcDbEntity
  8
7
100
AcDbVertex
100
AcDb2dVertex
 10
162.281
 20
189.949
 30
0.0
  0
VERTEX
  5
A51
330
A24
100
AcDbEntity
  8
7
100
AcDbVertex
100
AcDb2dVertex
 10
160.619
 20
190.158
 30
0.0
  0
VERTEX
  5
A52
330
A24
100
AcDbEntity
  8
7
100
AcDbVertex
100
AcDb2dVertex
 10
158.958
 20
190.359
 30
0.0
  0
VERTEX
  5
A53
330
A24
100
AcDbEntity
  8
7
100
AcDbVertex
100
AcDb2dVertex
 10
157.295
 20
190.553
 30
0.0
  0
VERTEX
  5
A54
330
A24
100
AcDbEntity
  8
7
100
AcDbVertex
100
AcDb2dVertex
 10
155.634
 20
190.74
 30
0.0
  0
VERTEX
  5
A55
330
A24
100
AcDbEntity
  8
7
100
AcDbVertex
100
AcDb2dVertex
 10
153.971
 20
190.92
 30
0.0
  0
VERTEX
  5
A56
330
A24
100
AcDbEntity
  8
7
100
AcDbVertex
100
AcDb2dVertex
 10
152.31
 20
191.091
 30
0.0
  0
VERTEX
  5
A57
330
A24
100
AcDbEntity
  8
7
100
AcDbVertex
100
AcDb2dVertex
 10
150.648
 20
191.256
 30
0.0
  0
VERTEX
  5
A58
330
A24
100
AcDbEntity
  8
7
100
AcDbVertex
100
AcDb2dVertex
 10
148.986
 20
191.413
 30
0.0
  0
VERTEX
  5
A59
330
A24
100
AcDbEntity
  8
7
100
AcDbVertex
100
AcDb2dVertex
 10
147.324
 20
191.562
 30
0.0
  0
VERTEX
  5
A5A
330
A24
100
AcDbEntity
  8
7
100
AcDbVertex
100
AcDb2dVertex
 10
145.662
 20
191.704
 30
0.0
  0
VERTEX
  5
A5B
330
A24
100
AcDbEntity
  8
7
100
AcDbVertex
100
AcDb2dVertex
 10
144.0
 20
191.838
 30
0.0
  0
VERTEX
  5
A5C
330
A24
100
AcDbEntity
  8
7
100
AcDbVertex
100
AcDb2dVertex
 10
142.338
 20
191.965
 30
0.0
  0
VERTEX
  5
A5D
330
A24
100
AcDbEntity
  8
7
100
AcDbVertex
100
AcDb2dVertex
 10
140.676
 20
192.084
 30
0.0
  0
VERTEX
  5
A5E
330
A24
100
AcDbEntity
  8
7
100
AcDbVertex
100
AcDb2dVertex
 10
139.015
 20
192.195
 30
0.0
  0
VERTEX
  5
A5F
330
A24
100
AcDbEntity
  8
7
100
AcDbVertex
100
AcDb2dVertex
 10
137.352
 20
192.298
 30
0.0
  0
VERTEX
  5
A60
330
A24
100
AcDbEntity
  8
7
100
AcDbVertex
100
AcDb2dVertex
 10
135.691
 20
192.392
 30
0.0
  0
VERTEX
  5
A61
330
A24
100
AcDbEntity
  8
7
100
AcDbVertex
100
AcDb2dVertex
 10
134.029
 20
192.477
 30
0.0
  0
VERTEX
  5
A62
330
A24
100
AcDbEntity
  8
7
100
AcDbVertex
100
AcDb2dVertex
 10
132.367
 20
192.552
 30
0.0
  0
VERTEX
  5
A63
330
A24
100
AcDbEntity
  8
7
100
AcDbVertex
100
AcDb2dVertex
 10
130.705
 20
192.618
 30
0.0
  0
VERTEX
  5
A64
330
A24
100
AcDbEntity
  8
7
100
AcDbVertex
100
AcDb2dVertex
 10
129.043
 20
192.673
 30
0.0
  0
VERTEX
  5
A65
330
A24
100
AcDbEntity
  8
7
100
AcDbVertex
100
AcDb2dVertex
 10
127.381
 20
192.718
 30
0.0
  0
VERTEX
  5
A66
330
A24
100
AcDbEntity
  8
7
100
AcDbVertex
100
AcDb2dVertex
 10
125.719
 20
192.753
 30
0.0
  0
VERTEX
  5
A67
330
A24
100
AcDbEntity
  8
7
100
AcDbVertex
100
AcDb2dVertex
 10
124.057
 20
192.776
 30
0.0
  0
VERTEX
  5
A68
330
A24
100
AcDbEntity
  8
7
100
AcDbVertex
100
AcDb2dVertex
 10
122.395
 20
192.79
 30
0.0
  0
VERTEX
  5
A69
330
A24
100
AcDbEntity
  8
7
100
AcDbVertex
100
AcDb2dVertex
 10
120.733
 20
192.794
 30
0.0
  0
VERTEX
  5
A6A
330
A24
100
AcDbEntity
  8
7
100
AcDbVertex
100
AcDb2dVertex
 10
119.071
 20
192.789
 30
0.0
  0
VERTEX
  5
A6B
330
A24
100
AcDbEntity
  8
7
100
AcDbVertex
100
AcDb2dVertex
 10
117.41
 20
192.774
 30
0.0
  0
VERTEX
  5
A6C
330
A24
100
AcDbEntity
  8
7
100
AcDbVertex
100
AcDb2dVertex
 10
115.748
 20
192.751
 30
0.0
  0
VERTEX
  5
A6D
330
A24
100
AcDbEntity
  8
7
100
AcDbVertex
100
AcDb2dVertex
 10
114.086
 20
192.721
 30
0.0
  0
VERTEX
  5
A6E
330
A24
100
AcDbEntity
  8
7
100
AcDbVertex
100
AcDb2dVertex
 10
112.424
 20
192.682
 30
0.0
  0
VERTEX
  5
A6F
330
A24
100
AcDbEntity
  8
7
100
AcDbVertex
100
AcDb2dVertex
 10
110.762
 20
192.637
 30
0.0
  0
VERTEX
  5
A70
330
A24
100
AcDbEntity
  8
7
100
AcDbVertex
100
AcDb2dVertex
 10
109.1
 20
192.584
 30
0.0
  0
VERTEX
  5
A71
330
A24
100
AcDbEntity
  8
7
100
AcDbVertex
100
AcDb2dVertex
 10
107.438
 20
192.524
 30
0.0
  0
VERTEX
  5
A72
330
A24
100
AcDbEntity
  8
7
100
AcDbVertex
100
AcDb2dVertex
 10
105.776
 20
192.454
 30
0.0
  0
VERTEX
  5
A73
330
A24
100
AcDbEntity
  8
7
100
AcDbVertex
100
AcDb2dVertex
 10
104.114
 20
192.3709999999999
 30
0.0
  0
VERTEX
  5
A74
330
A24
100
AcDbEntity
  8
7
100
AcDbVertex
100
AcDb2dVertex
 10
102.452
 20
192.275
 30
0.0
  0
VERTEX
  5
A75
330
A24
100
AcDbEntity
  8
7
100
AcDbVertex
100
AcDb2dVertex
 10
100.791
 20
192.163
 30
0.0
  0
VERTEX
  5
A76
330
A24
100
AcDbEntity
  8
7
100
AcDbVertex
100
AcDb2dVertex
 10
99.12799999999998
 20
192.033
 30
0.0
  0
VERTEX
  5
A77
330
A24
100
AcDbEntity
  8
7
100
AcDbVertex
100
AcDb2dVertex
 10
97.46700000000002
 20
191.8829999999999
 30
0.0
  0
VERTEX
  5
A78
330
A24
100
AcDbEntity
  8
7
100
AcDbVertex
100
AcDb2dVertex
 10
95.804
 20
191.71
 30
0.0
  0
VERTEX
  5
A79
330
A24
100
AcDbEntity
  8
7
100
AcDbVertex
100
AcDb2dVertex
 10
94.14299999999999
 20
191.513
 30
0.0
  0
VERTEX
  5
A7A
330
A24
100
AcDbEntity
  8
7
100
AcDbVertex
100
AcDb2dVertex
 10
92.47899999999999
 20
191.29
 30
0.0
  0
VERTEX
  5
A7B
330
A24
100
AcDbEntity
  8
7
100
AcDbVertex
100
AcDb2dVertex
 10
90.819
 20
191.039
 30
0.0
  0
VERTEX
  5
A7C
330
A24
100
AcDbEntity
  8
7
100
AcDbVertex
100
AcDb2dVertex
 10
89.15499999999999
 20
190.762
 30
0.0
  0
VERTEX
  5
A7D
330
A24
100
AcDbEntity
  8
7
100
AcDbVertex
100
AcDb2dVertex
 10
87.49500000000001
 20
190.458
 30
0.0
  0
VERTEX
  5
A7E
330
A24
100
AcDbEntity
  8
7
100
AcDbVertex
100
AcDb2dVertex
 10
85.83099999999999
 20
190.127
 30
0.0
  0
VERTEX
  5
A7F
330
A24
100
AcDbEntity
  8
7
100
AcDbVertex
100
AcDb2dVertex
 10
84.17200000000001
 20
189.771
 30
0.0
  0
VERTEX
  5
A80
330
A24
100
AcDbEntity
  8
7
100
AcDbVertex
100
AcDb2dVertex
 10
82.506
 20
189.385
 30
0.0
  0
VERTEX
  5
A81
330
A24
100
AcDbEntity
  8
7
100
AcDbVertex
100
AcDb2dVertex
 10
80.84799999999999
 20
188.971
 30
0.0
  0
VERTEX
  5
A82
330
A24
100
AcDbEntity
  8
7
100
AcDbVertex
100
AcDb2dVertex
 10
79.18099999999999
 20
188.52
 30
0.0
  0
VERTEX
  5
A83
330
A24
100
AcDbEntity
  8
7
100
AcDbVertex
100
AcDb2dVertex
 10
77.524
 20
188.0359999999999
 30
0.0
  0
VERTEX
  5
A84
330
A24
100
AcDbEntity
  8
7
100
AcDbVertex
100
AcDb2dVertex
 10
75.85600000000001
 20
187.509
 30
0.0
  0
VERTEX
  5
A85
330
A24
100
AcDbEntity
  8
7
100
AcDbVertex
100
AcDb2dVertex
 10
74.2
 20
186.945
 30
0.0
  0
VERTEX
  5
A86
330
A24
100
AcDbEntity
  8
7
100
AcDbVertex
100
AcDb2dVertex
 10
72.529
 20
186.332
 30
0.0
  0
VERTEX
  5
A87
330
A24
100
AcDbEntity
  8
7
100
AcDbVertex
100
AcDb2dVertex
 10
70.87600000000001
 20
185.669
 30
0.0
  0
VERTEX
  5
A88
330
A24
100
AcDbEntity
  8
7
100
AcDbVertex
100
AcDb2dVertex
 10
70.041
 20
185.307
 30
0.0
  0
VERTEX
  5
A89
330
A24
100
AcDbEntity
  8
7
100
AcDbVertex
100
AcDb2dVertex
 10
69.215
 20
184.925
 30
0.0
  0
VERTEX
  5
A8A
330
A24
100
AcDbEntity
  8
7
100
AcDbVertex
100
AcDb2dVertex
 10
68.37699999999999
 20
184.51
 30
0.0
  0
VERTEX
  5
A8B
330
A24
100
AcDbEntity
  8
7
100
AcDbVertex
100
AcDb2dVertex
 10
67.553
 20
184.069
 30
0.0
  0
VERTEX
  5
A8C
330
A24
100
AcDbEntity
  8
7
100
AcDbVertex
100
AcDb2dVertex
 10
66.70999999999999
 20
183.58
 30
0.0
  0
VERTEX
  5
A8D
330
A24
100
AcDbEntity
  8
7
100
AcDbVertex
100
AcDb2dVertex
 10
65.89100000000001
 20
183.054
 30
0.0
  0
VERTEX
  5
A8E
330
A24
100
AcDbEntity
  8
7
100
AcDbVertex
100
AcDb2dVertex
 10
65.041
 20
182.4429999999999
 30
0.0
  0
VERTEX
  5
A8F
330
A24
100
AcDbEntity
  8
7
100
AcDbVertex
100
AcDb2dVertex
 10
64.229
 20
181.783
 30
0.0
  0
VERTEX
  5
A90
330
A24
100
AcDbEntity
  8
7
100
AcDbVertex
100
AcDb2dVertex
 10
63.553
 20
181.171
 30
0.0
  0
VERTEX
  5
A91
330
A24
100
AcDbEntity
  8
7
100
AcDbVertex
100
AcDb2dVertex
 10
62.89899999999999
 20
180.534
 30
0.0
  0
VERTEX
  5
A92
330
A24
100
AcDbEntity
  8
7
100
AcDbVertex
100
AcDb2dVertex
 10
62.563
 20
180.195
 30
0.0
  0
VERTEX
  5
A93
330
A24
100
AcDbEntity
  8
7
100
AcDbVertex
100
AcDb2dVertex
 10
62.235
 20
179.849
 30
0.0
  0
VERTEX
  5
A94
330
A24
100
AcDbEntity
  8
7
100
AcDbVertex
100
AcDb2dVertex
 10
61.89
 20
179.459
 30
0.0
  0
VERTEX
  5
A95
330
A24
100
AcDbEntity
  8
7
100
AcDbVertex
100
AcDb2dVertex
 10
61.57
 20
179.05
 30
0.0
  0
VERTEX
  5
A96
330
A24
100
AcDbEntity
  8
7
100
AcDbVertex
100
AcDb2dVertex
 10
61.395
 20
178.795
 30
0.0
  0
VERTEX
  5
A97
330
A24
100
AcDbEntity
  8
7
100
AcDbVertex
100
AcDb2dVertex
 10
61.23699999999999
 20
178.5309999999999
 30
0.0
  0
VERTEX
  5
A98
330
A24
100
AcDbEntity
  8
7
100
AcDbVertex
100
AcDb2dVertex
 10
61.14899999999999
 20
178.361
 30
0.0
  0
VERTEX
  5
A99
330
A24
100
AcDbEntity
  8
7
100
AcDbVertex
100
AcDb2dVertex
 10
61.071
 20
178.1859999999999
 30
0.0
  0
VERTEX
  5
A9A
330
A24
100
AcDbEntity
  8
7
100
AcDbVertex
100
AcDb2dVertex
 10
61.027
 20
178.072
 30
0.0
  0
VERTEX
  5
A9B
330
A24
100
AcDbEntity
  8
7
100
AcDbVertex
100
AcDb2dVertex
 10
60.988
 20
177.955
 30
0.0
  0
VERTEX
  5
A9C
330
A24
100
AcDbEntity
  8
7
100
AcDbVertex
100
AcDb2dVertex
 10
60.937
 20
177.763
 30
0.0
  0
VERTEX
  5
A9D
330
A24
100
AcDbEntity
  8
7
100
AcDbVertex
100
AcDb2dVertex
 10
60.905
 20
177.567
 30
0.0
  0
VERTEX
  5
A9E
330
A24
100
AcDbEntity
  8
7
100
AcDbVertex
100
AcDb2dVertex
 10
60.905
 20
177.174
 30
0.0
  0
VERTEX
  5
A9F
330
A24
100
AcDbEntity
  8
7
100
AcDbVertex
100
AcDb2dVertex
 10
60.988
 20
176.79
 30
0.0
  0
VERTEX
  5
AA0
330
A24
100
AcDbEntity
  8
7
100
AcDbVertex
100
AcDb2dVertex
 10
61.027
 20
176.684
 30
0.0
  0
VERTEX
  5
AA1
330
A24
100
AcDbEntity
  8
7
100
AcDbVertex
100
AcDb2dVertex
 10
61.071
 20
176.579
 30
0.0
  0
VERTEX
  5
AA2
330
A24
100
AcDbEntity
  8
7
100
AcDbVertex
100
AcDb2dVertex
 10
61.14899999999999
 20
176.421
 30
0.0
  0
VERTEX
  5
AA3
330
A24
100
AcDbEntity
  8
7
100
AcDbVertex
100
AcDb2dVertex
 10
61.23699999999999
 20
176.268
 30
0.0
  0
VERTEX
  5
AA4
330
A24
100
AcDbEntity
  8
7
100
AcDbVertex
100
AcDb2dVertex
 10
61.395
 20
176.037
 30
0.0
  0
VERTEX
  5
AA5
330
A24
100
AcDbEntity
  8
7
100
AcDbVertex
100
AcDb2dVertex
 10
61.57
 20
175.819
 30
0.0
  0
VERTEX
  5
AA6
330
A24
100
AcDbEntity
  8
7
100
AcDbVertex
100
AcDb2dVertex
 10
61.887
 20
175.49
 30
0.0
  0
VERTEX
  5
AA7
330
A24
100
AcDbEntity
  8
7
100
AcDbVertex
100
AcDb2dVertex
 10
62.235
 20
175.192
 30
0.0
  0
VERTEX
  5
AA8
330
A24
100
AcDbEntity
  8
7
100
AcDbVertex
100
AcDb2dVertex
 10
62.559
 20
174.956
 30
0.0
  0
VERTEX
  5
AA9
330
A24
100
AcDbEntity
  8
7
100
AcDbVertex
100
AcDb2dVertex
 10
62.89899999999999
 20
174.746
 30
0.0
  0
VERTEX
  5
AAA
330
A24
100
AcDbEntity
  8
7
100
AcDbVertex
100
AcDb2dVertex
 10
63.548
 20
174.435
 30
0.0
  0
VERTEX
  5
AAB
330
A24
100
AcDbEntity
  8
7
100
AcDbVertex
100
AcDb2dVertex
 10
64.229
 20
174.197
 30
0.0
  0
VERTEX
  5
AAC
330
A24
100
AcDbEntity
  8
7
100
AcDbVertex
100
AcDb2dVertex
 10
65.05500000000001
 20
173.984
 30
0.0
  0
VERTEX
  5
AAD
330
A24
100
AcDbEntity
  8
7
100
AcDbVertex
100
AcDb2dVertex
 10
65.89100000000001
 20
173.81
 30
0.0
  0
VERTEX
  5
AAE
330
A24
100
AcDbEntity
  8
7
100
AcDbVertex
100
AcDb2dVertex
 10
66.721
 20
173.646
 30
0.0
  0
VERTEX
  5
AAF
330
A24
100
AcDbEntity
  8
7
100
AcDbVertex
100
AcDb2dVertex
 10
67.553
 20
173.491
 30
0.0
  0
VERTEX
  5
AB0
330
A24
100
AcDbEntity
  8
7
100
AcDbVertex
100
AcDb2dVertex
 10
68.382
 20
173.355
 30
0.0
  0
VERTEX
  5
AB1
330
A24
100
AcDbEntity
  8
7
100
AcDbVertex
100
AcDb2dVertex
 10
69.215
 20
173.238
 30
0.0
  0
VERTEX
  5
AB2
330
A24
100
AcDbEntity
  8
7
100
AcDbVertex
100
AcDb2dVertex
 10
70.045
 20
173.14
 30
0.0
  0
VERTEX
  5
AB3
330
A24
100
AcDbEntity
  8
7
100
AcDbVertex
100
AcDb2dVertex
 10
70.87600000000001
 20
173.058
 30
0.0
  0
VERTEX
  5
AB4
330
A24
100
AcDbEntity
  8
7
100
AcDbVertex
100
AcDb2dVertex
 10
72.53699999999999
 20
172.932
 30
0.0
  0
VERTEX
  5
AB5
330
A24
100
AcDbEntity
  8
7
100
AcDbVertex
100
AcDb2dVertex
 10
74.2
 20
172.837
 30
0.0
  0
VERTEX
  5
AB6
330
A24
100
AcDbEntity
  8
7
100
AcDbVertex
100
AcDb2dVertex
 10
75.86199999999999
 20
172.754
 30
0.0
  0
VERTEX
  5
AB7
330
A24
100
AcDbEntity
  8
7
100
AcDbVertex
100
AcDb2dVertex
 10
77.524
 20
172.684
 30
0.0
  0
VERTEX
  5
AB8
330
A24
100
AcDbEntity
  8
7
100
AcDbVertex
100
AcDb2dVertex
 10
79.18600000000001
 20
172.628
 30
0.0
  0
VERTEX
  5
AB9
330
A24
100
AcDbEntity
  8
7
100
AcDbVertex
100
AcDb2dVertex
 10
80.84799999999999
 20
172.587
 30
0.0
  0
VERTEX
  5
ABA
330
A24
100
AcDbEntity
  8
7
100
AcDbVertex
100
AcDb2dVertex
 10
82.51000000000001
 20
172.558
 30
0.0
  0
VERTEX
  5
ABB
330
A24
100
AcDbEntity
  8
7
100
AcDbVertex
100
AcDb2dVertex
 10
84.17200000000001
 20
172.541
 30
0.0
  0
VERTEX
  5
ABC
330
A24
100
AcDbEntity
  8
7
100
AcDbVertex
100
AcDb2dVertex
 10
85.83299999999999
 20
172.535
 30
0.0
  0
VERTEX
  5
ABD
330
A24
100
AcDbEntity
  8
7
100
AcDbVertex
100
AcDb2dVertex
 10
87.49500000000001
 20
172.539
 30
0.0
  0
VERTEX
  5
ABE
330
A24
100
AcDbEntity
  8
7
100
AcDbVertex
100
AcDb2dVertex
 10
89.15700000000001
 20
172.551
 30
0.0
  0
VERTEX
  5
ABF
330
A24
100
AcDbEntity
  8
7
100
AcDbVertex
100
AcDb2dVertex
 10
90.819
 20
172.5729999999999
 30
0.0
  0
VERTEX
  5
AC0
330
A24
100
AcDbEntity
  8
7
100
AcDbVertex
100
AcDb2dVertex
 10
92.481
 20
172.601
 30
0.0
  0
VERTEX
  5
AC1
330
A24
100
AcDbEntity
  8
7
100
AcDbVertex
100
AcDb2dVertex
 10
94.14299999999999
 20
172.636
 30
0.0
  0
VERTEX
  5
AC2
330
A24
100
AcDbEntity
  8
7
100
AcDbVertex
100
AcDb2dVertex
 10
95.805
 20
172.677
 30
0.0
  0
VERTEX
  5
AC3
330
A24
100
AcDbEntity
  8
7
100
AcDbVertex
100
AcDb2dVertex
 10
97.46700000000002
 20
172.723
 30
0.0
  0
VERTEX
  5
AC4
330
A24
100
AcDbEntity
  8
7
100
AcDbVertex
100
AcDb2dVertex
 10
99.129
 20
172.773
 30
0.0
  0
VERTEX
  5
AC5
330
A24
100
AcDbEntity
  8
7
100
AcDbVertex
100
AcDb2dVertex
 10
100.791
 20
172.827
 30
0.0
  0
VERTEX
  5
AC6
330
A24
100
AcDbEntity
  8
7
100
AcDbVertex
100
AcDb2dVertex
 10
102.453
 20
172.884
 30
0.0
  0
VERTEX
  5
AC7
330
A24
100
AcDbEntity
  8
7
100
AcDbVertex
100
AcDb2dVertex
 10
104.114
 20
172.944
 30
0.0
  0
VERTEX
  5
AC8
330
A24
100
AcDbEntity
  8
7
100
AcDbVertex
100
AcDb2dVertex
 10
105.776
 20
173.005
 30
0.0
  0
VERTEX
  5
AC9
330
A24
100
AcDbEntity
  8
7
100
AcDbVertex
100
AcDb2dVertex
 10
107.438
 20
173.0679999999999
 30
0.0
  0
VERTEX
  5
ACA
330
A24
100
AcDbEntity
  8
7
100
AcDbVertex
100
AcDb2dVertex
 10
109.1
 20
173.1309999999999
 30
0.0
  0
VERTEX
  5
ACB
330
A24
100
AcDbEntity
  8
7
100
AcDbVertex
100
AcDb2dVertex
 10
110.762
 20
173.194
 30
0.0
  0
VERTEX
  5
ACC
330
A24
100
AcDbEntity
  8
7
100
AcDbVertex
100
AcDb2dVertex
 10
112.424
 20
173.257
 30
0.0
  0
VERTEX
  5
ACD
330
A24
100
AcDbEntity
  8
7
100
AcDbVertex
100
AcDb2dVertex
 10
114.086
 20
173.319
 30
0.0
  0
VERTEX
  5
ACE
330
A24
100
AcDbEntity
  8
7
100
AcDbVertex
100
AcDb2dVertex
 10
115.748
 20
173.381
 30
0.0
  0
VERTEX
  5
ACF
330
A24
100
AcDbEntity
  8
7
100
AcDbVertex
100
AcDb2dVertex
 10
117.41
 20
173.442
 30
0.0
  0
VERTEX
  5
AD0
330
A24
100
AcDbEntity
  8
7
100
AcDbVertex
100
AcDb2dVertex
 10
119.071
 20
173.503
 30
0.0
  0
VERTEX
  5
AD1
330
A24
100
AcDbEntity
  8
7
100
AcDbVertex
100
AcDb2dVertex
 10
120.733
 20
173.564
 30
0.0
  0
VERTEX
  5
AD2
330
A24
100
AcDbEntity
  8
7
100
AcDbVertex
100
AcDb2dVertex
 10
122.395
 20
173.624
 30
0.0
  0
VERTEX
  5
AD3
330
A24
100
AcDbEntity
  8
7
100
AcDbVertex
100
AcDb2dVertex
 10
124.057
 20
173.684
 30
0.0
  0
VERTEX
  5
AD4
330
A24
100
AcDbEntity
  8
7
100
AcDbVertex
100
AcDb2dVertex
 10
125.719
 20
173.745
 30
0.0
  0
VERTEX
  5
AD5
330
A24
100
AcDbEntity
  8
7
100
AcDbVertex
100
AcDb2dVertex
 10
127.381
 20
173.805
 30
0.0
  0
VERTEX
  5
AD6
330
A24
100
AcDbEntity
  8
7
100
AcDbVertex
100
AcDb2dVertex
 10
129.043
 20
173.866
 30
0.0
  0
VERTEX
  5
AD7
330
A24
100
AcDbEntity
  8
7
100
AcDbVertex
100
AcDb2dVertex
 10
130.705
 20
173.9259999999999
 30
0.0
  0
VERTEX
  5
AD8
330
A24
100
AcDbEntity
  8
7
100
AcDbVertex
100
AcDb2dVertex
 10
132.367
 20
173.987
 30
0.0
  0
VERTEX
  5
AD9
330
A24
100
AcDbEntity
  8
7
100
AcDbVertex
100
AcDb2dVertex
 10
134.029
 20
174.048
 30
0.0
  0
VERTEX
  5
ADA
330
A24
100
AcDbEntity
  8
7
100
AcDbVertex
100
AcDb2dVertex
 10
135.691
 20
174.109
 30
0.0
  0
VERTEX
  5
ADB
330
A24
100
AcDbEntity
  8
7
100
AcDbVertex
100
AcDb2dVertex
 10
137.352
 20
174.1699999999999
 30
0.0
  0
VERTEX
  5
ADC
330
A24
100
AcDbEntity
  8
7
100
AcDbVertex
100
AcDb2dVertex
 10
139.014
 20
174.232
 30
0.0
  0
VERTEX
  5
ADD
330
A24
100
AcDbEntity
  8
7
100
AcDbVertex
100
AcDb2dVertex
 10
140.676
 20
174.293
 30
0.0
  0
VERTEX
  5
ADE
330
A24
100
AcDbEntity
  8
7
100
AcDbVertex
100
AcDb2dVertex
 10
142.338
 20
174.354
 30
0.0
  0
VERTEX
  5
ADF
330
A24
100
AcDbEntity
  8
7
100
AcDbVertex
100
AcDb2dVertex
 10
144.0
 20
174.415
 30
0.0
  0
VERTEX
  5
AE0
330
A24
100
AcDbEntity
  8
7
100
AcDbVertex
100
AcDb2dVertex
 10
145.662
 20
174.476
 30
0.0
  0
VERTEX
  5
AE1
330
A24
100
AcDbEntity
  8
7
100
AcDbVertex
100
AcDb2dVertex
 10
147.324
 20
174.538
 30
0.0
  0
VERTEX
  5
AE2
330
A24
100
AcDbEntity
  8
7
100
AcDbVertex
100
AcDb2dVertex
 10
148.986
 20
174.599
 30
0.0
  0
VERTEX
  5
AE3
330
A24
100
AcDbEntity
  8
7
100
AcDbVertex
100
AcDb2dVertex
 10
150.648
 20
174.66
 30
0.0
  0
VERTEX
  5
AE4
330
A24
100
AcDbEntity
  8
7
100
AcDbVertex
100
AcDb2dVertex
 10
152.309
 20
174.7209999999999
 30
0.0
  0
VERTEX
  5
AE5
330
A24
100
AcDbEntity
  8
7
100
AcDbVertex
100
AcDb2dVertex
 10
153.971
 20
174.782
 30
0.0
  0
VERTEX
  5
AE6
330
A24
100
AcDbEntity
  8
7
100
AcDbVertex
100
AcDb2dVertex
 10
155.6329999999999
 20
174.843
 30
0.0
  0
VERTEX
  5
AE7
330
A24
100
AcDbEntity
  8
7
100
AcDbVertex
100
AcDb2dVertex
 10
157.295
 20
174.904
 30
0.0
  0
VERTEX
  5
AE8
330
A24
100
AcDbEntity
  8
7
100
AcDbVertex
100
AcDb2dVertex
 10
158.957
 20
174.965
 30
0.0
  0
VERTEX
  5
AE9
330
A24
100
AcDbEntity
  8
7
100
AcDbVertex
100
AcDb2dVertex
 10
160.619
 20
175.026
 30
0.0
  0
VERTEX
  5
AEA
330
A24
100
AcDbEntity
  8
7
100
AcDbVertex
100
AcDb2dVertex
 10
162.281
 20
175.087
 30
0.0
  0
VERTEX
  5
AEB
330
A24
100
AcDbEntity
  8
7
100
AcDbVertex
100
AcDb2dVertex
 10
163.943
 20
175.148
 30
0.0
  0
VERTEX
  5
AEC
330
A24
100
AcDbEntity
  8
7
100
AcDbVertex
100
AcDb2dVertex
 10
165.605
 20
175.209
 30
0.0
  0
VERTEX
  5
AED
330
A24
100
AcDbEntity
  8
7
100
AcDbVertex
100
AcDb2dVertex
 10
167.267
 20
175.27
 30
0.0
  0
VERTEX
  5
AEE
330
A24
100
AcDbEntity
  8
7
100
AcDbVertex
100
AcDb2dVertex
 10
168.929
 20
175.331
 30
0.0
  0
VERTEX
  5
AEF
330
A24
100
AcDbEntity
  8
7
100
AcDbVertex
100
AcDb2dVertex
 10
170.59
 20
175.392
 30
0.0
  0
VERTEX
  5
AF0
330
A24
100
AcDbEntity
  8
7
100
AcDbVertex
100
AcDb2dVertex
 10
172.252
 20
175.453
 30
0.0
  0
VERTEX
  5
AF1
330
A24
100
AcDbEntity
  8
7
100
AcDbVertex
100
AcDb2dVertex
 10
173.914
 20
175.514
 30
0.0
  0
VERTEX
  5
AF2
330
A24
100
AcDbEntity
  8
7
100
AcDbVertex
100
AcDb2dVertex
 10
175.576
 20
175.575
 30
0.0
  0
VERTEX
  5
AF3
330
A24
100
AcDbEntity
  8
7
100
AcDbVertex
100
AcDb2dVertex
 10
177.238
 20
175.636
 30
0.0
  0
VERTEX
  5
AF4
330
A24
100
AcDbEntity
  8
7
100
AcDbVertex
100
AcDb2dVertex
 10
178.9
 20
175.697
 30
0.0
  0
VERTEX
  5
AF5
330
A24
100
AcDbEntity
  8
7
100
AcDbVertex
100
AcDb2dVertex
 10
180.562
 20
175.758
 30
0.0
  0
VERTEX
  5
AF6
330
A24
100
AcDbEntity
  8
7
100
AcDbVertex
100
AcDb2dVertex
 10
182.224
 20
175.819
 30
0.0
  0
VERTEX
  5
AF7
330
A24
100
AcDbEntity
  8
7
100
AcDbVertex
100
AcDb2dVertex
 10
183.886
 20
175.88
 30
0.0
  0
VERTEX
  5
AF8
330
A24
100
AcDbEntity
  8
7
100
AcDbVertex
100
AcDb2dVertex
 10
185.548
 20
175.9409999999999
 30
0.0
  0
VERTEX
  5
AF9
330
A24
100
AcDbEntity
  8
7
100
AcDbVertex
100
AcDb2dVertex
 10
187.209
 20
176.002
 30
0.0
  0
VERTEX
  5
AFA
330
A24
100
AcDbEntity
  8
7
100
AcDbVertex
100
AcDb2dVertex
 10
188.871
 20
176.063
 30
0.0
  0
VERTEX
  5
AFB
330
A24
100
AcDbEntity
  8
7
100
AcDbVertex
100
AcDb2dVertex
 10
190.533
 20
176.124
 30
0.0
  0
VERTEX
  5
AFC
330
A24
100
AcDbEntity
  8
7
100
AcDbVertex
100
AcDb2dVertex
 10
192.195
 20
176.185
 30
0.0
  0
VERTEX
  5
AFD
330
A24
100
AcDbEntity
  8
7
100
AcDbVertex
100
AcDb2dVertex
 10
193.857
 20
176.246
 30
0.0
  0
VERTEX
  5
AFE
330
A24
100
AcDbEntity
  8
7
100
AcDbVertex
100
AcDb2dVertex
 10
195.519
 20
176.307
 30
0.0
  0
VERTEX
  5
AFF
330
A24
100
AcDbEntity
  8
7
100
AcDbVertex
100
AcDb2dVertex
 10
197.1809999999999
 20
176.368
 30
0.0
  0
VERTEX
  5
B00
330
A24
100
AcDbEntity
  8
7
100
AcDbVertex
100
AcDb2dVertex
 10
198.843
 20
176.429
 30
0.0
  0
VERTEX
  5
B01
330
A24
100
AcDbEntity
  8
7
100
AcDbVertex
100
AcDb2dVertex
 10
200.505
 20
176.49
 30
0.0
  0
VERTEX
  5
B02
330
A24
100
AcDbEntity
  8
7
100
AcDbVertex
100
AcDb2dVertex
 10
202.167
 20
176.551
 30
0.0
  0
VERTEX
  5
B03
330
A24
100
AcDbEntity
  8
7
100
AcDbVertex
100
AcDb2dVertex
 10
203.828
 20
176.612
 30
0.0
  0
VERTEX
  5
B04
330
A24
100
AcDbEntity
  8
7
100
AcDbVertex
100
AcDb2dVertex
 10
205.49
 20
176.674
 30
0.0
  0
VERTEX
  5
B05
330
A24
100
AcDbEntity
  8
7
100
AcDbVertex
100
AcDb2dVertex
 10
207.152
 20
176.735
 30
0.0
  0
VERTEX
  5
B06
330
A24
100
AcDbEntity
  8
7
100
AcDbVertex
100
AcDb2dVertex
 10
208.814
 20
176.796
 30
0.0
  0
VERTEX
  5
B07
330
A24
100
AcDbEntity
  8
7
100
AcDbVertex
100
AcDb2dVertex
 10
210.476
 20
176.857
 30
0.0
  0
VERTEX
  5
B08
330
A24
100
AcDbEntity
  8
7
100
AcDbVertex
100
AcDb2dVertex
 10
212.138
 20
176.918
 30
0.0
  0
VERTEX
  5
B09
330
A24
100
AcDbEntity
  8
7
100
AcDbVertex
100
AcDb2dVertex
 10
213.8
 20
176.979
 30
0.0
  0
VERTEX
  5
B0A
330
A24
100
AcDbEntity
  8
7
100
AcDbVertex
100
AcDb2dVertex
 10
215.462
 20
177.04
 30
0.0
  0
VERTEX
  5
B0B
330
A24
100
AcDbEntity
  8
7
100
AcDbVertex
100
AcDb2dVertex
 10
217.124
 20
177.101
 30
0.0
  0
VERTEX
  5
B0C
330
A24
100
AcDbEntity
  8
7
100
AcDbVertex
100
AcDb2dVertex
 10
218.785
 20
177.162
 30
0.0
  0
VERTEX
  5
B0D
330
A24
100
AcDbEntity
  8
7
100
AcDbVertex
100
AcDb2dVertex
 10
220.447
 20
177.223
 30
0.0
  0
VERTEX
  5
B0E
330
A24
100
AcDbEntity
  8
7
100
AcDbVertex
100
AcDb2dVertex
 10
221.278
 20
177.253
 30
0.0
  0
VERTEX
  5
B0F
330
A24
100
AcDbEntity
  8
7
100
AcDbVertex
100
AcDb2dVertex
 10
222.109
 20
177.284
 30
0.0
  0
VERTEX
  5
B10
330
A24
100
AcDbEntity
  8
7
100
AcDbVertex
100
AcDb2dVertex
 10
222.94
 20
177.314
 30
0.0
  0
VERTEX
  5
B11
330
A24
100
AcDbEntity
  8
7
100
AcDbVertex
100
AcDb2dVertex
 10
223.771
 20
177.345
 30
0.0
  0
VERTEX
  5
B12
330
A24
100
AcDbEntity
  8
7
100
AcDbVertex
100
AcDb2dVertex
 10
224.602
 20
177.375
 30
0.0
  0
VERTEX
  5
B13
330
A24
100
AcDbEntity
  8
7
100
AcDbVertex
100
AcDb2dVertex
 10
225.433
 20
177.4059999999999
 30
0.0
  0
VERTEX
  5
B14
330
A24
100
AcDbEntity
  8
7
100
AcDbVertex
100
AcDb2dVertex
 10
226.264
 20
177.4359999999999
 30
0.0
  0
VERTEX
  5
B15
330
A24
100
AcDbEntity
  8
7
100
AcDbVertex
100
AcDb2dVertex
 10
227.095
 20
177.467
 30
0.0
  0
VERTEX
  5
B16
330
A24
100
AcDbEntity
  8
7
100
AcDbVertex
100
AcDb2dVertex
 10
227.095
 20
177.666
 30
0.0
  0
SEQEND
  5
B17
330
A24
100
AcDbEntity
  8
7
  0
ENDBLK
  5
99D
330
8A3
100
AcDbEntity
  8
0
100
AcDbBlockEnd
  0
BLOCK
  5
9E0
330
9D6
100
AcDbEntity
  8
0
100
AcDbBlockBegin
  2
*D13
 70
     1
 10
0.0
 20
0.0
 30
0.0
  3
*D13
  1

  0
LINE
  5
9E4
330
9D6
100
AcDbEntity
  8
AM_5
100
AcDbLine
 10
-882.7761643334651
 20
495.2634393893873
 30
0.0
 11
-882.7761643334651
 21
536.3381566007587
 31
0.0
  0
LINE
  5
9E5
330
9D6
100
AcDbEntity
  8
AM_5
100
AcDbLine
 10
-716.5495014677563
 20
495.2634393893873
 30
0.0
 11
-716.5495014677563
 21
536.3381566007587
 31
0.0
  0
LINE
  5
9E6
330
9D6
100
AcDbEntity
  8
AM_5
100
AcDbLine
 10
-880.2761643334651
 20
535.3381566007588
 30
0.0
 11
-719.0495014677562
 21
535.3381566007588
 31
0.0
  0
SOLID
  5
9E7
330
9D6
100
AcDbEntity
  8
AM_5
100
AcDbTrace
 10
-880.2761643334651
 20
535.7548232674254
 30
0.0
 11
-880.2761643334651
 21
534.9214899340921
 31
0.0
 12
-882.7761643334651
 22
535.3381566007588
 32
0.0
 13
-882.7761643334651
 23
535.3381566007588
 33
0.0
  0
SOLID
  5
9E8
330
9D6
100
AcDbEntity
  8
AM_5
100
AcDbTrace
 10
-719.0495014677562
 20
535.7548232674254
 30
0.0
 11
-719.0495014677562
 21
534.9214899340921
 31
0.0
 12
-716.5495014677563
 22
535.3381566007588
 32
0.0
 13
-716.5495014677563
 23
535.3381566007588
 33
0.0
  0
MTEXT
  5
9E9
330
9D6
100
AcDbEntity
  8
AM_5
 62
     2
100
AcDbMText
 10
-799.6628329006107
 20
538.5885010889477
 30
0.0
 40
3.5
 41
0.0
 71
     5
 72
     1
  1
166.23
 73
     1
 44
1.0
1001
ACAD
1000
MTEXTBEGIN
1070
    73
1070
     1
1070
    44
1040
1.0
1070
    74
1070
     0
1000
MTEXTEND
  0
POINT
  5
9EA
330
9D6
100
AcDbEntity
  8
Defpoints
 62
     0
100
AcDbPoint
 10
-882.7761643334651
 20
494.2634393893873
 30
0.0
  0
POINT
  5
9EB
330
9D6
100
AcDbEntity
  8
Defpoints
 62
     0
100
AcDbPoint
 10
-716.5495014677563
 20
494.2634393893873
 30
0.0
  0
POINT
  5
9EC
330
9D6
100
AcDbEntity
  8
Defpoints
 62
     0
100
AcDbPoint
 10
-716.5495014677563
 20
535.3381566007588
 30
0.0
  0
ENDBLK
  5
9E1
330
9D6
100
AcDbEntity
  8
0
100
AcDbBlockEnd
  0
BLOCK
  5
A10
330
A06
100
AcDbEntity
  8
0
100
AcDbBlockBegin
  2
*D14
 70
     1
 10
0.0
 20
0.0
 30
0.0
  3
*D14
  1

  0
LINE
  5
A14
330
A06
100
AcDbEntity
  8
AM_5
100
AcDbLine
 10
-882.7761643334651
 20
495.2634393893873
 30
0.0
 11
-882.7761643334651
 21
522.752111241095
 31
0.0
  0
LINE
  5
A15
330
A06
100
AcDbEntity
  8
AM_5
100
AcDbLine
 10
-716.5902555733566
 20
495.2634393893873
 30
0.0
 11
-716.5902555733566
 21
522.752111241095
 31
0.0
  0
LINE
  5
A16
330
A06
100
AcDbEntity
  8
AM_5
100
AcDbLine
 10
-880.2761643334651
 20
521.752111241095
 30
0.0
 11
-719.0902555733567
 21
521.752111241095
 31
0.0
  0
SOLID
  5
A17
330
A06
100
AcDbEntity
  8
AM_5
100
AcDbTrace
 10
-880.2761643334651
 20
522.1687779077616
 30
0.0
 11
-880.2761643334651
 21
521.3354445744283
 31
0.0
 12
-882.7761643334651
 22
521.752111241095
 32
0.0
 13
-882.7761643334651
 23
521.752111241095
 33
0.0
  0
SOLID
  5
A18
330
A06
100
AcDbEntity
  8
AM_5
100
AcDbTrace
 10
-719.0902555733567
 20
522.1687779077616
 30
0.0
 11
-719.0902555733567
 21
521.3354445744283
 31
0.0
 12
-716.5902555733566
 22
521.752111241095
 32
0.0
 13
-716.5902555733566
 23
521.752111241095
 33
0.0
  0
MTEXT
  5
A19
330
A06
100
AcDbEntity
  8
AM_5
 62
     2
100
AcDbMText
 10
-799.6832099534109
 20
525.002111241095
 30
0.0
 40
3.5
 41
0.0
 71
     5
 72
     1
  1
166.19
 73
     1
 44
1.0
1001
ACAD
1000
MTEXTBEGIN
1070
    73
1070
     1
1070
    44
1040
1.0
1070
    74
1070
     0
1000
MTEXTEND
  0
POINT
  5
A1A
330
A06
100
AcDbEntity
  8
Defpoints
 62
     0
100
AcDbPoint
 10
-882.7761643334651
 20
494.2634393893873
 30
0.0
  0
POINT
  5
A1B
330
A06
100
AcDbEntity
  8
Defpoints
 62
     0
100
AcDbPoint
 10
-716.5902555733566
 20
494.2634393893873
 30
0.0
  0
POINT
  5
A1C
330
A06
100
AcDbEntity
  8
Defpoints
 62
     0
100
AcDbPoint
 10
-716.5902555733566
 20
521.752111241095
 30
0.0
  0
ENDBLK
  5
A11
330
A06
100
AcDbEntity
  8
0
100
AcDbBlockEnd
  0
BLOCK
  5
B2D
330
B21
100
AcDbEntity
  8
0
100
AcDbBlockBegin
  2
*D15
 70
     1
 10
0.0
 20
0.0
 30
0.0
  3
*D15
  1

  0
LINE
  5
B3B
330
B21
100
AcDbEntity
  8
AM_5
100
AcDbLine
 10
421.4071816182423
 20
488.1621648410272
 30
0.0
 11
527.1480689270195
 21
488.1621648410273
 31
0.0
  0
LINE
  5
B3C
330
B21
100
AcDbEntity
  8
AM_5
100
AcDbLine
 10
466.6404817323158
 20
531.6778438123249
 30
0.0
 11
524.4356034945647
 21
537.9890269783134
 31
0.0
  0
ARC
  5
B3D
330
B21
100
AcDbEntity
  8
AM_5
100
AcDbCircle
 10
68.14246661105586
 20
488.1621648410272
 30
0.0
 40
458.0056023159638
100
AcDbArc
 50
0.3127464508791838
 51
5.919216245258313
  0
SOLID
  5
B3E
330
B21
100
AcDbEntity
  8
AM_5
100
AcDbTrace
 10
526.5579109812339
 20
490.6632927069528
 30
0.0
 11
525.7245807515168
 21
490.6610183534048
 31
0.0
 12
526.1480689270196
 22
488.1621648410274
 32
0.0
 13
526.1480689270196
 23
488.1621648410274
 33
0.0
  0
SOLID
  5
B3F
330
B21
100
AcDbEntity
  8
AM_5
100
AcDbTrace
 10
523.2917877049422
 20
535.3504150512716
 30
0.0
 11
524.1204403108342
 21
535.4386154095066
 31
0.0
 12
523.4415129331834
 22
537.8804730480652
 32
0.0
 13
523.4415129331834
 23
537.8804730480652
 33
0.0
  0
MTEXT
  5
B40
330
B21
100
AcDbEntity
  8
AM_5
 62
     2
100
AcDbMText
 10
528.7161243983639
 20
513.2347877648884
 30
0.0
 40
3.5
 41
0.0
 71
     5
 72
     1
  1
6°
 11
0.05435732985783
 21
-0.9985215474343691
 31
0.0
 73
     1
 44
1.0
1001
ACAD
1000
MTEXTBEGIN
1070
    73
1070
     1
1070
    44
1040
1.0
1070
    74
1070
     0
1000
MTEXTEND
  0
POINT
  5
B41
330
B21
100
AcDbEntity
  8
Defpoints
 62
     0
100
AcDbPoint
 10
525.8470767996887
 20
504.7640191013339
 30
0.0
  0
POINT
  5
B42
330
B21
100
AcDbEntity
  8
Defpoints
 62
     0
100
AcDbPoint
 10
68.14246661105586
 20
488.1621648410272
 30
0.0
  0
POINT
  5
B43
330
B21
100
AcDbEntity
  8
Defpoints
 62
     0
100
AcDbPoint
 10
68.14246661105586
 20
488.1621648410272
 30
0.0
  0
POINT
  5
B44
330
B21
100
AcDbEntity
  8
Defpoints
 62
     0
100
AcDbPoint
 10
420.4071816182422
 20
488.1621648410272
 30
0.0
  0
POINT
  5
B45
330
B21
100
AcDbEntity
  8
Defpoints
 62
     0
100
AcDbPoint
 10
465.6463911709343
 20
531.5692898820769
 30
0.0
  0
ENDBLK
  5
B2E
330
B21
100
AcDbEntity
  8
0
100
AcDbBlockEnd
  0
BLOCK
  5
B7B
330
B71
100
AcDbEntity
  8
0
100
AcDbBlockBegin
  2
*D16
 70
     1
 10
0.0
 20
0.0
 30
0.0
  3
*D16
  1

  0
LINE
  5
B7F
330
B71
100
AcDbEntity
  8
AM_5
100
AcDbLine
 10
-929.1084490751822
 20
1293.5811608837
 30
0.0
 11
-929.1084490751822
 21
1384.436964880654
 31
0.0
  0
LINE
  5
B80
330
B71
100
AcDbEntity
  8
AM_5
100
AcDbLine
 10
-698.6927171007927
 20
1293.5811608837
 30
0.0
 11
-698.6927171007927
 21
1384.436964880654
 31
0.0
  0
LINE
  5
B81
330
B71
100
AcDbEntity
  8
AM_5
100
AcDbLine
 10
-926.6084490751822
 20
1383.436964880655
 30
0.0
 11
-701.1927171007926
 21
1383.436964880655
 31
0.0
  0
SOLID
  5
B82
330
B71
100
AcDbEntity
  8
AM_5
100
AcDbTrace
 10
-926.6084490751822
 20
1383.853631547321
 30
0.0
 11
-926.6084490751822
 21
1383.020298213988
 31
0.0
 12
-929.1084490751822
 22
1383.436964880655
 32
0.0
 13
-929.1084490751822
 23
1383.436964880655
 33
0.0
  0
SOLID
  5
B83
330
B71
100
AcDbEntity
  8
AM_5
100
AcDbTrace
 10
-701.1927171007926
 20
1383.853631547321
 30
0.0
 11
-701.1927171007926
 21
1383.020298213988
 31
0.0
 12
-698.6927171007927
 22
1383.436964880655
 32
0.0
 13
-698.6927171007927
 23
1383.436964880655
 33
0.0
  0
MTEXT
  5
B84
330
B71
100
AcDbEntity
  8
AM_5
 62
     2
100
AcDbMText
 10
-813.9005830879874
 20
1386.687309368843
 30
0.0
 40
3.5
 41
0.0
 71
     5
 72
     1
  1
230.42
 73
     1
 44
1.0
1001
ACAD
1000
MTEXTBEGIN
1070
    73
1070
     1
1070
    44
1040
1.0
1070
    74
1070
     0
1000
MTEXTEND
  0
POINT
  5
B85
330
B71
100
AcDbEntity
  8
Defpoints
 62
     0
100
AcDbPoint
 10
-929.1084490751822
 20
1292.5811608837
 30
0.0
  0
POINT
  5
B86
330
B71
100
AcDbEntity
  8
Defpoints
 62
     0
100
AcDbPoint
 10
-698.6927171007927
 20
1292.581160883701
 30
0.0
  0
POINT
  5
B87
330
B71
100
AcDbEntity
  8
Defpoints
 62
     0
100
AcDbPoint
 10
-698.6927171007927
 20
1383.436964880655
 30
0.0
  0
ENDBLK
  5
B7C
330
B71
100
AcDbEntity
  8
0
100
AcDbBlockEnd
  0
BLOCK
  5
C84
330
B8B
100
AcDbEntity
  8
0
100
AcDbBlockBegin
  2
CLARK Y - 230
 70
     0
 10
0.0
 20
0.0
 30
0.0
  3
CLARK Y - 230
  1

  0
POLYLINE
  5
B8C
330
B8B
100
AcDbEntity
  8
7
  6
Continuous
100
AcDb2dPolyline
 66
     1
 10
0.0
 20
0.0
 30
0.0
  0
VERTEX
  5
B8D
330
B8C
100
AcDbEntity
  8
7
100
AcDbVertex
100
AcDb2dVertex
 10
28.79
 20
171.602
 30
0.0
  0
VERTEX
  5
B8E
330
B8C
100
AcDbEntity
  8
7
100
AcDbVertex
100
AcDb2dVertex
 10
259.21
 20
171.602
 30
0.0
  0
SEQEND
  5
B8F
330
B8C
100
AcDbEntity
  8
7
  0
POLYLINE
  5
B90
330
B8B
100
AcDbEntity
  8
7
  6
Continuous
100
AcDb2dPolyline
 66
     1
 10
0.0
 20
0.0
 30
0.0
  0
VERTEX
  5
B91
330
B90
100
AcDbEntity
  8
7
100
AcDbVertex
100
AcDb2dVertex
 10
259.21
 20
171.74
 30
0.0
  0
VERTEX
  5
B92
330
B90
100
AcDbEntity
  8
7
100
AcDbVertex
100
AcDb2dVertex
 10
258.058
 20
172.013
 30
0.0
  0
VERTEX
  5
B93
330
B90
100
AcDbEntity
  8
7
100
AcDbVertex
100
AcDb2dVertex
 10
256.906
 20
172.286
 30
0.0
  0
VERTEX
  5
B94
330
B90
100
AcDbEntity
  8
7
100
AcDbVertex
100
AcDb2dVertex
 10
255.754
 20
172.558
 30
0.0
  0
VERTEX
  5
B95
330
B90
100
AcDbEntity
  8
7
100
AcDbVertex
100
AcDb2dVertex
 10
254.602
 20
172.831
 30
0.0
  0
VERTEX
  5
B96
330
B90
100
AcDbEntity
  8
7
100
AcDbVertex
100
AcDb2dVertex
 10
253.45
 20
173.102
 30
0.0
  0
VERTEX
  5
B97
330
B90
100
AcDbEntity
  8
7
100
AcDbVertex
100
AcDb2dVertex
 10
252.297
 20
173.373
 30
0.0
  0
VERTEX
  5
B98
330
B90
100
AcDbEntity
  8
7
100
AcDbVertex
100
AcDb2dVertex
 10
251.145
 20
173.643
 30
0.0
  0
VERTEX
  5
B99
330
B90
100
AcDbEntity
  8
7
100
AcDbVertex
100
AcDb2dVertex
 10
249.993
 20
173.9109999999999
 30
0.0
  0
VERTEX
  5
B9A
330
B90
100
AcDbEntity
  8
7
100
AcDbVertex
100
AcDb2dVertex
 10
247.69
 20
174.444
 30
0.0
  0
VERTEX
  5
B9B
330
B90
100
AcDbEntity
  8
7
100
AcDbVertex
100
AcDb2dVertex
 10
245.385
 20
174.971
 30
0.0
  0
VERTEX
  5
B9C
330
B90
100
AcDbEntity
  8
7
100
AcDbVertex
100
AcDb2dVertex
 10
243.081
 20
175.492
 30
0.0
  0
VERTEX
  5
B9D
330
B90
100
AcDbEntity
  8
7
100
AcDbVertex
100
AcDb2dVertex
 10
240.776
 20
176.006
 30
0.0
  0
VERTEX
  5
B9E
330
B90
100
AcDbEntity
  8
7
100
AcDbVertex
100
AcDb2dVertex
 10
238.473
 20
176.515
 30
0.0
  0
VERTEX
  5
B9F
330
B90
100
AcDbEntity
  8
7
100
AcDbVertex
100
AcDb2dVertex
 10
236.168
 20
177.017
 30
0.0
  0
VERTEX
  5
BA0
330
B90
100
AcDbEntity
  8
7
100
AcDbVertex
100
AcDb2dVertex
 10
233.864
 20
177.514
 30
0.0
  0
VERTEX
  5
BA1
330
B90
100
AcDbEntity
  8
7
100
AcDbVertex
100
AcDb2dVertex
 10
231.56
 20
178.005
 30
0.0
  0
VERTEX
  5
BA2
330
B90
100
AcDbEntity
  8
7
100
AcDbVertex
100
AcDb2dVertex
 10
229.256
 20
178.49
 30
0.0
  0
VERTEX
  5
BA3
330
B90
100
AcDbEntity
  8
7
100
AcDbVertex
100
AcDb2dVertex
 10
226.951
 20
178.969
 30
0.0
  0
VERTEX
  5
BA4
330
B90
100
AcDbEntity
  8
7
100
AcDbVertex
100
AcDb2dVertex
 10
224.648
 20
179.442
 30
0.0
  0
VERTEX
  5
BA5
330
B90
100
AcDbEntity
  8
7
100
AcDbVertex
100
AcDb2dVertex
 10
222.343
 20
179.909
 30
0.0
  0
VERTEX
  5
BA6
330
B90
100
AcDbEntity
  8
7
100
AcDbVertex
100
AcDb2dVertex
 10
220.039
 20
180.37
 30
0.0
  0
VERTEX
  5
BA7
330
B90
100
AcDbEntity
  8
7
100
AcDbVertex
100
AcDb2dVertex
 10
217.734
 20
180.824
 30
0.0
  0
VERTEX
  5
BA8
330
B90
100
AcDbEntity
  8
7
100
AcDbVertex
100
AcDb2dVertex
 10
215.431
 20
181.272
 30
0.0
  0
VERTEX
  5
BA9
330
B90
100
AcDbEntity
  8
7
100
AcDbVertex
100
AcDb2dVertex
 10
213.126
 20
181.713
 30
0.0
  0
VERTEX
  5
BAA
330
B90
100
AcDbEntity
  8
7
100
AcDbVertex
100
AcDb2dVertex
 10
210.822
 20
182.148
 30
0.0
  0
VERTEX
  5
BAB
330
B90
100
AcDbEntity
  8
7
100
AcDbVertex
100
AcDb2dVertex
 10
208.518
 20
182.576
 30
0.0
  0
VERTEX
  5
BAC
330
B90
100
AcDbEntity
  8
7
100
AcDbVertex
100
AcDb2dVertex
 10
206.214
 20
182.997
 30
0.0
  0
VERTEX
  5
BAD
330
B90
100
AcDbEntity
  8
7
100
AcDbVertex
100
AcDb2dVertex
 10
203.909
 20
183.412
 30
0.0
  0
VERTEX
  5
BAE
330
B90
100
AcDbEntity
  8
7
100
AcDbVertex
100
AcDb2dVertex
 10
201.606
 20
183.82
 30
0.0
  0
VERTEX
  5
BAF
330
B90
100
AcDbEntity
  8
7
100
AcDbVertex
100
AcDb2dVertex
 10
199.301
 20
184.2209999999999
 30
0.0
  0
VERTEX
  5
BB0
330
B90
100
AcDbEntity
  8
7
100
AcDbVertex
100
AcDb2dVertex
 10
196.997
 20
184.615
 30
0.0
  0
VERTEX
  5
BB1
330
B90
100
AcDbEntity
  8
7
100
AcDbVertex
100
AcDb2dVertex
 10
194.692
 20
185.003
 30
0.0
  0
VERTEX
  5
BB2
330
B90
100
AcDbEntity
  8
7
100
AcDbVertex
100
AcDb2dVertex
 10
192.389
 20
185.383
 30
0.0
  0
VERTEX
  5
BB3
330
B90
100
AcDbEntity
  8
7
100
AcDbVertex
100
AcDb2dVertex
 10
190.084
 20
185.757
 30
0.0
  0
VERTEX
  5
BB4
330
B90
100
AcDbEntity
  8
7
100
AcDbVertex
100
AcDb2dVertex
 10
187.78
 20
186.124
 30
0.0
  0
VERTEX
  5
BB5
330
B90
100
AcDbEntity
  8
7
100
AcDbVertex
100
AcDb2dVertex
 10
185.476
 20
186.483
 30
0.0
  0
VERTEX
  5
BB6
330
B90
100
AcDbEntity
  8
7
100
AcDbVertex
100
AcDb2dVertex
 10
183.172
 20
186.835
 30
0.0
  0
VERTEX
  5
BB7
330
B90
100
AcDbEntity
  8
7
100
AcDbVertex
100
AcDb2dVertex
 10
180.867
 20
187.179
 30
0.0
  0
VERTEX
  5
BB8
330
B90
100
AcDbEntity
  8
7
100
AcDbVertex
100
AcDb2dVertex
 10
178.564
 20
187.515
 30
0.0
  0
VERTEX
  5
BB9
330
B90
100
AcDbEntity
  8
7
100
AcDbVertex
100
AcDb2dVertex
 10
176.259
 20
187.842
 30
0.0
  0
VERTEX
  5
BBA
330
B90
100
AcDbEntity
  8
7
100
AcDbVertex
100
AcDb2dVertex
 10
173.955
 20
188.161
 30
0.0
  0
VERTEX
  5
BBB
330
B90
100
AcDbEntity
  8
7
100
AcDbVertex
100
AcDb2dVertex
 10
171.65
 20
188.47
 30
0.0
  0
VERTEX
  5
BBC
330
B90
100
AcDbEntity
  8
7
100
AcDbVertex
100
AcDb2dVertex
 10
169.347
 20
188.769
 30
0.0
  0
VERTEX
  5
BBD
330
B90
100
AcDbEntity
  8
7
100
AcDbVertex
100
AcDb2dVertex
 10
167.042
 20
189.059
 30
0.0
  0
VERTEX
  5
BBE
330
B90
100
AcDbEntity
  8
7
100
AcDbVertex
100
AcDb2dVertex
 10
164.738
 20
189.339
 30
0.0
  0
VERTEX
  5
BBF
330
B90
100
AcDbEntity
  8
7
100
AcDbVertex
100
AcDb2dVertex
 10
162.434
 20
189.608
 30
0.0
  0
VERTEX
  5
BC0
330
B90
100
AcDbEntity
  8
7
100
AcDbVertex
100
AcDb2dVertex
 10
160.13
 20
189.867
 30
0.0
  0
VERTEX
  5
BC1
330
B90
100
AcDbEntity
  8
7
100
AcDbVertex
100
AcDb2dVertex
 10
157.825
 20
190.116
 30
0.0
  0
VERTEX
  5
BC2
330
B90
100
AcDbEntity
  8
7
100
AcDbVertex
100
AcDb2dVertex
 10
155.522
 20
190.354
 30
0.0
  0
VERTEX
  5
BC3
330
B90
100
AcDbEntity
  8
7
100
AcDbVertex
100
AcDb2dVertex
 10
153.217
 20
190.582
 30
0.0
  0
VERTEX
  5
BC4
330
B90
100
AcDbEntity
  8
7
100
AcDbVertex
100
AcDb2dVertex
 10
150.913
 20
190.799
 30
0.0
  0
VERTEX
  5
BC5
330
B90
100
AcDbEntity
  8
7
100
AcDbVertex
100
AcDb2dVertex
 10
148.608
 20
191.0059999999999
 30
0.0
  0
VERTEX
  5
BC6
330
B90
100
AcDbEntity
  8
7
100
AcDbVertex
100
AcDb2dVertex
 10
146.305
 20
191.203
 30
0.0
  0
VERTEX
  5
BC7
330
B90
100
AcDbEntity
  8
7
100
AcDbVertex
100
AcDb2dVertex
 10
144.0
 20
191.39
 30
0.0
  0
VERTEX
  5
BC8
330
B90
100
AcDbEntity
  8
7
100
AcDbVertex
100
AcDb2dVertex
 10
141.696
 20
191.565
 30
0.0
  0
VERTEX
  5
BC9
330
B90
100
AcDbEntity
  8
7
100
AcDbVertex
100
AcDb2dVertex
 10
139.392
 20
191.731
 30
0.0
  0
VERTEX
  5
BCA
330
B90
100
AcDbEntity
  8
7
100
AcDbVertex
100
AcDb2dVertex
 10
137.088
 20
191.884
 30
0.0
  0
VERTEX
  5
BCB
330
B90
100
AcDbEntity
  8
7
100
AcDbVertex
100
AcDb2dVertex
 10
134.783
 20
192.027
 30
0.0
  0
VERTEX
  5
BCC
330
B90
100
AcDbEntity
  8
7
100
AcDbVertex
100
AcDb2dVertex
 10
132.479
 20
192.157
 30
0.0
  0
VERTEX
  5
BCD
330
B90
100
AcDbEntity
  8
7
100
AcDbVertex
100
AcDb2dVertex
 10
130.175
 20
192.274
 30
0.0
  0
VERTEX
  5
BCE
330
B90
100
AcDbEntity
  8
7
100
AcDbVertex
100
AcDb2dVertex
 10
127.871
 20
192.379
 30
0.0
  0
VERTEX
  5
BCF
330
B90
100
AcDbEntity
  8
7
100
AcDbVertex
100
AcDb2dVertex
 10
125.566
 20
192.47
 30
0.0
  0
VERTEX
  5
BD0
330
B90
100
AcDbEntity
  8
7
100
AcDbVertex
100
AcDb2dVertex
 10
123.262
 20
192.547
 30
0.0
  0
VERTEX
  5
BD1
330
B90
100
AcDbEntity
  8
7
100
AcDbVertex
100
AcDb2dVertex
 10
120.958
 20
192.609
 30
0.0
  0
VERTEX
  5
BD2
330
B90
100
AcDbEntity
  8
7
100
AcDbVertex
100
AcDb2dVertex
 10
118.654
 20
192.657
 30
0.0
  0
VERTEX
  5
BD3
330
B90
100
AcDbEntity
  8
7
100
AcDbVertex
100
AcDb2dVertex
 10
116.35
 20
192.69
 30
0.0
  0
VERTEX
  5
BD4
330
B90
100
AcDbEntity
  8
7
100
AcDbVertex
100
AcDb2dVertex
 10
114.045
 20
192.709
 30
0.0
  0
VERTEX
  5
BD5
330
B90
100
AcDbEntity
  8
7
100
AcDbVertex
100
AcDb2dVertex
 10
111.741
 20
192.714
 30
0.0
  0
VERTEX
  5
BD6
330
B90
100
AcDbEntity
  8
7
100
AcDbVertex
100
AcDb2dVertex
 10
109.437
 20
192.707
 30
0.0
  0
VERTEX
  5
BD7
330
B90
100
AcDbEntity
  8
7
100
AcDbVertex
100
AcDb2dVertex
 10
107.133
 20
192.687
 30
0.0
  0
VERTEX
  5
BD8
330
B90
100
AcDbEntity
  8
7
100
AcDbVertex
100
AcDb2dVertex
 10
104.829
 20
192.655
 30
0.0
  0
VERTEX
  5
BD9
330
B90
100
AcDbEntity
  8
7
100
AcDbVertex
100
AcDb2dVertex
 10
102.524
 20
192.613
 30
0.0
  0
VERTEX
  5
BDA
330
B90
100
AcDbEntity
  8
7
100
AcDbVertex
100
AcDb2dVertex
 10
100.22
 20
192.559
 30
0.0
  0
VERTEX
  5
BDB
330
B90
100
AcDbEntity
  8
7
100
AcDbVertex
100
AcDb2dVertex
 10
97.916
 20
192.496
 30
0.0
  0
VERTEX
  5
BDC
330
B90
100
AcDbEntity
  8
7
100
AcDbVertex
100
AcDb2dVertex
 10
95.61200000000001
 20
192.424
 30
0.0
  0
VERTEX
  5
BDD
330
B90
100
AcDbEntity
  8
7
100
AcDbVertex
100
AcDb2dVertex
 10
93.30799999999999
 20
192.34
 30
0.0
  0
VERTEX
  5
BDE
330
B90
100
AcDbEntity
  8
7
100
AcDbVertex
100
AcDb2dVertex
 10
91.00299999999998
 20
192.242
 30
0.0
  0
VERTEX
  5
BDF
330
B90
100
AcDbEntity
  8
7
100
AcDbVertex
100
AcDb2dVertex
 10
88.69899999999999
 20
192.128
 30
0.0
  0
VERTEX
  5
BE0
330
B90
100
AcDbEntity
  8
7
100
AcDbVertex
100
AcDb2dVertex
 10
86.394
 20
191.995
 30
0.0
  0
VERTEX
  5
BE1
330
B90
100
AcDbEntity
  8
7
100
AcDbVertex
100
AcDb2dVertex
 10
84.091
 20
191.84
 30
0.0
  0
VERTEX
  5
BE2
330
B90
100
AcDbEntity
  8
7
100
AcDbVertex
100
AcDb2dVertex
 10
81.78499999999999
 20
191.659
 30
0.0
  0
VERTEX
  5
BE3
330
B90
100
AcDbEntity
  8
7
100
AcDbVertex
100
AcDb2dVertex
 10
79.48199999999999
 20
191.451
 30
0.0
  0
VERTEX
  5
BE4
330
B90
100
AcDbEntity
  8
7
100
AcDbVertex
100
AcDb2dVertex
 10
77.176
 20
191.212
 30
0.0
  0
VERTEX
  5
BE5
330
B90
100
AcDbEntity
  8
7
100
AcDbVertex
100
AcDb2dVertex
 10
74.874
 20
190.939
 30
0.0
  0
VERTEX
  5
BE6
330
B90
100
AcDbEntity
  8
7
100
AcDbVertex
100
AcDb2dVertex
 10
72.56699999999999
 20
190.628
 30
0.0
  0
VERTEX
  5
BE7
330
B90
100
AcDbEntity
  8
7
100
AcDbVertex
100
AcDb2dVertex
 10
70.26600000000001
 20
190.282
 30
0.0
  0
VERTEX
  5
BE8
330
B90
100
AcDbEntity
  8
7
100
AcDbVertex
100
AcDb2dVertex
 10
67.95799999999999
 20
189.896
 30
0.0
  0
VERTEX
  5
BE9
330
B90
100
AcDbEntity
  8
7
100
AcDbVertex
100
AcDb2dVertex
 10
65.65699999999999
 20
189.476
 30
0.0
  0
VERTEX
  5
BEA
330
B90
100
AcDbEntity
  8
7
100
AcDbVertex
100
AcDb2dVertex
 10
63.349
 20
189.017
 30
0.0
  0
VERTEX
  5
BEB
330
B90
100
AcDbEntity
  8
7
100
AcDbVertex
100
AcDb2dVertex
 10
61.049
 20
188.523
 30
0.0
  0
VERTEX
  5
BEC
330
B90
100
AcDbEntity
  8
7
100
AcDbVertex
100
AcDb2dVertex
 10
58.74
 20
187.988
 30
0.0
  0
VERTEX
  5
BED
330
B90
100
AcDbEntity
  8
7
100
AcDbVertex
100
AcDb2dVertex
 10
56.44
 20
187.413
 30
0.0
  0
VERTEX
  5
BEE
330
B90
100
AcDbEntity
  8
7
100
AcDbVertex
100
AcDb2dVertex
 10
54.13
 20
186.789
 30
0.0
  0
VERTEX
  5
BEF
330
B90
100
AcDbEntity
  8
7
100
AcDbVertex
100
AcDb2dVertex
 10
51.832
 20
186.118
 30
0.0
  0
VERTEX
  5
BF0
330
B90
100
AcDbEntity
  8
7
100
AcDbVertex
100
AcDb2dVertex
 10
49.52
 20
185.386
 30
0.0
  0
VERTEX
  5
BF1
330
B90
100
AcDbEntity
  8
7
100
AcDbVertex
100
AcDb2dVertex
 10
47.22399999999999
 20
184.605
 30
0.0
  0
VERTEX
  5
BF2
330
B90
100
AcDbEntity
  8
7
100
AcDbVertex
100
AcDb2dVertex
 10
44.906
 20
183.755
 30
0.0
  0
VERTEX
  5
BF3
330
B90
100
AcDbEntity
  8
7
100
AcDbVertex
100
AcDb2dVertex
 10
42.615
 20
182.836
 30
0.0
  0
VERTEX
  5
BF4
330
B90
100
AcDbEntity
  8
7
100
AcDbVertex
100
AcDb2dVertex
 10
41.457
 20
182.333
 30
0.0
  0
VERTEX
  5
BF5
330
B90
100
AcDbEntity
  8
7
100
AcDbVertex
100
AcDb2dVertex
 10
40.311
 20
181.804
 30
0.0
  0
VERTEX
  5
BF6
330
B90
100
AcDbEntity
  8
7
100
AcDbVertex
100
AcDb2dVertex
 10
39.15
 20
181.228
 30
0.0
  0
VERTEX
  5
BF7
330
B90
100
AcDbEntity
  8
7
100
AcDbVertex
100
AcDb2dVertex
 10
38.007
 20
180.618
 30
0.0
  0
VERTEX
  5
BF8
330
B90
100
AcDbEntity
  8
7
100
AcDbVertex
100
AcDb2dVertex
 10
36.839
 20
179.939
 30
0.0
  0
VERTEX
  5
BF9
330
B90
100
AcDbEntity
  8
7
100
AcDbVertex
100
AcDb2dVertex
 10
35.703
 20
179.211
 30
0.0
  0
VERTEX
  5
BFA
330
B90
100
AcDbEntity
  8
7
100
AcDbVertex
100
AcDb2dVertex
 10
34.524
 20
178.363
 30
0.0
  0
VERTEX
  5
BFB
330
B90
100
AcDbEntity
  8
7
100
AcDbVertex
100
AcDb2dVertex
 10
33.398
 20
177.448
 30
0.0
  0
VERTEX
  5
BFC
330
B90
100
AcDbEntity
  8
7
100
AcDbVertex
100
AcDb2dVertex
 10
32.461
 20
176.599
 30
0.0
  0
VERTEX
  5
BFD
330
B90
100
AcDbEntity
  8
7
100
AcDbVertex
100
AcDb2dVertex
 10
31.555
 20
175.717
 30
0.0
  0
VERTEX
  5
BFE
330
B90
100
AcDbEntity
  8
7
100
AcDbVertex
100
AcDb2dVertex
 10
31.089
 20
175.246
 30
0.0
  0
VERTEX
  5
BFF
330
B90
100
AcDbEntity
  8
7
100
AcDbVertex
100
AcDb2dVertex
 10
30.633
 20
174.767
 30
0.0
  0
VERTEX
  5
C00
330
B90
100
AcDbEntity
  8
7
100
AcDbVertex
100
AcDb2dVertex
 10
30.156
 20
174.226
 30
0.0
  0
VERTEX
  5
C01
330
B90
100
AcDbEntity
  8
7
100
AcDbVertex
100
AcDb2dVertex
 10
29.712
 20
173.658
 30
0.0
  0
VERTEX
  5
C02
330
B90
100
AcDbEntity
  8
7
100
AcDbVertex
100
AcDb2dVertex
 10
29.47
 20
173.305
 30
0.0
  0
VERTEX
  5
C03
330
B90
100
AcDbEntity
  8
7
100
AcDbVertex
100
AcDb2dVertex
 10
29.251
 20
172.939
 30
0.0
  0
VERTEX
  5
C04
330
B90
100
AcDbEntity
  8
7
100
AcDbVertex
100
AcDb2dVertex
 10
29.129
 20
172.703
 30
0.0
  0
VERTEX
  5
C05
330
B90
100
AcDbEntity
  8
7
100
AcDbVertex
100
AcDb2dVertex
 10
29.02
 20
172.461
 30
0.0
  0
VERTEX
  5
C06
330
B90
100
AcDbEntity
  8
7
100
AcDbVertex
100
AcDb2dVertex
 10
28.959
 20
172.302
 30
0.0
  0
VERTEX
  5
C07
330
B90
100
AcDbEntity
  8
7
100
AcDbVertex
100
AcDb2dVertex
 10
28.905
 20
172.141
 30
0.0
  0
VERTEX
  5
C08
330
B90
100
AcDbEntity
  8
7
100
AcDbVertex
100
AcDb2dVertex
 10
28.835
 20
171.874
 30
0.0
  0
VERTEX
  5
C09
330
B90
100
AcDbEntity
  8
7
100
AcDbVertex
100
AcDb2dVertex
 10
28.79
 20
171.602
 30
0.0
  0
VERTEX
  5
C0A
330
B90
100
AcDbEntity
  8
7
100
AcDbVertex
100
AcDb2dVertex
 10
28.79
 20
171.058
 30
0.0
  0
VERTEX
  5
C0B
330
B90
100
AcDbEntity
  8
7
100
AcDbVertex
100
AcDb2dVertex
 10
28.905
 20
170.5259999999999
 30
0.0
  0
VERTEX
  5
C0C
330
B90
100
AcDbEntity
  8
7
100
AcDbVertex
100
AcDb2dVertex
 10
28.959
 20
170.378
 30
0.0
  0
VERTEX
  5
C0D
330
B90
100
AcDbEntity
  8
7
100
AcDbVertex
100
AcDb2dVertex
 10
29.02
 20
170.233
 30
0.0
  0
VERTEX
  5
C0E
330
B90
100
AcDbEntity
  8
7
100
AcDbVertex
100
AcDb2dVertex
 10
29.129
 20
170.014
 30
0.0
  0
VERTEX
  5
C0F
330
B90
100
AcDbEntity
  8
7
100
AcDbVertex
100
AcDb2dVertex
 10
29.251
 20
169.802
 30
0.0
  0
VERTEX
  5
C10
330
B90
100
AcDbEntity
  8
7
100
AcDbVertex
100
AcDb2dVertex
 10
29.469
 20
169.481
 30
0.0
  0
VERTEX
  5
C11
330
B90
100
AcDbEntity
  8
7
100
AcDbVertex
100
AcDb2dVertex
 10
29.712
 20
169.179
 30
0.0
  0
VERTEX
  5
C12
330
B90
100
AcDbEntity
  8
7
100
AcDbVertex
100
AcDb2dVertex
 10
30.151
 20
168.723
 30
0.0
  0
VERTEX
  5
C13
330
B90
100
AcDbEntity
  8
7
100
AcDbVertex
100
AcDb2dVertex
 10
30.633
 20
168.31
 30
0.0
  0
VERTEX
  5
C14
330
B90
100
AcDbEntity
  8
7
100
AcDbVertex
100
AcDb2dVertex
 10
31.083
 20
167.983
 30
0.0
  0
VERTEX
  5
C15
330
B90
100
AcDbEntity
  8
7
100
AcDbVertex
100
AcDb2dVertex
 10
31.555
 20
167.6909999999999
 30
0.0
  0
VERTEX
  5
C16
330
B90
100
AcDbEntity
  8
7
100
AcDbVertex
100
AcDb2dVertex
 10
32.455
 20
167.26
 30
0.0
  0
VERTEX
  5
C17
330
B90
100
AcDbEntity
  8
7
100
AcDbVertex
100
AcDb2dVertex
 10
33.398
 20
166.931
 30
0.0
  0
VERTEX
  5
C18
330
B90
100
AcDbEntity
  8
7
100
AcDbVertex
100
AcDb2dVertex
 10
34.54400000000001
 20
166.635
 30
0.0
  0
VERTEX
  5
C19
330
B90
100
AcDbEntity
  8
7
100
AcDbVertex
100
AcDb2dVertex
 10
35.703
 20
166.393
 30
0.0
  0
VERTEX
  5
C1A
330
B90
100
AcDbEntity
  8
7
100
AcDbVertex
100
AcDb2dVertex
 10
36.853
 20
166.165
 30
0.0
  0
VERTEX
  5
C1B
330
B90
100
AcDbEntity
  8
7
100
AcDbVertex
100
AcDb2dVertex
 10
38.007
 20
165.952
 30
0.0
  0
VERTEX
  5
C1C
330
B90
100
AcDbEntity
  8
7
100
AcDbVertex
100
AcDb2dVertex
 10
39.157
 20
165.763
 30
0.0
  0
VERTEX
  5
C1D
330
B90
100
AcDbEntity
  8
7
100
AcDbVertex
100
AcDb2dVertex
 10
40.311
 20
165.6
 30
0.0
  0
VERTEX
  5
C1E
330
B90
100
AcDbEntity
  8
7
100
AcDbVertex
100
AcDb2dVertex
 10
41.46199999999999
 20
165.464
 30
0.0
  0
VERTEX
  5
C1F
330
B90
100
AcDbEntity
  8
7
100
AcDbVertex
100
AcDb2dVertex
 10
42.615
 20
165.351
 30
0.0
  0
VERTEX
  5
C20
330
B90
100
AcDbEntity
  8
7
100
AcDbVertex
100
AcDb2dVertex
 10
44.918
 20
165.176
 30
0.0
  0
VERTEX
  5
C21
330
B90
100
AcDbEntity
  8
7
100
AcDbVertex
100
AcDb2dVertex
 10
47.22399999999999
 20
165.044
 30
0.0
  0
VERTEX
  5
C22
330
B90
100
AcDbEntity
  8
7
100
AcDbVertex
100
AcDb2dVertex
 10
49.527
 20
164.93
 30
0.0
  0
VERTEX
  5
C23
330
B90
100
AcDbEntity
  8
7
100
AcDbVertex
100
AcDb2dVertex
 10
51.832
 20
164.832
 30
0.0
  0
VERTEX
  5
C24
330
B90
100
AcDbEntity
  8
7
100
AcDbVertex
100
AcDb2dVertex
 10
54.136
 20
164.755
 30
0.0
  0
VERTEX
  5
C25
330
B90
100
AcDbEntity
  8
7
100
AcDbVertex
100
AcDb2dVertex
 10
56.44
 20
164.698
 30
0.0
  0
VERTEX
  5
C26
330
B90
100
AcDbEntity
  8
7
100
AcDbVertex
100
AcDb2dVertex
 10
58.744
 20
164.658
 30
0.0
  0
VERTEX
  5
C27
330
B90
100
AcDbEntity
  8
7
100
AcDbVertex
100
AcDb2dVertex
 10
61.049
 20
164.634
 30
0.0
  0
VERTEX
  5
C28
330
B90
100
AcDbEntity
  8
7
100
AcDbVertex
100
AcDb2dVertex
 10
63.353
 20
164.625
 30
0.0
  0
VERTEX
  5
C29
330
B90
100
AcDbEntity
  8
7
100
AcDbVertex
100
AcDb2dVertex
 10
65.65699999999999
 20
164.63
 30
0.0
  0
VERTEX
  5
C2A
330
B90
100
AcDbEntity
  8
7
100
AcDbVertex
100
AcDb2dVertex
 10
67.961
 20
164.648
 30
0.0
  0
VERTEX
  5
C2B
330
B90
100
AcDbEntity
  8
7
100
AcDbVertex
100
AcDb2dVertex
 10
70.26600000000001
 20
164.678
 30
0.0
  0
VERTEX
  5
C2C
330
B90
100
AcDbEntity
  8
7
100
AcDbVertex
100
AcDb2dVertex
 10
72.56999999999999
 20
164.717
 30
0.0
  0
VERTEX
  5
C2D
330
B90
100
AcDbEntity
  8
7
100
AcDbVertex
100
AcDb2dVertex
 10
74.874
 20
164.766
 30
0.0
  0
VERTEX
  5
C2E
330
B90
100
AcDbEntity
  8
7
100
AcDbVertex
100
AcDb2dVertex
 10
77.178
 20
164.823
 30
0.0
  0
VERTEX
  5
C2F
330
B90
100
AcDbEntity
  8
7
100
AcDbVertex
100
AcDb2dVertex
 10
79.48199999999999
 20
164.886
 30
0.0
  0
VERTEX
  5
C30
330
B90
100
AcDbEntity
  8
7
100
AcDbVertex
100
AcDb2dVertex
 10
81.78699999999999
 20
164.956
 30
0.0
  0
VERTEX
  5
C31
330
B90
100
AcDbEntity
  8
7
100
AcDbVertex
100
AcDb2dVertex
 10
84.091
 20
165.0309999999999
 30
0.0
  0
VERTEX
  5
C32
330
B90
100
AcDbEntity
  8
7
100
AcDbVertex
100
AcDb2dVertex
 10
86.39499999999999
 20
165.11
 30
0.0
  0
VERTEX
  5
C33
330
B90
100
AcDbEntity
  8
7
100
AcDbVertex
100
AcDb2dVertex
 10
88.69899999999999
 20
165.192
 30
0.0
  0
VERTEX
  5
C34
330
B90
100
AcDbEntity
  8
7
100
AcDbVertex
100
AcDb2dVertex
 10
91.00299999999998
 20
165.277
 30
0.0
  0
VERTEX
  5
C35
330
B90
100
AcDbEntity
  8
7
100
AcDbVertex
100
AcDb2dVertex
 10
93.30799999999999
 20
165.364
 30
0.0
  0
VERTEX
  5
C36
330
B90
100
AcDbEntity
  8
7
100
AcDbVertex
100
AcDb2dVertex
 10
95.61200000000001
 20
165.452
 30
0.0
  0
VERTEX
  5
C37
330
B90
100
AcDbEntity
  8
7
100
AcDbVertex
100
AcDb2dVertex
 10
97.916
 20
165.54
 30
0.0
  0
VERTEX
  5
C38
330
B90
100
AcDbEntity
  8
7
100
AcDbVertex
100
AcDb2dVertex
 10
100.22
 20
165.627
 30
0.0
  0
VERTEX
  5
C39
330
B90
100
AcDbEntity
  8
7
100
AcDbVertex
100
AcDb2dVertex
 10
102.524
 20
165.713
 30
0.0
  0
VERTEX
  5
C3A
330
B90
100
AcDbEntity
  8
7
100
AcDbVertex
100
AcDb2dVertex
 10
104.829
 20
165.798
 30
0.0
  0
VERTEX
  5
C3B
330
B90
100
AcDbEntity
  8
7
100
AcDbVertex
100
AcDb2dVertex
 10
107.133
 20
165.883
 30
0.0
  0
VERTEX
  5
C3C
330
B90
100
AcDbEntity
  8
7
100
AcDbVertex
100
AcDb2dVertex
 10
109.437
 20
165.9679999999999
 30
0.0
  0
VERTEX
  5
C3D
330
B90
100
AcDbEntity
  8
7
100
AcDbVertex
100
AcDb2dVertex
 10
111.741
 20
166.052
 30
0.0
  0
VERTEX
  5
C3E
330
B90
100
AcDbEntity
  8
7
100
AcDbVertex
100
AcDb2dVertex
 10
114.045
 20
166.135
 30
0.0
  0
VERTEX
  5
C3F
330
B90
100
AcDbEntity
  8
7
100
AcDbVertex
100
AcDb2dVertex
 10
116.35
 20
166.219
 30
0.0
  0
VERTEX
  5
C40
330
B90
100
AcDbEntity
  8
7
100
AcDbVertex
100
AcDb2dVertex
 10
118.654
 20
166.303
 30
0.0
  0
VERTEX
  5
C41
330
B90
100
AcDbEntity
  8
7
100
AcDbVertex
100
AcDb2dVertex
 10
120.958
 20
166.386
 30
0.0
  0
VERTEX
  5
C42
330
B90
100
AcDbEntity
  8
7
100
AcDbVertex
100
AcDb2dVertex
 10
123.262
 20
166.47
 30
0.0
  0
VERTEX
  5
C43
330
B90
100
AcDbEntity
  8
7
100
AcDbVertex
100
AcDb2dVertex
 10
125.566
 20
166.555
 30
0.0
  0
VERTEX
  5
C44
330
B90
100
AcDbEntity
  8
7
100
AcDbVertex
100
AcDb2dVertex
 10
127.871
 20
166.639
 30
0.0
  0
VERTEX
  5
C45
330
B90
100
AcDbEntity
  8
7
100
AcDbVertex
100
AcDb2dVertex
 10
130.175
 20
166.724
 30
0.0
  0
VERTEX
  5
C46
330
B90
100
AcDbEntity
  8
7
100
AcDbVertex
100
AcDb2dVertex
 10
132.479
 20
166.808
 30
0.0
  0
VERTEX
  5
C47
330
B90
100
AcDbEntity
  8
7
100
AcDbVertex
100
AcDb2dVertex
 10
134.783
 20
166.893
 30
0.0
  0
VERTEX
  5
C48
330
B90
100
AcDbEntity
  8
7
100
AcDbVertex
100
AcDb2dVertex
 10
137.087
 20
166.978
 30
0.0
  0
VERTEX
  5
C49
330
B90
100
AcDbEntity
  8
7
100
AcDbVertex
100
AcDb2dVertex
 10
139.392
 20
167.063
 30
0.0
  0
VERTEX
  5
C4A
330
B90
100
AcDbEntity
  8
7
100
AcDbVertex
100
AcDb2dVertex
 10
141.696
 20
167.148
 30
0.0
  0
VERTEX
  5
C4B
330
B90
100
AcDbEntity
  8
7
100
AcDbVertex
100
AcDb2dVertex
 10
144.0
 20
167.233
 30
0.0
  0
VERTEX
  5
C4C
330
B90
100
AcDbEntity
  8
7
100
AcDbVertex
100
AcDb2dVertex
 10
146.304
 20
167.317
 30
0.0
  0
VERTEX
  5
C4D
330
B90
100
AcDbEntity
  8
7
100
AcDbVertex
100
AcDb2dVertex
 10
148.608
 20
167.402
 30
0.0
  0
VERTEX
  5
C4E
330
B90
100
AcDbEntity
  8
7
100
AcDbVertex
100
AcDb2dVertex
 10
150.913
 20
167.487
 30
0.0
  0
VERTEX
  5
C4F
330
B90
100
AcDbEntity
  8
7
100
AcDbVertex
100
AcDb2dVertex
 10
153.217
 20
167.571
 30
0.0
  0
VERTEX
  5
C50
330
B90
100
AcDbEntity
  8
7
100
AcDbVertex
100
AcDb2dVertex
 10
155.521
 20
167.656
 30
0.0
  0
VERTEX
  5
C51
330
B90
100
AcDbEntity
  8
7
100
AcDbVertex
100
AcDb2dVertex
 10
157.825
 20
167.741
 30
0.0
  0
VERTEX
  5
C52
330
B90
100
AcDbEntity
  8
7
100
AcDbVertex
100
AcDb2dVertex
 10
160.129
 20
167.825
 30
0.0
  0
VERTEX
  5
C53
330
B90
100
AcDbEntity
  8
7
100
AcDbVertex
100
AcDb2dVertex
 10
162.434
 20
167.91
 30
0.0
  0
VERTEX
  5
C54
330
B90
100
AcDbEntity
  8
7
100
AcDbVertex
100
AcDb2dVertex
 10
164.738
 20
167.994
 30
0.0
  0
VERTEX
  5
C55
330
B90
100
AcDbEntity
  8
7
100
AcDbVertex
100
AcDb2dVertex
 10
167.042
 20
168.079
 30
0.0
  0
VERTEX
  5
C56
330
B90
100
AcDbEntity
  8
7
100
AcDbVertex
100
AcDb2dVertex
 10
169.3459999999999
 20
168.163
 30
0.0
  0
VERTEX
  5
C57
330
B90
100
AcDbEntity
  8
7
100
AcDbVertex
100
AcDb2dVertex
 10
171.65
 20
168.248
 30
0.0
  0
VERTEX
  5
C58
330
B90
100
AcDbEntity
  8
7
100
AcDbVertex
100
AcDb2dVertex
 10
173.955
 20
168.333
 30
0.0
  0
VERTEX
  5
C59
330
B90
100
AcDbEntity
  8
7
100
AcDbVertex
100
AcDb2dVertex
 10
176.259
 20
168.417
 30
0.0
  0
VERTEX
  5
C5A
330
B90
100
AcDbEntity
  8
7
100
AcDbVertex
100
AcDb2dVertex
 10
178.563
 20
168.502
 30
0.0
  0
VERTEX
  5
C5B
330
B90
100
AcDbEntity
  8
7
100
AcDbVertex
100
AcDb2dVertex
 10
180.867
 20
168.586
 30
0.0
  0
VERTEX
  5
C5C
330
B90
100
AcDbEntity
  8
7
100
AcDbVertex
100
AcDb2dVertex
 10
183.171
 20
168.671
 30
0.0
  0
VERTEX
  5
C5D
330
B90
100
AcDbEntity
  8
7
100
AcDbVertex
100
AcDb2dVertex
 10
185.476
 20
168.7559999999999
 30
0.0
  0
VERTEX
  5
C5E
330
B90
100
AcDbEntity
  8
7
100
AcDbVertex
100
AcDb2dVertex
 10
187.78
 20
168.84
 30
0.0
  0
VERTEX
  5
C5F
330
B90
100
AcDbEntity
  8
7
100
AcDbVertex
100
AcDb2dVertex
 10
190.084
 20
168.925
 30
0.0
  0
VERTEX
  5
C60
330
B90
100
AcDbEntity
  8
7
100
AcDbVertex
100
AcDb2dVertex
 10
192.388
 20
169.01
 30
0.0
  0
VERTEX
  5
C61
330
B90
100
AcDbEntity
  8
7
100
AcDbVertex
100
AcDb2dVertex
 10
194.692
 20
169.094
 30
0.0
  0
VERTEX
  5
C62
330
B90
100
AcDbEntity
  8
7
100
AcDbVertex
100
AcDb2dVertex
 10
196.997
 20
169.179
 30
0.0
  0
VERTEX
  5
C63
330
B90
100
AcDbEntity
  8
7
100
AcDbVertex
100
AcDb2dVertex
 10
199.301
 20
169.263
 30
0.0
  0
VERTEX
  5
C64
330
B90
100
AcDbEntity
  8
7
100
AcDbVertex
100
AcDb2dVertex
 10
201.605
 20
169.348
 30
0.0
  0
VERTEX
  5
C65
330
B90
100
AcDbEntity
  8
7
100
AcDbVertex
100
AcDb2dVertex
 10
203.909
 20
169.433
 30
0.0
  0
VERTEX
  5
C66
330
B90
100
AcDbEntity
  8
7
100
AcDbVertex
100
AcDb2dVertex
 10
206.213
 20
169.517
 30
0.0
  0
VERTEX
  5
C67
330
B90
100
AcDbEntity
  8
7
100
AcDbVertex
100
AcDb2dVertex
 10
208.518
 20
169.602
 30
0.0
  0
VERTEX
  5
C68
330
B90
100
AcDbEntity
  8
7
100
AcDbVertex
100
AcDb2dVertex
 10
210.822
 20
169.687
 30
0.0
  0
VERTEX
  5
C69
330
B90
100
AcDbEntity
  8
7
100
AcDbVertex
100
AcDb2dVertex
 10
213.126
 20
169.771
 30
0.0
  0
VERTEX
  5
C6A
330
B90
100
AcDbEntity
  8
7
100
AcDbVertex
100
AcDb2dVertex
 10
215.43
 20
169.856
 30
0.0
  0
VERTEX
  5
C6B
330
B90
100
AcDbEntity
  8
7
100
AcDbVertex
100
AcDb2dVertex
 10
217.734
 20
169.94
 30
0.0
  0
VERTEX
  5
C6C
330
B90
100
AcDbEntity
  8
7
100
AcDbVertex
100
AcDb2dVertex
 10
220.039
 20
170.025
 30
0.0
  0
VERTEX
  5
C6D
330
B90
100
AcDbEntity
  8
7
100
AcDbVertex
100
AcDb2dVertex
 10
222.343
 20
170.11
 30
0.0
  0
VERTEX
  5
C6E
330
B90
100
AcDbEntity
  8
7
100
AcDbVertex
100
AcDb2dVertex
 10
224.647
 20
170.194
 30
0.0
  0
VERTEX
  5
C6F
330
B90
100
AcDbEntity
  8
7
100
AcDbVertex
100
AcDb2dVertex
 10
226.951
 20
170.279
 30
0.0
  0
VERTEX
  5
C70
330
B90
100
AcDbEntity
  8
7
100
AcDbVertex
100
AcDb2dVertex
 10
229.255
 20
170.364
 30
0.0
  0
VERTEX
  5
C71
330
B90
100
AcDbEntity
  8
7
100
AcDbVertex
100
AcDb2dVertex
 10
231.56
 20
170.448
 30
0.0
  0
VERTEX
  5
C72
330
B90
100
AcDbEntity
  8
7
100
AcDbVertex
100
AcDb2dVertex
 10
233.864
 20
170.533
 30
0.0
  0
VERTEX
  5
C73
330
B90
100
AcDbEntity
  8
7
100
AcDbVertex
100
AcDb2dVertex
 10
236.168
 20
170.617
 30
0.0
  0
VERTEX
  5
C74
330
B90
100
AcDbEntity
  8
7
100
AcDbVertex
100
AcDb2dVertex
 10
238.472
 20
170.702
 30
0.0
  0
VERTEX
  5
C75
330
B90
100
AcDbEntity
  8
7
100
AcDbVertex
100
AcDb2dVertex
 10
240.776
 20
170.787
 30
0.0
  0
VERTEX
  5
C76
330
B90
100
AcDbEntity
  8
7
100
AcDbVertex
100
AcDb2dVertex
 10
243.081
 20
170.871
 30
0.0
  0
VERTEX
  5
C77
330
B90
100
AcDbEntity
  8
7
100
AcDbVertex
100
AcDb2dVertex
 10
245.385
 20
170.956
 30
0.0
  0
VERTEX
  5
C78
330
B90
100
AcDbEntity
  8
7
100
AcDbVertex
100
AcDb2dVertex
 10
247.689
 20
171.041
 30
0.0
  0
VERTEX
  5
C79
330
B90
100
AcDbEntity
  8
7
100
AcDbVertex
100
AcDb2dVertex
 10
249.993
 20
171.125
 30
0.0
  0
VERTEX
  5
C7A
330
B90
100
AcDbEntity
  8
7
100
AcDbVertex
100
AcDb2dVertex
 10
251.145
 20
171.167
 30
0.0
  0
VERTEX
  5
C7B
330
B90
100
AcDbEntity
  8
7
100
AcDbVertex
100
AcDb2dVertex
 10
252.297
 20
171.21
 30
0.0
  0
VERTEX
  5
C7C
330
B90
100
AcDbEntity
  8
7
100
AcDbVertex
100
AcDb2dVertex
 10
253.45
 20
171.252
 30
0.0
  0
VERTEX
  5
C7D
330
B90
100
AcDbEntity
  8
7
100
AcDbVertex
100
AcDb2dVertex
 10
254.602
 20
171.294
 30
0.0
  0
VERTEX
  5
C7E
330
B90
100
AcDbEntity
  8
7
100
AcDbVertex
100
AcDb2dVertex
 10
255.754
 20
171.337
 30
0.0
  0
VERTEX
  5
C7F
330
B90
100
AcDbEntity
  8
7
100
AcDbVertex
100
AcDb2dVertex
 10
256.906
 20
171.379
 30
0.0
  0
VERTEX
  5
C80
330
B90
100
AcDbEntity
  8
7
100
AcDbVertex
100
AcDb2dVertex
 10
258.058
 20
171.421
 30
0.0
  0
VERTEX
  5
C81
330
B90
100
AcDbEntity
  8
7
100
AcDbVertex
100
AcDb2dVertex
 10
259.21
 20
171.464
 30
0.0
  0
VERTEX
  5
C82
330
B90
100
AcDbEntity
  8
7
100
AcDbVertex
100
AcDb2dVertex
 10
259.21
 20
171.74
 30
0.0
  0
SEQEND
  5
C83
330
B90
100
AcDbEntity
  8
7
  0
ENDBLK
  5
C85
330
B8B
100
AcDbEntity
  8
0
100
AcDbBlockEnd
  0
BLOCK
  5
D70
330
C87
100
AcDbEntity
  8
0
100
AcDbBlockBegin
  2
CLARK YM-15 - 230 mm
 70
     0
 10
0.0
 20
0.0
 30
0.0
  3
CLARK YM-15 - 230 mm
  1

  0
POLYLINE
  5
C88
330
C87
100
AcDbEntity
  8
7
  6
Continuous
100
AcDb2dPolyline
 66
     1
 10
0.0
 20
0.0
 30
0.0
  0
VERTEX
  5
C89
330
C88
100
AcDbEntity
  8
7
100
AcDbVertex
100
AcDb2dVertex
 10
28.79
 20
167.548
 30
0.0
  0
VERTEX
  5
C8A
330
C88
100
AcDbEntity
  8
7
100
AcDbVertex
100
AcDb2dVertex
 10
259.21
 20
167.548
 30
0.0
  0
SEQEND
  5
C8B
330
C88
100
AcDbEntity
  8
7
  0
POLYLINE
  5
C8C
330
C87
100
AcDbEntity
  8
7
  6
Continuous
100
AcDb2dPolyline
 66
     1
 10
0.0
 20
0.0
 30
0.0
  0
VERTEX
  5
C8D
330
C8C
100
AcDbEntity
  8
7
100
AcDbVertex
100
AcDb2dVertex
 10
259.21
 20
167.732
 30
0.0
  0
VERTEX
  5
C8E
330
C8C
100
AcDbEntity
  8
7
100
AcDbVertex
100
AcDb2dVertex
 10
257.548
 20
168.192
 30
0.0
  0
VERTEX
  5
C8F
330
C8C
100
AcDbEntity
  8
7
100
AcDbVertex
100
AcDb2dVertex
 10
255.887
 20
168.651
 30
0.0
  0
VERTEX
  5
C90
330
C8C
100
AcDbEntity
  8
7
100
AcDbVertex
100
AcDb2dVertex
 10
254.225
 20
169.109
 30
0.0
  0
VERTEX
  5
C91
330
C8C
100
AcDbEntity
  8
7
100
AcDbVertex
100
AcDb2dVertex
 10
252.563
 20
169.5659999999999
 30
0.0
  0
VERTEX
  5
C92
330
C8C
100
AcDbEntity
  8
7
100
AcDbVertex
100
AcDb2dVertex
 10
250.901
 20
170.021
 30
0.0
  0
VERTEX
  5
C93
330
C8C
100
AcDbEntity
  8
7
100
AcDbVertex
100
AcDb2dVertex
 10
249.238
 20
170.475
 30
0.0
  0
VERTEX
  5
C94
330
C8C
100
AcDbEntity
  8
7
100
AcDbVertex
100
AcDb2dVertex
 10
247.574
 20
170.926
 30
0.0
  0
VERTEX
  5
C95
330
C8C
100
AcDbEntity
  8
7
100
AcDbVertex
100
AcDb2dVertex
 10
245.915
 20
171.373
 30
0.0
  0
VERTEX
  5
C96
330
C8C
100
AcDbEntity
  8
7
100
AcDbVertex
100
AcDb2dVertex
 10
244.256
 20
171.8159999999999
 30
0.0
  0
VERTEX
  5
C97
330
C8C
100
AcDbEntity
  8
7
100
AcDbVertex
100
AcDb2dVertex
 10
242.596
 20
172.257
 30
0.0
  0
VERTEX
  5
C98
330
C8C
100
AcDbEntity
  8
7
100
AcDbVertex
100
AcDb2dVertex
 10
240.935
 20
172.694
 30
0.0
  0
VERTEX
  5
C99
330
C8C
100
AcDbEntity
  8
7
100
AcDbVertex
100
AcDb2dVertex
 10
239.274
 20
173.127
 30
0.0
  0
VERTEX
  5
C9A
330
C8C
100
AcDbEntity
  8
7
100
AcDbVertex
100
AcDb2dVertex
 10
237.611
 20
173.557
 30
0.0
  0
VERTEX
  5
C9B
330
C8C
100
AcDbEntity
  8
7
100
AcDbVertex
100
AcDb2dVertex
 10
235.947
 20
173.984
 30
0.0
  0
VERTEX
  5
C9C
330
C8C
100
AcDbEntity
  8
7
100
AcDbVertex
100
AcDb2dVertex
 10
232.637
 20
174.819
 30
0.0
  0
VERTEX
  5
C9D
330
C8C
100
AcDbEntity
  8
7
100
AcDbVertex
100
AcDb2dVertex
 10
229.325
 20
175.638
 30
0.0
  0
VERTEX
  5
C9E
330
C8C
100
AcDbEntity
  8
7
100
AcDbVertex
100
AcDb2dVertex
 10
226.01
 20
176.442
 30
0.0
  0
VERTEX
  5
C9F
330
C8C
100
AcDbEntity
  8
7
100
AcDbVertex
100
AcDb2dVertex
 10
222.691
 20
177.232
 30
0.0
  0
VERTEX
  5
CA0
330
C8C
100
AcDbEntity
  8
7
100
AcDbVertex
100
AcDb2dVertex
 10
219.369
 20
178.008
 30
0.0
  0
VERTEX
  5
CA1
330
C8C
100
AcDbEntity
  8
7
100
AcDbVertex
100
AcDb2dVertex
 10
216.043
 20
178.771
 30
0.0
  0
VERTEX
  5
CA2
330
C8C
100
AcDbEntity
  8
7
100
AcDbVertex
100
AcDb2dVertex
 10
212.714
 20
179.521
 30
0.0
  0
VERTEX
  5
CA3
330
C8C
100
AcDbEntity
  8
7
100
AcDbVertex
100
AcDb2dVertex
 10
209.406
 20
180.252
 30
0.0
  0
VERTEX
  5
CA4
330
C8C
100
AcDbEntity
  8
7
100
AcDbVertex
100
AcDb2dVertex
 10
206.097
 20
180.9709999999999
 30
0.0
  0
VERTEX
  5
CA5
330
C8C
100
AcDbEntity
  8
7
100
AcDbVertex
100
AcDb2dVertex
 10
202.785
 20
181.676
 30
0.0
  0
VERTEX
  5
CA6
330
C8C
100
AcDbEntity
  8
7
100
AcDbVertex
100
AcDb2dVertex
 10
199.4709999999999
 20
182.366
 30
0.0
  0
VERTEX
  5
CA7
330
C8C
100
AcDbEntity
  8
7
100
AcDbVertex
100
AcDb2dVertex
 10
196.153
 20
183.041
 30
0.0
  0
VERTEX
  5
CA8
330
C8C
100
AcDbEntity
  8
7
100
AcDbVertex
100
AcDb2dVertex
 10
192.832
 20
183.701
 30
0.0
  0
VERTEX
  5
CA9
330
C8C
100
AcDbEntity
  8
7
100
AcDbVertex
100
AcDb2dVertex
 10
189.5059999999999
 20
184.343
 30
0.0
  0
VERTEX
  5
CAA
330
C8C
100
AcDbEntity
  8
7
100
AcDbVertex
100
AcDb2dVertex
 10
186.204
 20
184.963
 30
0.0
  0
VERTEX
  5
CAB
330
C8C
100
AcDbEntity
  8
7
100
AcDbVertex
100
AcDb2dVertex
 10
182.9
 20
185.565
 30
0.0
  0
VERTEX
  5
CAC
330
C8C
100
AcDbEntity
  8
7
100
AcDbVertex
100
AcDb2dVertex
 10
179.593
 20
186.148
 30
0.0
  0
VERTEX
  5
CAD
330
C8C
100
AcDbEntity
  8
7
100
AcDbVertex
100
AcDb2dVertex
 10
176.283
 20
186.71
 30
0.0
  0
VERTEX
  5
CAE
330
C8C
100
AcDbEntity
  8
7
100
AcDbVertex
100
AcDb2dVertex
 10
172.97
 20
187.252
 30
0.0
  0
VERTEX
  5
CAF
330
C8C
100
AcDbEntity
  8
7
100
AcDbVertex
100
AcDb2dVertex
 10
169.652
 20
187.772
 30
0.0
  0
VERTEX
  5
CB0
330
C8C
100
AcDbEntity
  8
7
100
AcDbVertex
100
AcDb2dVertex
 10
166.33
 20
188.27
 30
0.0
  0
VERTEX
  5
CB1
330
C8C
100
AcDbEntity
  8
7
100
AcDbVertex
100
AcDb2dVertex
 10
163.033
 20
188.74
 30
0.0
  0
VERTEX
  5
CB2
330
C8C
100
AcDbEntity
  8
7
100
AcDbVertex
100
AcDb2dVertex
 10
159.733
 20
189.186
 30
0.0
  0
VERTEX
  5
CB3
330
C8C
100
AcDbEntity
  8
7
100
AcDbVertex
100
AcDb2dVertex
 10
156.431
 20
189.61
 30
0.0
  0
VERTEX
  5
CB4
330
C8C
100
AcDbEntity
  8
7
100
AcDbVertex
100
AcDb2dVertex
 10
153.126
 20
190.01
 30
0.0
  0
VERTEX
  5
CB5
330
C8C
100
AcDbEntity
  8
7
100
AcDbVertex
100
AcDb2dVertex
 10
149.818
 20
190.386
 30
0.0
  0
VERTEX
  5
CB6
330
C8C
100
AcDbEntity
  8
7
100
AcDbVertex
100
AcDb2dVertex
 10
146.506
 20
190.74
 30
0.0
  0
VERTEX
  5
CB7
330
C8C
100
AcDbEntity
  8
7
100
AcDbVertex
100
AcDb2dVertex
 10
143.191
 20
191.069
 30
0.0
  0
VERTEX
  5
CB8
330
C8C
100
AcDbEntity
  8
7
100
AcDbVertex
100
AcDb2dVertex
 10
139.897
 20
191.373
 30
0.0
  0
VERTEX
  5
CB9
330
C8C
100
AcDbEntity
  8
7
100
AcDbVertex
100
AcDb2dVertex
 10
136.6
 20
191.652
 30
0.0
  0
VERTEX
  5
CBA
330
C8C
100
AcDbEntity
  8
7
100
AcDbVertex
100
AcDb2dVertex
 10
133.303
 20
191.903
 30
0.0
  0
VERTEX
  5
CBB
330
C8C
100
AcDbEntity
  8
7
100
AcDbVertex
100
AcDb2dVertex
 10
130.004
 20
192.126
 30
0.0
  0
VERTEX
  5
CBC
330
C8C
100
AcDbEntity
  8
7
100
AcDbVertex
100
AcDb2dVertex
 10
126.703
 20
192.318
 30
0.0
  0
VERTEX
  5
CBD
330
C8C
100
AcDbEntity
  8
7
100
AcDbVertex
100
AcDb2dVertex
 10
123.401
 20
192.477
 30
0.0
  0
VERTEX
  5
CBE
330
C8C
100
AcDbEntity
  8
7
100
AcDbVertex
100
AcDb2dVertex
 10
120.096
 20
192.601
 30
0.0
  0
VERTEX
  5
CBF
330
C8C
100
AcDbEntity
  8
7
100
AcDbVertex
100
AcDb2dVertex
 10
116.806
 20
192.69
 30
0.0
  0
VERTEX
  5
CC0
330
C8C
100
AcDbEntity
  8
7
100
AcDbVertex
100
AcDb2dVertex
 10
113.516
 20
192.745
 30
0.0
  0
VERTEX
  5
CC1
330
C8C
100
AcDbEntity
  8
7
100
AcDbVertex
100
AcDb2dVertex
 10
110.225
 20
192.768
 30
0.0
  0
VERTEX
  5
CC2
330
C8C
100
AcDbEntity
  8
7
100
AcDbVertex
100
AcDb2dVertex
 10
106.934
 20
192.762
 30
0.0
  0
VERTEX
  5
CC3
330
C8C
100
AcDbEntity
  8
7
100
AcDbVertex
100
AcDb2dVertex
 10
103.642
 20
192.73
 30
0.0
  0
VERTEX
  5
CC4
330
C8C
100
AcDbEntity
  8
7
100
AcDbVertex
100
AcDb2dVertex
 10
100.349
 20
192.672
 30
0.0
  0
VERTEX
  5
CC5
330
C8C
100
AcDbEntity
  8
7
100
AcDbVertex
100
AcDb2dVertex
 10
97.054
 20
192.592
 30
0.0
  0
VERTEX
  5
CC6
330
C8C
100
AcDbEntity
  8
7
100
AcDbVertex
100
AcDb2dVertex
 10
93.75799999999999
 20
192.49
 30
0.0
  0
VERTEX
  5
CC7
330
C8C
100
AcDbEntity
  8
7
100
AcDbVertex
100
AcDb2dVertex
 10
90.464
 20
192.359
 30
0.0
  0
VERTEX
  5
CC8
330
C8C
100
AcDbEntity
  8
7
100
AcDbVertex
100
AcDb2dVertex
 10
87.17299999999999
 20
192.188
 30
0.0
  0
VERTEX
  5
CC9
330
C8C
100
AcDbEntity
  8
7
100
AcDbVertex
100
AcDb2dVertex
 10
83.88600000000002
 20
191.966
 30
0.0
  0
VERTEX
  5
CCA
330
C8C
100
AcDbEntity
  8
7
100
AcDbVertex
100
AcDb2dVertex
 10
80.606
 20
191.685
 30
0.0
  0
VERTEX
  5
CCB
330
C8C
100
AcDbEntity
  8
7
100
AcDbVertex
100
AcDb2dVertex
 10
77.33299999999999
 20
191.334
 30
0.0
  0
VERTEX
  5
CCC
330
C8C
100
AcDbEntity
  8
7
100
AcDbVertex
100
AcDb2dVertex
 10
74.07
 20
190.903
 30
0.0
  0
VERTEX
  5
CCD
330
C8C
100
AcDbEntity
  8
7
100
AcDbVertex
100
AcDb2dVertex
 10
72.423
 20
190.652
 30
0.0
  0
VERTEX
  5
CCE
330
C8C
100
AcDbEntity
  8
7
100
AcDbVertex
100
AcDb2dVertex
 10
70.781
 20
190.378
 30
0.0
  0
VERTEX
  5
CCF
330
C8C
100
AcDbEntity
  8
7
100
AcDbVertex
100
AcDb2dVertex
 10
69.142
 20
190.083
 30
0.0
  0
VERTEX
  5
CD0
330
C8C
100
AcDbEntity
  8
7
100
AcDbVertex
100
AcDb2dVertex
 10
67.506
 20
189.766
 30
0.0
  0
VERTEX
  5
CD1
330
C8C
100
AcDbEntity
  8
7
100
AcDbVertex
100
AcDb2dVertex
 10
65.875
 20
189.427
 30
0.0
  0
VERTEX
  5
CD2
330
C8C
100
AcDbEntity
  8
7
100
AcDbVertex
100
AcDb2dVertex
 10
64.24800000000001
 20
189.068
 30
0.0
  0
VERTEX
  5
CD3
330
C8C
100
AcDbEntity
  8
7
100
AcDbVertex
100
AcDb2dVertex
 10
62.625
 20
188.689
 30
0.0
  0
VERTEX
  5
CD4
330
C8C
100
AcDbEntity
  8
7
100
AcDbVertex
100
AcDb2dVertex
 10
60.975
 20
188.281
 30
0.0
  0
VERTEX
  5
CD5
330
C8C
100
AcDbEntity
  8
7
100
AcDbVertex
100
AcDb2dVertex
 10
59.331
 20
187.8529999999999
 30
0.0
  0
VERTEX
  5
CD6
330
C8C
100
AcDbEntity
  8
7
100
AcDbVertex
100
AcDb2dVertex
 10
57.694
 20
187.401
 30
0.0
  0
VERTEX
  5
CD7
330
C8C
100
AcDbEntity
  8
7
100
AcDbVertex
100
AcDb2dVertex
 10
56.06399999999999
 20
186.926
 30
0.0
  0
VERTEX
  5
CD8
330
C8C
100
AcDbEntity
  8
7
100
AcDbVertex
100
AcDb2dVertex
 10
54.441
 20
186.4259999999999
 30
0.0
  0
VERTEX
  5
CD9
330
C8C
100
AcDbEntity
  8
7
100
AcDbVertex
100
AcDb2dVertex
 10
52.826
 20
185.9009999999999
 30
0.0
  0
VERTEX
  5
CDA
330
C8C
100
AcDbEntity
  8
7
100
AcDbVertex
100
AcDb2dVertex
 10
51.219
 20
185.348
 30
0.0
  0
VERTEX
  5
CDB
330
C8C
100
AcDbEntity
  8
7
100
AcDbVertex
100
AcDb2dVertex
 10
50.398
 20
185.053
 30
0.0
  0
VERTEX
  5
CDC
330
C8C
100
AcDbEntity
  8
7
100
AcDbVertex
100
AcDb2dVertex
 10
49.57899999999999
 20
184.7509999999999
 30
0.0
  0
VERTEX
  5
CDD
330
C8C
100
AcDbEntity
  8
7
100
AcDbVertex
100
AcDb2dVertex
 10
48.763
 20
184.442
 30
0.0
  0
VERTEX
  5
CDE
330
C8C
100
AcDbEntity
  8
7
100
AcDbVertex
100
AcDb2dVertex
 10
47.951
 20
184.124
 30
0.0
  0
VERTEX
  5
CDF
330
C8C
100
AcDbEntity
  8
7
100
AcDbVertex
100
AcDb2dVertex
 10
47.14199999999999
 20
183.799
 30
0.0
  0
VERTEX
  5
CE0
330
C8C
100
AcDbEntity
  8
7
100
AcDbVertex
100
AcDb2dVertex
 10
46.336
 20
183.4659999999999
 30
0.0
  0
VERTEX
  5
CE1
330
C8C
100
AcDbEntity
  8
7
100
AcDbVertex
100
AcDb2dVertex
 10
45.53499999999999
 20
183.124
 30
0.0
  0
VERTEX
  5
CE2
330
C8C
100
AcDbEntity
  8
7
100
AcDbVertex
100
AcDb2dVertex
 10
44.70899999999999
 20
182.762
 30
0.0
  0
VERTEX
  5
CE3
330
C8C
100
AcDbEntity
  8
7
100
AcDbVertex
100
AcDb2dVertex
 10
43.888
 20
182.389
 30
0.0
  0
VERTEX
  5
CE4
330
C8C
100
AcDbEntity
  8
7
100
AcDbVertex
100
AcDb2dVertex
 10
43.073
 20
182.005
 30
0.0
  0
VERTEX
  5
CE5
330
C8C
100
AcDbEntity
  8
7
100
AcDbVertex
100
AcDb2dVertex
 10
42.26300000000001
 20
181.608
 30
0.0
  0
VERTEX
  5
CE6
330
C8C
100
AcDbEntity
  8
7
100
AcDbVertex
100
AcDb2dVertex
 10
41.459
 20
181.196
 30
0.0
  0
VERTEX
  5
CE7
330
C8C
100
AcDbEntity
  8
7
100
AcDbVertex
100
AcDb2dVertex
 10
40.662
 20
180.769
 30
0.0
  0
VERTEX
  5
CE8
330
C8C
100
AcDbEntity
  8
7
100
AcDbVertex
100
AcDb2dVertex
 10
39.871
 20
180.325
 30
0.0
  0
VERTEX
  5
CE9
330
C8C
100
AcDbEntity
  8
7
100
AcDbVertex
100
AcDb2dVertex
 10
39.01400000000001
 20
179.817
 30
0.0
  0
VERTEX
  5
CEA
330
C8C
100
AcDbEntity
  8
7
100
AcDbVertex
100
AcDb2dVertex
 10
38.169
 20
179.287
 30
0.0
  0
VERTEX
  5
CEB
330
C8C
100
AcDbEntity
  8
7
100
AcDbVertex
100
AcDb2dVertex
 10
37.339
 20
178.734
 30
0.0
  0
VERTEX
  5
CEC
330
C8C
100
AcDbEntity
  8
7
100
AcDbVertex
100
AcDb2dVertex
 10
36.53
 20
178.158
 30
0.0
  0
VERTEX
  5
CED
330
C8C
100
AcDbEntity
  8
7
100
AcDbVertex
100
AcDb2dVertex
 10
35.743
 20
177.558
 30
0.0
  0
VERTEX
  5
CEE
330
C8C
100
AcDbEntity
  8
7
100
AcDbVertex
100
AcDb2dVertex
 10
34.982
 20
176.934
 30
0.0
  0
VERTEX
  5
CEF
330
C8C
100
AcDbEntity
  8
7
100
AcDbVertex
100
AcDb2dVertex
 10
34.251
 20
176.285
 30
0.0
  0
VERTEX
  5
CF0
330
C8C
100
AcDbEntity
  8
7
100
AcDbVertex
100
AcDb2dVertex
 10
33.834
 20
175.89
 30
0.0
  0
VERTEX
  5
CF1
330
C8C
100
AcDbEntity
  8
7
100
AcDbVertex
100
AcDb2dVertex
 10
33.427
 20
175.485
 30
0.0
  0
VERTEX
  5
CF2
330
C8C
100
AcDbEntity
  8
7
100
AcDbVertex
100
AcDb2dVertex
 10
33.028
 20
175.07
 30
0.0
  0
VERTEX
  5
CF3
330
C8C
100
AcDbEntity
  8
7
100
AcDbVertex
100
AcDb2dVertex
 10
32.635
 20
174.643
 30
0.0
  0
VERTEX
  5
CF4
330
C8C
100
AcDbEntity
  8
7
100
AcDbVertex
100
AcDb2dVertex
 10
32.24600000000001
 20
174.204
 30
0.0
  0
VERTEX
  5
CF5
330
C8C
100
AcDbEntity
  8
7
100
AcDbVertex
100
AcDb2dVertex
 10
31.859
 20
173.752
 30
0.0
  0
VERTEX
  5
CF6
330
C8C
100
AcDbEntity
  8
7
100
AcDbVertex
100
AcDb2dVertex
 10
31.472
 20
173.285
 30
0.0
  0
VERTEX
  5
CF7
330
C8C
100
AcDbEntity
  8
7
100
AcDbVertex
100
AcDb2dVertex
 10
30.875
 20
172.534
 30
0.0
  0
VERTEX
  5
CF8
330
C8C
100
AcDbEntity
  8
7
100
AcDbVertex
100
AcDb2dVertex
 10
30.303
 20
171.752
 30
0.0
  0
VERTEX
  5
CF9
330
C8C
100
AcDbEntity
  8
7
100
AcDbVertex
100
AcDb2dVertex
 10
29.783
 20
170.944
 30
0.0
  0
VERTEX
  5
CFA
330
C8C
100
AcDbEntity
  8
7
100
AcDbVertex
100
AcDb2dVertex
 10
29.344
 20
170.114
 30
0.0
  0
VERTEX
  5
CFB
330
C8C
100
AcDbEntity
  8
7
100
AcDbVertex
100
AcDb2dVertex
 10
29.013
 20
169.268
 30
0.0
  0
VERTEX
  5
CFC
330
C8C
100
AcDbEntity
  8
7
100
AcDbVertex
100
AcDb2dVertex
 10
28.819
 20
168.4109999999999
 30
0.0
  0
VERTEX
  5
CFD
330
C8C
100
AcDbEntity
  8
7
100
AcDbVertex
100
AcDb2dVertex
 10
28.79
 20
167.548
 30
0.0
  0
VERTEX
  5
CFE
330
C8C
100
AcDbEntity
  8
7
100
AcDbVertex
100
AcDb2dVertex
 10
28.917
 20
166.789
 30
0.0
  0
VERTEX
  5
CFF
330
C8C
100
AcDbEntity
  8
7
100
AcDbVertex
100
AcDb2dVertex
 10
29.175
 20
166.04
 30
0.0
  0
VERTEX
  5
D00
330
C8C
100
AcDbEntity
  8
7
100
AcDbVertex
100
AcDb2dVertex
 10
29.547
 20
165.315
 30
0.0
  0
VERTEX
  5
D01
330
C8C
100
AcDbEntity
  8
7
100
AcDbVertex
100
AcDb2dVertex
 10
30.017
 20
164.625
 30
0.0
  0
VERTEX
  5
D02
330
C8C
100
AcDbEntity
  8
7
100
AcDbVertex
100
AcDb2dVertex
 10
30.566
 20
163.981
 30
0.0
  0
VERTEX
  5
D03
330
C8C
100
AcDbEntity
  8
7
100
AcDbVertex
100
AcDb2dVertex
 10
31.176
 20
163.396
 30
0.0
  0
VERTEX
  5
D04
330
C8C
100
AcDbEntity
  8
7
100
AcDbVertex
100
AcDb2dVertex
 10
31.832
 20
162.882
 30
0.0
  0
VERTEX
  5
D05
330
C8C
100
AcDbEntity
  8
7
100
AcDbVertex
100
AcDb2dVertex
 10
32.23
 20
162.617
 30
0.0
  0
VERTEX
  5
D06
330
C8C
100
AcDbEntity
  8
7
100
AcDbVertex
100
AcDb2dVertex
 10
32.636
 20
162.378
 30
0.0
  0
VERTEX
  5
D07
330
C8C
100
AcDbEntity
  8
7
100
AcDbVertex
100
AcDb2dVertex
 10
33.05
 20
162.16
 30
0.0
  0
VERTEX
  5
D08
330
C8C
100
AcDbEntity
  8
7
100
AcDbVertex
100
AcDb2dVertex
 10
33.47
 20
161.961
 30
0.0
  0
VERTEX
  5
D09
330
C8C
100
AcDbEntity
  8
7
100
AcDbVertex
100
AcDb2dVertex
 10
33.896
 20
161.776
 30
0.0
  0
VERTEX
  5
D0A
330
C8C
100
AcDbEntity
  8
7
100
AcDbVertex
100
AcDb2dVertex
 10
34.326
 20
161.604
 30
0.0
  0
VERTEX
  5
D0B
330
C8C
100
AcDbEntity
  8
7
100
AcDbVertex
100
AcDb2dVertex
 10
34.76
 20
161.439
 30
0.0
  0
VERTEX
  5
D0C
330
C8C
100
AcDbEntity
  8
7
100
AcDbVertex
100
AcDb2dVertex
 10
35.572
 20
161.15
 30
0.0
  0
VERTEX
  5
D0D
330
C8C
100
AcDbEntity
  8
7
100
AcDbVertex
100
AcDb2dVertex
 10
36.391
 20
160.877
 30
0.0
  0
VERTEX
  5
D0E
330
C8C
100
AcDbEntity
  8
7
100
AcDbVertex
100
AcDb2dVertex
 10
37.218
 20
160.622
 30
0.0
  0
VERTEX
  5
D0F
330
C8C
100
AcDbEntity
  8
7
100
AcDbVertex
100
AcDb2dVertex
 10
38.051
 20
160.384
 30
0.0
  0
VERTEX
  5
D10
330
C8C
100
AcDbEntity
  8
7
100
AcDbVertex
100
AcDb2dVertex
 10
38.88900000000001
 20
160.164
 30
0.0
  0
VERTEX
  5
D11
330
C8C
100
AcDbEntity
  8
7
100
AcDbVertex
100
AcDb2dVertex
 10
39.732
 20
159.96
 30
0.0
  0
VERTEX
  5
D12
330
C8C
100
AcDbEntity
  8
7
100
AcDbVertex
100
AcDb2dVertex
 10
40.578
 20
159.774
 30
0.0
  0
VERTEX
  5
D13
330
C8C
100
AcDbEntity
  8
7
100
AcDbVertex
100
AcDb2dVertex
 10
41.401
 20
159.608
 30
0.0
  0
VERTEX
  5
D14
330
C8C
100
AcDbEntity
  8
7
100
AcDbVertex
100
AcDb2dVertex
 10
42.225
 20
159.458
 30
0.0
  0
VERTEX
  5
D15
330
C8C
100
AcDbEntity
  8
7
100
AcDbVertex
100
AcDb2dVertex
 10
43.052
 20
159.32
 30
0.0
  0
VERTEX
  5
D16
330
C8C
100
AcDbEntity
  8
7
100
AcDbVertex
100
AcDb2dVertex
 10
43.88
 20
159.193
 30
0.0
  0
VERTEX
  5
D17
330
C8C
100
AcDbEntity
  8
7
100
AcDbVertex
100
AcDb2dVertex
 10
44.70899999999999
 20
159.077
 30
0.0
  0
VERTEX
  5
D18
330
C8C
100
AcDbEntity
  8
7
100
AcDbVertex
100
AcDb2dVertex
 10
45.53899999999999
 20
158.968
 30
0.0
  0
VERTEX
  5
D19
330
C8C
100
AcDbEntity
  8
7
100
AcDbVertex
100
AcDb2dVertex
 10
46.371
 20
158.866
 30
0.0
  0
VERTEX
  5
D1A
330
C8C
100
AcDbEntity
  8
7
100
AcDbVertex
100
AcDb2dVertex
 10
47.195
 20
158.77
 30
0.0
  0
VERTEX
  5
D1B
330
C8C
100
AcDbEntity
  8
7
100
AcDbVertex
100
AcDb2dVertex
 10
48.02
 20
158.678
 30
0.0
  0
VERTEX
  5
D1C
330
C8C
100
AcDbEntity
  8
7
100
AcDbVertex
100
AcDb2dVertex
 10
48.845
 20
158.592
 30
0.0
  0
VERTEX
  5
D1D
330
C8C
100
AcDbEntity
  8
7
100
AcDbVertex
100
AcDb2dVertex
 10
49.67100000000001
 20
158.509
 30
0.0
  0
VERTEX
  5
D1E
330
C8C
100
AcDbEntity
  8
7
100
AcDbVertex
100
AcDb2dVertex
 10
50.497
 20
158.43
 30
0.0
  0
VERTEX
  5
D1F
330
C8C
100
AcDbEntity
  8
7
100
AcDbVertex
100
AcDb2dVertex
 10
51.323
 20
158.355
 30
0.0
  0
VERTEX
  5
D20
330
C8C
100
AcDbEntity
  8
7
100
AcDbVertex
100
AcDb2dVertex
 10
52.14999999999999
 20
158.283
 30
0.0
  0
VERTEX
  5
D21
330
C8C
100
AcDbEntity
  8
7
100
AcDbVertex
100
AcDb2dVertex
 10
53.79699999999999
 20
158.148
 30
0.0
  0
VERTEX
  5
D22
330
C8C
100
AcDbEntity
  8
7
100
AcDbVertex
100
AcDb2dVertex
 10
55.446
 20
158.025
 30
0.0
  0
VERTEX
  5
D23
330
C8C
100
AcDbEntity
  8
7
100
AcDbVertex
100
AcDb2dVertex
 10
57.09399999999999
 20
157.914
 30
0.0
  0
VERTEX
  5
D24
330
C8C
100
AcDbEntity
  8
7
100
AcDbVertex
100
AcDb2dVertex
 10
58.744
 20
157.816
 30
0.0
  0
VERTEX
  5
D25
330
C8C
100
AcDbEntity
  8
7
100
AcDbVertex
100
AcDb2dVertex
 10
60.394
 20
157.73
 30
0.0
  0
VERTEX
  5
D26
330
C8C
100
AcDbEntity
  8
7
100
AcDbVertex
100
AcDb2dVertex
 10
62.045
 20
157.656
 30
0.0
  0
VERTEX
  5
D27
330
C8C
100
AcDbEntity
  8
7
100
AcDbVertex
100
AcDb2dVertex
 10
63.69600000000001
 20
157.596
 30
0.0
  0
VERTEX
  5
D28
330
C8C
100
AcDbEntity
  8
7
100
AcDbVertex
100
AcDb2dVertex
 10
65.342
 20
157.549
 30
0.0
  0
VERTEX
  5
D29
330
C8C
100
AcDbEntity
  8
7
100
AcDbVertex
100
AcDb2dVertex
 10
66.988
 20
157.514
 30
0.0
  0
VERTEX
  5
D2A
330
C8C
100
AcDbEntity
  8
7
100
AcDbVertex
100
AcDb2dVertex
 10
68.634
 20
157.49
 30
0.0
  0
VERTEX
  5
D2B
330
C8C
100
AcDbEntity
  8
7
100
AcDbVertex
100
AcDb2dVertex
 10
70.28
 20
157.477
 30
0.0
  0
VERTEX
  5
D2C
330
C8C
100
AcDbEntity
  8
7
100
AcDbVertex
100
AcDb2dVertex
 10
71.926
 20
157.472
 30
0.0
  0
VERTEX
  5
D2D
330
C8C
100
AcDbEntity
  8
7
100
AcDbVertex
100
AcDb2dVertex
 10
73.57300000000001
 20
157.475
 30
0.0
  0
VERTEX
  5
D2E
330
C8C
100
AcDbEntity
  8
7
100
AcDbVertex
100
AcDb2dVertex
 10
75.22
 20
157.485
 30
0.0
  0
VERTEX
  5
D2F
330
C8C
100
AcDbEntity
  8
7
100
AcDbVertex
100
AcDb2dVertex
 10
78.51100000000001
 20
157.523
 30
0.0
  0
VERTEX
  5
D30
330
C8C
100
AcDbEntity
  8
7
100
AcDbVertex
100
AcDb2dVertex
 10
81.79999999999999
 20
157.581
 30
0.0
  0
VERTEX
  5
D31
330
C8C
100
AcDbEntity
  8
7
100
AcDbVertex
100
AcDb2dVertex
 10
85.089
 20
157.657
 30
0.0
  0
VERTEX
  5
D32
330
C8C
100
AcDbEntity
  8
7
100
AcDbVertex
100
AcDb2dVertex
 10
88.37700000000001
 20
157.747
 30
0.0
  0
VERTEX
  5
D33
330
C8C
100
AcDbEntity
  8
7
100
AcDbVertex
100
AcDb2dVertex
 10
91.665
 20
157.848
 30
0.0
  0
VERTEX
  5
D34
330
C8C
100
AcDbEntity
  8
7
100
AcDbVertex
100
AcDb2dVertex
 10
94.954
 20
157.957
 30
0.0
  0
VERTEX
  5
D35
330
C8C
100
AcDbEntity
  8
7
100
AcDbVertex
100
AcDb2dVertex
 10
98.243
 20
158.071
 30
0.0
  0
VERTEX
  5
D36
330
C8C
100
AcDbEntity
  8
7
100
AcDbVertex
100
AcDb2dVertex
 10
101.532
 20
158.187
 30
0.0
  0
VERTEX
  5
D37
330
C8C
100
AcDbEntity
  8
7
100
AcDbVertex
100
AcDb2dVertex
 10
104.819
 20
158.306
 30
0.0
  0
VERTEX
  5
D38
330
C8C
100
AcDbEntity
  8
7
100
AcDbVertex
100
AcDb2dVertex
 10
108.106
 20
158.427
 30
0.0
  0
VERTEX
  5
D39
330
C8C
100
AcDbEntity
  8
7
100
AcDbVertex
100
AcDb2dVertex
 10
111.392
 20
158.553
 30
0.0
  0
VERTEX
  5
D3A
330
C8C
100
AcDbEntity
  8
7
100
AcDbVertex
100
AcDb2dVertex
 10
114.679
 20
158.682
 30
0.0
  0
VERTEX
  5
D3B
330
C8C
100
AcDbEntity
  8
7
100
AcDbVertex
100
AcDb2dVertex
 10
117.965
 20
158.815
 30
0.0
  0
VERTEX
  5
D3C
330
C8C
100
AcDbEntity
  8
7
100
AcDbVertex
100
AcDb2dVertex
 10
121.253
 20
158.953
 30
0.0
  0
VERTEX
  5
D3D
330
C8C
100
AcDbEntity
  8
7
100
AcDbVertex
100
AcDb2dVertex
 10
124.541
 20
159.097
 30
0.0
  0
VERTEX
  5
D3E
330
C8C
100
AcDbEntity
  8
7
100
AcDbVertex
100
AcDb2dVertex
 10
127.828
 20
159.245
 30
0.0
  0
VERTEX
  5
D3F
330
C8C
100
AcDbEntity
  8
7
100
AcDbVertex
100
AcDb2dVertex
 10
131.114
 20
159.398
 30
0.0
  0
VERTEX
  5
D40
330
C8C
100
AcDbEntity
  8
7
100
AcDbVertex
100
AcDb2dVertex
 10
134.399
 20
159.556
 30
0.0
  0
VERTEX
  5
D41
330
C8C
100
AcDbEntity
  8
7
100
AcDbVertex
100
AcDb2dVertex
 10
137.685
 20
159.716
 30
0.0
  0
VERTEX
  5
D42
330
C8C
100
AcDbEntity
  8
7
100
AcDbVertex
100
AcDb2dVertex
 10
140.971
 20
159.879
 30
0.0
  0
VERTEX
  5
D43
330
C8C
100
AcDbEntity
  8
7
100
AcDbVertex
100
AcDb2dVertex
 10
144.2579999999999
 20
160.045
 30
0.0
  0
VERTEX
  5
D44
330
C8C
100
AcDbEntity
  8
7
100
AcDbVertex
100
AcDb2dVertex
 10
147.545
 20
160.214
 30
0.0
  0
VERTEX
  5
D45
330
C8C
100
AcDbEntity
  8
7
100
AcDbVertex
100
AcDb2dVertex
 10
150.831
 20
160.384
 30
0.0
  0
VERTEX
  5
D46
330
C8C
100
AcDbEntity
  8
7
100
AcDbVertex
100
AcDb2dVertex
 10
154.117
 20
160.556
 30
0.0
  0
VERTEX
  5
D47
330
C8C
100
AcDbEntity
  8
7
100
AcDbVertex
100
AcDb2dVertex
 10
157.402
 20
160.731
 30
0.0
  0
VERTEX
  5
D48
330
C8C
100
AcDbEntity
  8
7
100
AcDbVertex
100
AcDb2dVertex
 10
160.687
 20
160.909
 30
0.0
  0
VERTEX
  5
D49
330
C8C
100
AcDbEntity
  8
7
100
AcDbVertex
100
AcDb2dVertex
 10
163.972
 20
161.09
 30
0.0
  0
VERTEX
  5
D4A
330
C8C
100
AcDbEntity
  8
7
100
AcDbVertex
100
AcDb2dVertex
 10
167.259
 20
161.274
 30
0.0
  0
VERTEX
  5
D4B
330
C8C
100
AcDbEntity
  8
7
100
AcDbVertex
100
AcDb2dVertex
 10
170.545
 20
161.461
 30
0.0
  0
VERTEX
  5
D4C
330
C8C
100
AcDbEntity
  8
7
100
AcDbVertex
100
AcDb2dVertex
 10
173.83
 20
161.651
 30
0.0
  0
VERTEX
  5
D4D
330
C8C
100
AcDbEntity
  8
7
100
AcDbVertex
100
AcDb2dVertex
 10
177.114
 20
161.843
 30
0.0
  0
VERTEX
  5
D4E
330
C8C
100
AcDbEntity
  8
7
100
AcDbVertex
100
AcDb2dVertex
 10
180.398
 20
162.039
 30
0.0
  0
VERTEX
  5
D4F
330
C8C
100
AcDbEntity
  8
7
100
AcDbVertex
100
AcDb2dVertex
 10
183.682
 20
162.238
 30
0.0
  0
VERTEX
  5
D50
330
C8C
100
AcDbEntity
  8
7
100
AcDbVertex
100
AcDb2dVertex
 10
186.967
 20
162.439
 30
0.0
  0
VERTEX
  5
D51
330
C8C
100
AcDbEntity
  8
7
100
AcDbVertex
100
AcDb2dVertex
 10
190.252
 20
162.642
 30
0.0
  0
VERTEX
  5
D52
330
C8C
100
AcDbEntity
  8
7
100
AcDbVertex
100
AcDb2dVertex
 10
193.538
 20
162.848
 30
0.0
  0
VERTEX
  5
D53
330
C8C
100
AcDbEntity
  8
7
100
AcDbVertex
100
AcDb2dVertex
 10
196.823
 20
163.056
 30
0.0
  0
VERTEX
  5
D54
330
C8C
100
AcDbEntity
  8
7
100
AcDbVertex
100
AcDb2dVertex
 10
200.107
 20
163.266
 30
0.0
  0
VERTEX
  5
D55
330
C8C
100
AcDbEntity
  8
7
100
AcDbVertex
100
AcDb2dVertex
 10
203.39
 20
163.478
 30
0.0
  0
VERTEX
  5
D56
330
C8C
100
AcDbEntity
  8
7
100
AcDbVertex
100
AcDb2dVertex
 10
206.674
 20
163.692
 30
0.0
  0
VERTEX
  5
D57
330
C8C
100
AcDbEntity
  8
7
100
AcDbVertex
100
AcDb2dVertex
 10
209.958
 20
163.907
 30
0.0
  0
VERTEX
  5
D58
330
C8C
100
AcDbEntity
  8
7
100
AcDbVertex
100
AcDb2dVertex
 10
213.244
 20
164.124
 30
0.0
  0
VERTEX
  5
D59
330
C8C
100
AcDbEntity
  8
7
100
AcDbVertex
100
AcDb2dVertex
 10
216.529
 20
164.342
 30
0.0
  0
VERTEX
  5
D5A
330
C8C
100
AcDbEntity
  8
7
100
AcDbVertex
100
AcDb2dVertex
 10
219.814
 20
164.562
 30
0.0
  0
VERTEX
  5
D5B
330
C8C
100
AcDbEntity
  8
7
100
AcDbVertex
100
AcDb2dVertex
 10
223.097
 20
164.784
 30
0.0
  0
VERTEX
  5
D5C
330
C8C
100
AcDbEntity
  8
7
100
AcDbVertex
100
AcDb2dVertex
 10
226.381
 20
165.0079999999999
 30
0.0
  0
VERTEX
  5
D5D
330
C8C
100
AcDbEntity
  8
7
100
AcDbVertex
100
AcDb2dVertex
 10
229.664
 20
165.235
 30
0.0
  0
VERTEX
  5
D5E
330
C8C
100
AcDbEntity
  8
7
100
AcDbVertex
100
AcDb2dVertex
 10
232.948
 20
165.465
 30
0.0
  0
VERTEX
  5
D5F
330
C8C
100
AcDbEntity
  8
7
100
AcDbVertex
100
AcDb2dVertex
 10
236.233
 20
165.698
 30
0.0
  0
VERTEX
  5
D60
330
C8C
100
AcDbEntity
  8
7
100
AcDbVertex
100
AcDb2dVertex
 10
237.875
 20
165.815
 30
0.0
  0
VERTEX
  5
D61
330
C8C
100
AcDbEntity
  8
7
100
AcDbVertex
100
AcDb2dVertex
 10
239.516
 20
165.934
 30
0.0
  0
VERTEX
  5
D62
330
C8C
100
AcDbEntity
  8
7
100
AcDbVertex
100
AcDb2dVertex
 10
241.158
 20
166.053
 30
0.0
  0
VERTEX
  5
D63
330
C8C
100
AcDbEntity
  8
7
100
AcDbVertex
100
AcDb2dVertex
 10
242.799
 20
166.173
 30
0.0
  0
VERTEX
  5
D64
330
C8C
100
AcDbEntity
  8
7
100
AcDbVertex
100
AcDb2dVertex
 10
244.44
 20
166.292
 30
0.0
  0
VERTEX
  5
D65
330
C8C
100
AcDbEntity
  8
7
100
AcDbVertex
100
AcDb2dVertex
 10
246.082
 20
166.412
 30
0.0
  0
VERTEX
  5
D66
330
C8C
100
AcDbEntity
  8
7
100
AcDbVertex
100
AcDb2dVertex
 10
247.724
 20
166.532
 30
0.0
  0
VERTEX
  5
D67
330
C8C
100
AcDbEntity
  8
7
100
AcDbVertex
100
AcDb2dVertex
 10
249.365
 20
166.651
 30
0.0
  0
VERTEX
  5
D68
330
C8C
100
AcDbEntity
  8
7
100
AcDbVertex
100
AcDb2dVertex
 10
251.006
 20
166.77
 30
0.0
  0
VERTEX
  5
D69
330
C8C
100
AcDbEntity
  8
7
100
AcDbVertex
100
AcDb2dVertex
 10
252.646
 20
166.889
 30
0.0
  0
VERTEX
  5
D6A
330
C8C
100
AcDbEntity
  8
7
100
AcDbVertex
100
AcDb2dVertex
 10
254.287
 20
167.008
 30
0.0
  0
VERTEX
  5
D6B
330
C8C
100
AcDbEntity
  8
7
100
AcDbVertex
100
AcDb2dVertex
 10
255.928
 20
167.127
 30
0.0
  0
VERTEX
  5
D6C
330
C8C
100
AcDbEntity
  8
7
100
AcDbVertex
100
AcDb2dVertex
 10
257.569
 20
167.245
 30
0.0
  0
VERTEX
  5
D6D
330
C8C
100
AcDbEntity
  8
7
100
AcDbVertex
100
AcDb2dVertex
 10
259.21
 20
167.364
 30
0.0
  0
VERTEX
  5
D6E
330
C8C
100
AcDbEntity
  8
7
100
AcDbVertex
100
AcDb2dVertex
 10
259.21
 20
167.732
 30
0.0
  0
SEQEND
  5
D6F
330
C8C
100
AcDbEntity
  8
7
  0
ENDBLK
  5
D71
330
C87
100
AcDbEntity
  8
0
100
AcDbBlockEnd
  0
BLOCK
  5
F73
330
F69
100
AcDbEntity
  8
0
100
AcDbBlockBegin
  2
*D19
 70
     1
 10
0.0
 20
0.0
 30
0.0
  3
*D19
  1

  0
LINE
  5
F75
330
F69
100
AcDbEntity
  8
AM_5
100
AcDbLine
 10
-865.6972913686031
 20
791.4168701240771
 30
0.0
 11
-865.6972913686031
 21
762.1074124198075
 31
0.0
  0
LINE
  5
F76
330
F69
100
AcDbEntity
  8
AM_5
100
AcDbLine
 10
-759.8369897343211
 20
791.4168701240771
 30
0.0
 11
-759.8369897343211
 21
762.1074124198075
 31
0.0
  0
LINE
  5
F77
330
F69
100
AcDbEntity
  8
AM_5
100
AcDbLine
 10
-863.1972913686031
 20
763.1074124198075
 30
0.0
 11
-762.3369897343211
 21
763.1074124198075
 31
0.0
  0
SOLID
  5
F78
330
F69
100
AcDbEntity
  8
AM_5
100
AcDbTrace
 10
-863.1972913686031
 20
763.5240790864742
 30
0.0
 11
-863.1972913686031
 21
762.6907457531409
 31
0.0
 12
-865.6972913686031
 22
763.1074124198075
 32
0.0
 13
-865.6972913686031
 23
763.1074124198075
 33
0.0
  0
SOLID
  5
F79
330
F69
100
AcDbEntity
  8
AM_5
100
AcDbTrace
 10
-762.3369897343211
 20
763.5240790864742
 30
0.0
 11
-762.3369897343211
 21
762.6907457531409
 31
0.0
 12
-759.8369897343211
 22
763.1074124198075
 32
0.0
 13
-759.8369897343211
 23
763.1074124198075
 33
0.0
  0
MTEXT
  5
F7A
330
F69
100
AcDbEntity
  8
AM_5
 62
     2
100
AcDbMText
 10
-812.7671405514622
 20
766.3574124198076
 30
0.0
 40
3.5
 41
0.0
 71
     5
 72
     1
  1
105.86
 73
     1
 44
1.0
1001
ACAD
1000
MTEXTBEGIN
1070
    73
1070
     1
1070
    44
1040
1.0
1070
    74
1070
     0
1000
MTEXTEND
  0
POINT
  5
F7B
330
F69
100
AcDbEntity
  8
Defpoints
 62
     0
100
AcDbPoint
 10
-865.6972913686031
 20
792.4168701240771
 30
0.0
  0
POINT
  5
F7C
330
F69
100
AcDbEntity
  8
Defpoints
 62
     0
100
AcDbPoint
 10
-759.8369897343211
 20
792.4168701240771
 30
0.0
  0
POINT
  5
F7D
330
F69
100
AcDbEntity
  8
Defpoints
 62
     0
100
AcDbPoint
 10
-759.8369897343211
 20
763.1074124198075
 30
0.0
  0
ENDBLK
  5
F74
330
F69
100
AcDbEntity
  8
0
100
AcDbBlockEnd
  0
BLOCK
  5
107A
330
F81
100
AcDbEntity
  8
0
100
AcDbBlockBegin
  2
CLARK Y - 105
 70
     0
 10
0.0
 20
0.0
 30
0.0
  3
CLARK Y - 105
  1

  0
POLYLINE
  5
F82
330
F81
100
AcDbEntity
  8
7
  6
Continuous
100
AcDb2dPolyline
 66
     1
 10
0.0
 20
0.0
 30
0.0
  0
VERTEX
  5
F83
330
F82
100
AcDbEntity
  8
7
100
AcDbVertex
100
AcDb2dVertex
 10
91.06999999999999
 20
183.169
 30
0.0
  0
VERTEX
  5
F84
330
F82
100
AcDbEntity
  8
7
100
AcDbVertex
100
AcDb2dVertex
 10
196.93
 20
183.169
 30
0.0
  0
SEQEND
  5
F85
330
F82
100
AcDbEntity
  8
7
  0
POLYLINE
  5
F86
330
F81
100
AcDbEntity
  8
7
  6
Continuous
100
AcDb2dPolyline
 66
     1
 10
0.0
 20
0.0
 30
0.0
  0
VERTEX
  5
F87
330
F86
100
AcDbEntity
  8
7
100
AcDbVertex
100
AcDb2dVertex
 10
196.93
 20
183.233
 30
0.0
  0
VERTEX
  5
F88
330
F86
100
AcDbEntity
  8
7
100
AcDbVertex
100
AcDb2dVertex
 10
196.401
 20
183.358
 30
0.0
  0
VERTEX
  5
F89
330
F86
100
AcDbEntity
  8
7
100
AcDbVertex
100
AcDb2dVertex
 10
195.871
 20
183.483
 30
0.0
  0
VERTEX
  5
F8A
330
F86
100
AcDbEntity
  8
7
100
AcDbVertex
100
AcDb2dVertex
 10
195.342
 20
183.609
 30
0.0
  0
VERTEX
  5
F8B
330
F86
100
AcDbEntity
  8
7
100
AcDbVertex
100
AcDb2dVertex
 10
194.813
 20
183.734
 30
0.0
  0
VERTEX
  5
F8C
330
F86
100
AcDbEntity
  8
7
100
AcDbVertex
100
AcDb2dVertex
 10
194.284
 20
183.859
 30
0.0
  0
VERTEX
  5
F8D
330
F86
100
AcDbEntity
  8
7
100
AcDbVertex
100
AcDb2dVertex
 10
193.754
 20
183.983
 30
0.0
  0
VERTEX
  5
F8E
330
F86
100
AcDbEntity
  8
7
100
AcDbVertex
100
AcDb2dVertex
 10
193.225
 20
184.107
 30
0.0
  0
VERTEX
  5
F8F
330
F86
100
AcDbEntity
  8
7
100
AcDbVertex
100
AcDb2dVertex
 10
192.696
 20
184.23
 30
0.0
  0
VERTEX
  5
F90
330
F86
100
AcDbEntity
  8
7
100
AcDbVertex
100
AcDb2dVertex
 10
191.637
 20
184.475
 30
0.0
  0
VERTEX
  5
F91
330
F86
100
AcDbEntity
  8
7
100
AcDbVertex
100
AcDb2dVertex
 10
190.578
 20
184.717
 30
0.0
  0
VERTEX
  5
F92
330
F86
100
AcDbEntity
  8
7
100
AcDbVertex
100
AcDb2dVertex
 10
189.52
 20
184.956
 30
0.0
  0
VERTEX
  5
F93
330
F86
100
AcDbEntity
  8
7
100
AcDbVertex
100
AcDb2dVertex
 10
188.461
 20
185.193
 30
0.0
  0
VERTEX
  5
F94
330
F86
100
AcDbEntity
  8
7
100
AcDbVertex
100
AcDb2dVertex
 10
187.403
 20
185.426
 30
0.0
  0
VERTEX
  5
F95
330
F86
100
AcDbEntity
  8
7
100
AcDbVertex
100
AcDb2dVertex
 10
186.344
 20
185.657
 30
0.0
  0
VERTEX
  5
F96
330
F86
100
AcDbEntity
  8
7
100
AcDbVertex
100
AcDb2dVertex
 10
185.2859999999999
 20
185.885
 30
0.0
  0
VERTEX
  5
F97
330
F86
100
AcDbEntity
  8
7
100
AcDbVertex
100
AcDb2dVertex
 10
184.227
 20
186.111
 30
0.0
  0
VERTEX
  5
F98
330
F86
100
AcDbEntity
  8
7
100
AcDbVertex
100
AcDb2dVertex
 10
183.168
 20
186.334
 30
0.0
  0
VERTEX
  5
F99
330
F86
100
AcDbEntity
  8
7
100
AcDbVertex
100
AcDb2dVertex
 10
182.11
 20
186.554
 30
0.0
  0
VERTEX
  5
F9A
330
F86
100
AcDbEntity
  8
7
100
AcDbVertex
100
AcDb2dVertex
 10
181.051
 20
186.771
 30
0.0
  0
VERTEX
  5
F9B
330
F86
100
AcDbEntity
  8
7
100
AcDbVertex
100
AcDb2dVertex
 10
179.992
 20
186.986
 30
0.0
  0
VERTEX
  5
F9C
330
F86
100
AcDbEntity
  8
7
100
AcDbVertex
100
AcDb2dVertex
 10
178.934
 20
187.197
 30
0.0
  0
VERTEX
  5
F9D
330
F86
100
AcDbEntity
  8
7
100
AcDbVertex
100
AcDb2dVertex
 10
177.875
 20
187.406
 30
0.0
  0
VERTEX
  5
F9E
330
F86
100
AcDbEntity
  8
7
100
AcDbVertex
100
AcDb2dVertex
 10
176.817
 20
187.612
 30
0.0
  0
VERTEX
  5
F9F
330
F86
100
AcDbEntity
  8
7
100
AcDbVertex
100
AcDb2dVertex
 10
175.758
 20
187.815
 30
0.0
  0
VERTEX
  5
FA0
330
F86
100
AcDbEntity
  8
7
100
AcDbVertex
100
AcDb2dVertex
 10
174.7
 20
188.014
 30
0.0
  0
VERTEX
  5
FA1
330
F86
100
AcDbEntity
  8
7
100
AcDbVertex
100
AcDb2dVertex
 10
173.641
 20
188.211
 30
0.0
  0
VERTEX
  5
FA2
330
F86
100
AcDbEntity
  8
7
100
AcDbVertex
100
AcDb2dVertex
 10
172.582
 20
188.405
 30
0.0
  0
VERTEX
  5
FA3
330
F86
100
AcDbEntity
  8
7
100
AcDbVertex
100
AcDb2dVertex
 10
171.524
 20
188.595
 30
0.0
  0
VERTEX
  5
FA4
330
F86
100
AcDbEntity
  8
7
100
AcDbVertex
100
AcDb2dVertex
 10
170.465
 20
188.783
 30
0.0
  0
VERTEX
  5
FA5
330
F86
100
AcDbEntity
  8
7
100
AcDbVertex
100
AcDb2dVertex
 10
169.406
 20
188.967
 30
0.0
  0
VERTEX
  5
FA6
330
F86
100
AcDbEntity
  8
7
100
AcDbVertex
100
AcDb2dVertex
 10
168.348
 20
189.148
 30
0.0
  0
VERTEX
  5
FA7
330
F86
100
AcDbEntity
  8
7
100
AcDbVertex
100
AcDb2dVertex
 10
167.289
 20
189.326
 30
0.0
  0
VERTEX
  5
FA8
330
F86
100
AcDbEntity
  8
7
100
AcDbVertex
100
AcDb2dVertex
 10
166.231
 20
189.501
 30
0.0
  0
VERTEX
  5
FA9
330
F86
100
AcDbEntity
  8
7
100
AcDbVertex
100
AcDb2dVertex
 10
165.172
 20
189.672
 30
0.0
  0
VERTEX
  5
FAA
330
F86
100
AcDbEntity
  8
7
100
AcDbVertex
100
AcDb2dVertex
 10
164.114
 20
189.841
 30
0.0
  0
VERTEX
  5
FAB
330
F86
100
AcDbEntity
  8
7
100
AcDbVertex
100
AcDb2dVertex
 10
163.055
 20
190.006
 30
0.0
  0
VERTEX
  5
FAC
330
F86
100
AcDbEntity
  8
7
100
AcDbVertex
100
AcDb2dVertex
 10
161.996
 20
190.168
 30
0.0
  0
VERTEX
  5
FAD
330
F86
100
AcDbEntity
  8
7
100
AcDbVertex
100
AcDb2dVertex
 10
160.9379999999999
 20
190.326
 30
0.0
  0
VERTEX
  5
FAE
330
F86
100
AcDbEntity
  8
7
100
AcDbVertex
100
AcDb2dVertex
 10
159.879
 20
190.48
 30
0.0
  0
VERTEX
  5
FAF
330
F86
100
AcDbEntity
  8
7
100
AcDbVertex
100
AcDb2dVertex
 10
158.82
 20
190.63
 30
0.0
  0
VERTEX
  5
FB0
330
F86
100
AcDbEntity
  8
7
100
AcDbVertex
100
AcDb2dVertex
 10
157.762
 20
190.777
 30
0.0
  0
VERTEX
  5
FB1
330
F86
100
AcDbEntity
  8
7
100
AcDbVertex
100
AcDb2dVertex
 10
156.703
 20
190.919
 30
0.0
  0
VERTEX
  5
FB2
330
F86
100
AcDbEntity
  8
7
100
AcDbVertex
100
AcDb2dVertex
 10
155.645
 20
191.056
 30
0.0
  0
VERTEX
  5
FB3
330
F86
100
AcDbEntity
  8
7
100
AcDbVertex
100
AcDb2dVertex
 10
154.586
 20
191.189
 30
0.0
  0
VERTEX
  5
FB4
330
F86
100
AcDbEntity
  8
7
100
AcDbVertex
100
AcDb2dVertex
 10
153.528
 20
191.318
 30
0.0
  0
VERTEX
  5
FB5
330
F86
100
AcDbEntity
  8
7
100
AcDbVertex
100
AcDb2dVertex
 10
152.469
 20
191.442
 30
0.0
  0
VERTEX
  5
FB6
330
F86
100
AcDbEntity
  8
7
100
AcDbVertex
100
AcDb2dVertex
 10
151.41
 20
191.561
 30
0.0
  0
VERTEX
  5
FB7
330
F86
100
AcDbEntity
  8
7
100
AcDbVertex
100
AcDb2dVertex
 10
150.352
 20
191.675
 30
0.0
  0
VERTEX
  5
FB8
330
F86
100
AcDbEntity
  8
7
100
AcDbVertex
100
AcDb2dVertex
 10
149.293
 20
191.784
 30
0.0
  0
VERTEX
  5
FB9
330
F86
100
AcDbEntity
  8
7
100
AcDbVertex
100
AcDb2dVertex
 10
148.234
 20
191.889
 30
0.0
  0
VERTEX
  5
FBA
330
F86
100
AcDbEntity
  8
7
100
AcDbVertex
100
AcDb2dVertex
 10
147.176
 20
191.989
 30
0.0
  0
VERTEX
  5
FBB
330
F86
100
AcDbEntity
  8
7
100
AcDbVertex
100
AcDb2dVertex
 10
146.117
 20
192.084
 30
0.0
  0
VERTEX
  5
FBC
330
F86
100
AcDbEntity
  8
7
100
AcDbVertex
100
AcDb2dVertex
 10
145.059
 20
192.174
 30
0.0
  0
VERTEX
  5
FBD
330
F86
100
AcDbEntity
  8
7
100
AcDbVertex
100
AcDb2dVertex
 10
144.0
 20
192.26
 30
0.0
  0
VERTEX
  5
FBE
330
F86
100
AcDbEntity
  8
7
100
AcDbVertex
100
AcDb2dVertex
 10
142.942
 20
192.341
 30
0.0
  0
VERTEX
  5
FBF
330
F86
100
AcDbEntity
  8
7
100
AcDbVertex
100
AcDb2dVertex
 10
141.8829999999999
 20
192.417
 30
0.0
  0
VERTEX
  5
FC0
330
F86
100
AcDbEntity
  8
7
100
AcDbVertex
100
AcDb2dVertex
 10
140.824
 20
192.488
 30
0.0
  0
VERTEX
  5
FC1
330
F86
100
AcDbEntity
  8
7
100
AcDbVertex
100
AcDb2dVertex
 10
139.766
 20
192.553
 30
0.0
  0
VERTEX
  5
FC2
330
F86
100
AcDbEntity
  8
7
100
AcDbVertex
100
AcDb2dVertex
 10
138.707
 20
192.613
 30
0.0
  0
VERTEX
  5
FC3
330
F86
100
AcDbEntity
  8
7
100
AcDbVertex
100
AcDb2dVertex
 10
137.648
 20
192.667
 30
0.0
  0
VERTEX
  5
FC4
330
F86
100
AcDbEntity
  8
7
100
AcDbVertex
100
AcDb2dVertex
 10
136.59
 20
192.715
 30
0.0
  0
VERTEX
  5
FC5
330
F86
100
AcDbEntity
  8
7
100
AcDbVertex
100
AcDb2dVertex
 10
135.531
 20
192.7559999999999
 30
0.0
  0
VERTEX
  5
FC6
330
F86
100
AcDbEntity
  8
7
100
AcDbVertex
100
AcDb2dVertex
 10
134.473
 20
192.792
 30
0.0
  0
VERTEX
  5
FC7
330
F86
100
AcDbEntity
  8
7
100
AcDbVertex
100
AcDb2dVertex
 10
133.414
 20
192.821
 30
0.0
  0
VERTEX
  5
FC8
330
F86
100
AcDbEntity
  8
7
100
AcDbVertex
100
AcDb2dVertex
 10
132.355
 20
192.842
 30
0.0
  0
VERTEX
  5
FC9
330
F86
100
AcDbEntity
  8
7
100
AcDbVertex
100
AcDb2dVertex
 10
131.297
 20
192.858
 30
0.0
  0
VERTEX
  5
FCA
330
F86
100
AcDbEntity
  8
7
100
AcDbVertex
100
AcDb2dVertex
 10
130.238
 20
192.8659999999999
 30
0.0
  0
VERTEX
  5
FCB
330
F86
100
AcDbEntity
  8
7
100
AcDbVertex
100
AcDb2dVertex
 10
129.18
 20
192.869
 30
0.0
  0
VERTEX
  5
FCC
330
F86
100
AcDbEntity
  8
7
100
AcDbVertex
100
AcDb2dVertex
 10
128.121
 20
192.865
 30
0.0
  0
VERTEX
  5
FCD
330
F86
100
AcDbEntity
  8
7
100
AcDbVertex
100
AcDb2dVertex
 10
127.062
 20
192.856
 30
0.0
  0
VERTEX
  5
FCE
330
F86
100
AcDbEntity
  8
7
100
AcDbVertex
100
AcDb2dVertex
 10
126.004
 20
192.842
 30
0.0
  0
VERTEX
  5
FCF
330
F86
100
AcDbEntity
  8
7
100
AcDbVertex
100
AcDb2dVertex
 10
124.945
 20
192.822
 30
0.0
  0
VERTEX
  5
FD0
330
F86
100
AcDbEntity
  8
7
100
AcDbVertex
100
AcDb2dVertex
 10
123.887
 20
192.798
 30
0.0
  0
VERTEX
  5
FD1
330
F86
100
AcDbEntity
  8
7
100
AcDbVertex
100
AcDb2dVertex
 10
122.828
 20
192.769
 30
0.0
  0
VERTEX
  5
FD2
330
F86
100
AcDbEntity
  8
7
100
AcDbVertex
100
AcDb2dVertex
 10
121.769
 20
192.735
 30
0.0
  0
VERTEX
  5
FD3
330
F86
100
AcDbEntity
  8
7
100
AcDbVertex
100
AcDb2dVertex
 10
120.711
 20
192.697
 30
0.0
  0
VERTEX
  5
FD4
330
F86
100
AcDbEntity
  8
7
100
AcDbVertex
100
AcDb2dVertex
 10
119.652
 20
192.652
 30
0.0
  0
VERTEX
  5
FD5
330
F86
100
AcDbEntity
  8
7
100
AcDbVertex
100
AcDb2dVertex
 10
118.594
 20
192.6
 30
0.0
  0
VERTEX
  5
FD6
330
F86
100
AcDbEntity
  8
7
100
AcDbVertex
100
AcDb2dVertex
 10
117.535
 20
192.538
 30
0.0
  0
VERTEX
  5
FD7
330
F86
100
AcDbEntity
  8
7
100
AcDbVertex
100
AcDb2dVertex
 10
116.476
 20
192.467
 30
0.0
  0
VERTEX
  5
FD8
330
F86
100
AcDbEntity
  8
7
100
AcDbVertex
100
AcDb2dVertex
 10
115.417
 20
192.384
 30
0.0
  0
VERTEX
  5
FD9
330
F86
100
AcDbEntity
  8
7
100
AcDbVertex
100
AcDb2dVertex
 10
114.359
 20
192.288
 30
0.0
  0
VERTEX
  5
FDA
330
F86
100
AcDbEntity
  8
7
100
AcDbVertex
100
AcDb2dVertex
 10
113.3
 20
192.178
 30
0.0
  0
VERTEX
  5
FDB
330
F86
100
AcDbEntity
  8
7
100
AcDbVertex
100
AcDb2dVertex
 10
112.242
 20
192.053
 30
0.0
  0
VERTEX
  5
FDC
330
F86
100
AcDbEntity
  8
7
100
AcDbVertex
100
AcDb2dVertex
 10
111.182
 20
191.91
 30
0.0
  0
VERTEX
  5
FDD
330
F86
100
AcDbEntity
  8
7
100
AcDbVertex
100
AcDb2dVertex
 10
110.125
 20
191.751
 30
0.0
  0
VERTEX
  5
FDE
330
F86
100
AcDbEntity
  8
7
100
AcDbVertex
100
AcDb2dVertex
 10
109.065
 20
191.574
 30
0.0
  0
VERTEX
  5
FDF
330
F86
100
AcDbEntity
  8
7
100
AcDbVertex
100
AcDb2dVertex
 10
108.008
 20
191.3809999999999
 30
0.0
  0
VERTEX
  5
FE0
330
F86
100
AcDbEntity
  8
7
100
AcDbVertex
100
AcDb2dVertex
 10
106.947
 20
191.17
 30
0.0
  0
VERTEX
  5
FE1
330
F86
100
AcDbEntity
  8
7
100
AcDbVertex
100
AcDb2dVertex
 10
105.89
 20
190.943
 30
0.0
  0
VERTEX
  5
FE2
330
F86
100
AcDbEntity
  8
7
100
AcDbVertex
100
AcDb2dVertex
 10
104.83
 20
190.697
 30
0.0
  0
VERTEX
  5
FE3
330
F86
100
AcDbEntity
  8
7
100
AcDbVertex
100
AcDb2dVertex
 10
103.773
 20
190.433
 30
0.0
  0
VERTEX
  5
FE4
330
F86
100
AcDbEntity
  8
7
100
AcDbVertex
100
AcDb2dVertex
 10
102.712
 20
190.147
 30
0.0
  0
VERTEX
  5
FE5
330
F86
100
AcDbEntity
  8
7
100
AcDbVertex
100
AcDb2dVertex
 10
101.656
 20
189.838
 30
0.0
  0
VERTEX
  5
FE6
330
F86
100
AcDbEntity
  8
7
100
AcDbVertex
100
AcDb2dVertex
 10
100.594
 20
189.502
 30
0.0
  0
VERTEX
  5
FE7
330
F86
100
AcDbEntity
  8
7
100
AcDbVertex
100
AcDb2dVertex
 10
99.539
 20
189.143
 30
0.0
  0
VERTEX
  5
FE8
330
F86
100
AcDbEntity
  8
7
100
AcDbVertex
100
AcDb2dVertex
 10
98.474
 20
188.753
 30
0.0
  0
VERTEX
  5
FE9
330
F86
100
AcDbEntity
  8
7
100
AcDbVertex
100
AcDb2dVertex
 10
97.42200000000002
 20
188.3309999999999
 30
0.0
  0
VERTEX
  5
FEA
330
F86
100
AcDbEntity
  8
7
100
AcDbVertex
100
AcDb2dVertex
 10
96.89
 20
188.1
 30
0.0
  0
VERTEX
  5
FEB
330
F86
100
AcDbEntity
  8
7
100
AcDbVertex
100
AcDb2dVertex
 10
96.363
 20
187.856
 30
0.0
  0
VERTEX
  5
FEC
330
F86
100
AcDbEntity
  8
7
100
AcDbVertex
100
AcDb2dVertex
 10
95.83
 20
187.592
 30
0.0
  0
VERTEX
  5
FED
330
F86
100
AcDbEntity
  8
7
100
AcDbVertex
100
AcDb2dVertex
 10
95.304
 20
187.311
 30
0.0
  0
VERTEX
  5
FEE
330
F86
100
AcDbEntity
  8
7
100
AcDbVertex
100
AcDb2dVertex
 10
94.76799999999999
 20
187.0
 30
0.0
  0
VERTEX
  5
FEF
330
F86
100
AcDbEntity
  8
7
100
AcDbVertex
100
AcDb2dVertex
 10
94.24600000000001
 20
186.665
 30
0.0
  0
VERTEX
  5
FF0
330
F86
100
AcDbEntity
  8
7
100
AcDbVertex
100
AcDb2dVertex
 10
93.70499999999999
 20
186.2759999999999
 30
0.0
  0
VERTEX
  5
FF1
330
F86
100
AcDbEntity
  8
7
100
AcDbVertex
100
AcDb2dVertex
 10
93.18700000000001
 20
185.855
 30
0.0
  0
VERTEX
  5
FF2
330
F86
100
AcDbEntity
  8
7
100
AcDbVertex
100
AcDb2dVertex
 10
92.757
 20
185.465
 30
0.0
  0
VERTEX
  5
FF3
330
F86
100
AcDbEntity
  8
7
100
AcDbVertex
100
AcDb2dVertex
 10
92.33999999999999
 20
185.06
 30
0.0
  0
VERTEX
  5
FF4
330
F86
100
AcDbEntity
  8
7
100
AcDbVertex
100
AcDb2dVertex
 10
92.126
 20
184.844
 30
0.0
  0
VERTEX
  5
FF5
330
F86
100
AcDbEntity
  8
7
100
AcDbVertex
100
AcDb2dVertex
 10
91.917
 20
184.623
 30
0.0
  0
VERTEX
  5
FF6
330
F86
100
AcDbEntity
  8
7
100
AcDbVertex
100
AcDb2dVertex
 10
91.698
 20
184.375
 30
0.0
  0
VERTEX
  5
FF7
330
F86
100
AcDbEntity
  8
7
100
AcDbVertex
100
AcDb2dVertex
 10
91.493
 20
184.114
 30
0.0
  0
VERTEX
  5
FF8
330
F86
100
AcDbEntity
  8
7
100
AcDbVertex
100
AcDb2dVertex
 10
91.38200000000001
 20
183.952
 30
0.0
  0
VERTEX
  5
FF9
330
F86
100
AcDbEntity
  8
7
100
AcDbVertex
100
AcDb2dVertex
 10
91.28200000000001
 20
183.783
 30
0.0
  0
VERTEX
  5
FFA
330
F86
100
AcDbEntity
  8
7
100
AcDbVertex
100
AcDb2dVertex
 10
91.226
 20
183.675
 30
0.0
  0
VERTEX
  5
FFB
330
F86
100
AcDbEntity
  8
7
100
AcDbVertex
100
AcDb2dVertex
 10
91.17600000000001
 20
183.564
 30
0.0
  0
VERTEX
  5
FFC
330
F86
100
AcDbEntity
  8
7
100
AcDbVertex
100
AcDb2dVertex
 10
91.148
 20
183.4909999999999
 30
0.0
  0
VERTEX
  5
FFD
330
F86
100
AcDbEntity
  8
7
100
AcDbVertex
100
AcDb2dVertex
 10
91.12299999999999
 20
183.417
 30
0.0
  0
VERTEX
  5
FFE
330
F86
100
AcDbEntity
  8
7
100
AcDbVertex
100
AcDb2dVertex
 10
91.09100000000001
 20
183.294
 30
0.0
  0
VERTEX
  5
FFF
330
F86
100
AcDbEntity
  8
7
100
AcDbVertex
100
AcDb2dVertex
 10
91.06999999999999
 20
183.169
 30
0.0
  0
VERTEX
  5
1000
330
F86
100
AcDbEntity
  8
7
100
AcDbVertex
100
AcDb2dVertex
 10
91.06999999999999
 20
182.919
 30
0.0
  0
VERTEX
  5
1001
330
F86
100
AcDbEntity
  8
7
100
AcDbVertex
100
AcDb2dVertex
 10
91.12299999999999
 20
182.675
 30
0.0
  0
VERTEX
  5
1002
330
F86
100
AcDbEntity
  8
7
100
AcDbVertex
100
AcDb2dVertex
 10
91.148
 20
182.607
 30
0.0
  0
VERTEX
  5
1003
330
F86
100
AcDbEntity
  8
7
100
AcDbVertex
100
AcDb2dVertex
 10
91.17600000000001
 20
182.54
 30
0.0
  0
VERTEX
  5
1004
330
F86
100
AcDbEntity
  8
7
100
AcDbVertex
100
AcDb2dVertex
 10
91.226
 20
182.44
 30
0.0
  0
VERTEX
  5
1005
330
F86
100
AcDbEntity
  8
7
100
AcDbVertex
100
AcDb2dVertex
 10
91.28200000000001
 20
182.342
 30
0.0
  0
VERTEX
  5
1006
330
F86
100
AcDbEntity
  8
7
100
AcDbVertex
100
AcDb2dVertex
 10
91.38200000000001
 20
182.195
 30
0.0
  0
VERTEX
  5
1007
330
F86
100
AcDbEntity
  8
7
100
AcDbVertex
100
AcDb2dVertex
 10
91.493
 20
182.056
 30
0.0
  0
VERTEX
  5
1008
330
F86
100
AcDbEntity
  8
7
100
AcDbVertex
100
AcDb2dVertex
 10
91.69499999999999
 20
181.847
 30
0.0
  0
VERTEX
  5
1009
330
F86
100
AcDbEntity
  8
7
100
AcDbVertex
100
AcDb2dVertex
 10
91.917
 20
181.657
 30
0.0
  0
VERTEX
  5
100A
330
F86
100
AcDbEntity
  8
7
100
AcDbVertex
100
AcDb2dVertex
 10
92.12299999999999
 20
181.5059999999999
 30
0.0
  0
VERTEX
  5
100B
330
F86
100
AcDbEntity
  8
7
100
AcDbVertex
100
AcDb2dVertex
 10
92.33999999999999
 20
181.372
 30
0.0
  0
VERTEX
  5
100C
330
F86
100
AcDbEntity
  8
7
100
AcDbVertex
100
AcDb2dVertex
 10
92.75399999999999
 20
181.174
 30
0.0
  0
VERTEX
  5
100D
330
F86
100
AcDbEntity
  8
7
100
AcDbVertex
100
AcDb2dVertex
 10
93.18700000000001
 20
181.023
 30
0.0
  0
VERTEX
  5
100E
330
F86
100
AcDbEntity
  8
7
100
AcDbVertex
100
AcDb2dVertex
 10
93.71399999999999
 20
180.887
 30
0.0
  0
VERTEX
  5
100F
330
F86
100
AcDbEntity
  8
7
100
AcDbVertex
100
AcDb2dVertex
 10
94.24600000000001
 20
180.776
 30
0.0
  0
VERTEX
  5
1010
330
F86
100
AcDbEntity
  8
7
100
AcDbVertex
100
AcDb2dVertex
 10
94.775
 20
180.672
 30
0.0
  0
VERTEX
  5
1011
330
F86
100
AcDbEntity
  8
7
100
AcDbVertex
100
AcDb2dVertex
 10
95.304
 20
180.573
 30
0.0
  0
VERTEX
  5
1012
330
F86
100
AcDbEntity
  8
7
100
AcDbVertex
100
AcDb2dVertex
 10
95.83299999999999
 20
180.487
 30
0.0
  0
VERTEX
  5
1013
330
F86
100
AcDbEntity
  8
7
100
AcDbVertex
100
AcDb2dVertex
 10
96.363
 20
180.412
 30
0.0
  0
VERTEX
  5
1014
330
F86
100
AcDbEntity
  8
7
100
AcDbVertex
100
AcDb2dVertex
 10
96.89200000000001
 20
180.35
 30
0.0
  0
VERTEX
  5
1015
330
F86
100
AcDbEntity
  8
7
100
AcDbVertex
100
AcDb2dVertex
 10
97.42200000000002
 20
180.297
 30
0.0
  0
VERTEX
  5
1016
330
F86
100
AcDbEntity
  8
7
100
AcDbVertex
100
AcDb2dVertex
 10
98.479
 20
180.217
 30
0.0
  0
VERTEX
  5
1017
330
F86
100
AcDbEntity
  8
7
100
AcDbVertex
100
AcDb2dVertex
 10
99.539
 20
180.156
 30
0.0
  0
VERTEX
  5
1018
330
F86
100
AcDbEntity
  8
7
100
AcDbVertex
100
AcDb2dVertex
 10
100.597
 20
180.104
 30
0.0
  0
VERTEX
  5
1019
330
F86
100
AcDbEntity
  8
7
100
AcDbVertex
100
AcDb2dVertex
 10
101.656
 20
180.059
 30
0.0
  0
VERTEX
  5
101A
330
F86
100
AcDbEntity
  8
7
100
AcDbVertex
100
AcDb2dVertex
 10
102.714
 20
180.024
 30
0.0
  0
VERTEX
  5
101B
330
F86
100
AcDbEntity
  8
7
100
AcDbVertex
100
AcDb2dVertex
 10
103.773
 20
179.997
 30
0.0
  0
VERTEX
  5
101C
330
F86
100
AcDbEntity
  8
7
100
AcDbVertex
100
AcDb2dVertex
 10
104.832
 20
179.979
 30
0.0
  0
VERTEX
  5
101D
330
F86
100
AcDbEntity
  8
7
100
AcDbVertex
100
AcDb2dVertex
 10
105.89
 20
179.968
 30
0.0
  0
VERTEX
  5
101E
330
F86
100
AcDbEntity
  8
7
100
AcDbVertex
100
AcDb2dVertex
 10
106.949
 20
179.964
 30
0.0
  0
VERTEX
  5
101F
330
F86
100
AcDbEntity
  8
7
100
AcDbVertex
100
AcDb2dVertex
 10
108.008
 20
179.966
 30
0.0
  0
VERTEX
  5
1020
330
F86
100
AcDbEntity
  8
7
100
AcDbVertex
100
AcDb2dVertex
 10
109.066
 20
179.975
 30
0.0
  0
VERTEX
  5
1021
330
F86
100
AcDbEntity
  8
7
100
AcDbVertex
100
AcDb2dVertex
 10
110.125
 20
179.988
 30
0.0
  0
VERTEX
  5
1022
330
F86
100
AcDbEntity
  8
7
100
AcDbVertex
100
AcDb2dVertex
 10
111.183
 20
180.006
 30
0.0
  0
VERTEX
  5
1023
330
F86
100
AcDbEntity
  8
7
100
AcDbVertex
100
AcDb2dVertex
 10
112.242
 20
180.029
 30
0.0
  0
VERTEX
  5
1024
330
F86
100
AcDbEntity
  8
7
100
AcDbVertex
100
AcDb2dVertex
 10
113.301
 20
180.055
 30
0.0
  0
VERTEX
  5
1025
330
F86
100
AcDbEntity
  8
7
100
AcDbVertex
100
AcDb2dVertex
 10
114.359
 20
180.084
 30
0.0
  0
VERTEX
  5
1026
330
F86
100
AcDbEntity
  8
7
100
AcDbVertex
100
AcDb2dVertex
 10
115.418
 20
180.116
 30
0.0
  0
VERTEX
  5
1027
330
F86
100
AcDbEntity
  8
7
100
AcDbVertex
100
AcDb2dVertex
 10
116.476
 20
180.15
 30
0.0
  0
VERTEX
  5
1028
330
F86
100
AcDbEntity
  8
7
100
AcDbVertex
100
AcDb2dVertex
 10
117.535
 20
180.187
 30
0.0
  0
VERTEX
  5
1029
330
F86
100
AcDbEntity
  8
7
100
AcDbVertex
100
AcDb2dVertex
 10
118.594
 20
180.225
 30
0.0
  0
VERTEX
  5
102A
330
F86
100
AcDbEntity
  8
7
100
AcDbVertex
100
AcDb2dVertex
 10
119.652
 20
180.264
 30
0.0
  0
VERTEX
  5
102B
330
F86
100
AcDbEntity
  8
7
100
AcDbVertex
100
AcDb2dVertex
 10
120.711
 20
180.304
 30
0.0
  0
VERTEX
  5
102C
330
F86
100
AcDbEntity
  8
7
100
AcDbVertex
100
AcDb2dVertex
 10
121.769
 20
180.344
 30
0.0
  0
VERTEX
  5
102D
330
F86
100
AcDbEntity
  8
7
100
AcDbVertex
100
AcDb2dVertex
 10
122.828
 20
180.384
 30
0.0
  0
VERTEX
  5
102E
330
F86
100
AcDbEntity
  8
7
100
AcDbVertex
100
AcDb2dVertex
 10
123.887
 20
180.424
 30
0.0
  0
VERTEX
  5
102F
330
F86
100
AcDbEntity
  8
7
100
AcDbVertex
100
AcDb2dVertex
 10
124.945
 20
180.464
 30
0.0
  0
VERTEX
  5
1030
330
F86
100
AcDbEntity
  8
7
100
AcDbVertex
100
AcDb2dVertex
 10
126.004
 20
180.503
 30
0.0
  0
VERTEX
  5
1031
330
F86
100
AcDbEntity
  8
7
100
AcDbVertex
100
AcDb2dVertex
 10
127.062
 20
180.542
 30
0.0
  0
VERTEX
  5
1032
330
F86
100
AcDbEntity
  8
7
100
AcDbVertex
100
AcDb2dVertex
 10
128.121
 20
180.581
 30
0.0
  0
VERTEX
  5
1033
330
F86
100
AcDbEntity
  8
7
100
AcDbVertex
100
AcDb2dVertex
 10
129.18
 20
180.619
 30
0.0
  0
VERTEX
  5
1034
330
F86
100
AcDbEntity
  8
7
100
AcDbVertex
100
AcDb2dVertex
 10
130.238
 20
180.658
 30
0.0
  0
VERTEX
  5
1035
330
F86
100
AcDbEntity
  8
7
100
AcDbVertex
100
AcDb2dVertex
 10
131.297
 20
180.696
 30
0.0
  0
VERTEX
  5
1036
330
F86
100
AcDbEntity
  8
7
100
AcDbVertex
100
AcDb2dVertex
 10
132.355
 20
180.735
 30
0.0
  0
VERTEX
  5
1037
330
F86
100
AcDbEntity
  8
7
100
AcDbVertex
100
AcDb2dVertex
 10
133.414
 20
180.773
 30
0.0
  0
VERTEX
  5
1038
330
F86
100
AcDbEntity
  8
7
100
AcDbVertex
100
AcDb2dVertex
 10
134.473
 20
180.812
 30
0.0
  0
VERTEX
  5
1039
330
F86
100
AcDbEntity
  8
7
100
AcDbVertex
100
AcDb2dVertex
 10
135.531
 20
180.85
 30
0.0
  0
VERTEX
  5
103A
330
F86
100
AcDbEntity
  8
7
100
AcDbVertex
100
AcDb2dVertex
 10
136.59
 20
180.889
 30
0.0
  0
VERTEX
  5
103B
330
F86
100
AcDbEntity
  8
7
100
AcDbVertex
100
AcDb2dVertex
 10
137.648
 20
180.928
 30
0.0
  0
VERTEX
  5
103C
330
F86
100
AcDbEntity
  8
7
100
AcDbVertex
100
AcDb2dVertex
 10
138.707
 20
180.967
 30
0.0
  0
VERTEX
  5
103D
330
F86
100
AcDbEntity
  8
7
100
AcDbVertex
100
AcDb2dVertex
 10
139.766
 20
181.006
 30
0.0
  0
VERTEX
  5
103E
330
F86
100
AcDbEntity
  8
7
100
AcDbVertex
100
AcDb2dVertex
 10
140.824
 20
181.045
 30
0.0
  0
VERTEX
  5
103F
330
F86
100
AcDbEntity
  8
7
100
AcDbVertex
100
AcDb2dVertex
 10
141.8829999999999
 20
181.084
 30
0.0
  0
VERTEX
  5
1040
330
F86
100
AcDbEntity
  8
7
100
AcDbVertex
100
AcDb2dVertex
 10
142.941
 20
181.123
 30
0.0
  0
VERTEX
  5
1041
330
F86
100
AcDbEntity
  8
7
100
AcDbVertex
100
AcDb2dVertex
 10
144.0
 20
181.162
 30
0.0
  0
VERTEX
  5
1042
330
F86
100
AcDbEntity
  8
7
100
AcDbVertex
100
AcDb2dVertex
 10
145.059
 20
181.201
 30
0.0
  0
VERTEX
  5
1043
330
F86
100
AcDbEntity
  8
7
100
AcDbVertex
100
AcDb2dVertex
 10
146.117
 20
181.24
 30
0.0
  0
VERTEX
  5
1044
330
F86
100
AcDbEntity
  8
7
100
AcDbVertex
100
AcDb2dVertex
 10
147.176
 20
181.279
 30
0.0
  0
VERTEX
  5
1045
330
F86
100
AcDbEntity
  8
7
100
AcDbVertex
100
AcDb2dVertex
 10
148.234
 20
181.318
 30
0.0
  0
VERTEX
  5
1046
330
F86
100
AcDbEntity
  8
7
100
AcDbVertex
100
AcDb2dVertex
 10
149.293
 20
181.356
 30
0.0
  0
VERTEX
  5
1047
330
F86
100
AcDbEntity
  8
7
100
AcDbVertex
100
AcDb2dVertex
 10
150.352
 20
181.395
 30
0.0
  0
VERTEX
  5
1048
330
F86
100
AcDbEntity
  8
7
100
AcDbVertex
100
AcDb2dVertex
 10
151.41
 20
181.434
 30
0.0
  0
VERTEX
  5
1049
330
F86
100
AcDbEntity
  8
7
100
AcDbVertex
100
AcDb2dVertex
 10
152.469
 20
181.473
 30
0.0
  0
VERTEX
  5
104A
330
F86
100
AcDbEntity
  8
7
100
AcDbVertex
100
AcDb2dVertex
 10
153.527
 20
181.512
 30
0.0
  0
VERTEX
  5
104B
330
F86
100
AcDbEntity
  8
7
100
AcDbVertex
100
AcDb2dVertex
 10
154.586
 20
181.551
 30
0.0
  0
VERTEX
  5
104C
330
F86
100
AcDbEntity
  8
7
100
AcDbVertex
100
AcDb2dVertex
 10
155.645
 20
181.589
 30
0.0
  0
VERTEX
  5
104D
330
F86
100
AcDbEntity
  8
7
100
AcDbVertex
100
AcDb2dVertex
 10
156.703
 20
181.628
 30
0.0
  0
VERTEX
  5
104E
330
F86
100
AcDbEntity
  8
7
100
AcDbVertex
100
AcDb2dVertex
 10
157.762
 20
181.667
 30
0.0
  0
VERTEX
  5
104F
330
F86
100
AcDbEntity
  8
7
100
AcDbVertex
100
AcDb2dVertex
 10
158.82
 20
181.706
 30
0.0
  0
VERTEX
  5
1050
330
F86
100
AcDbEntity
  8
7
100
AcDbVertex
100
AcDb2dVertex
 10
159.879
 20
181.745
 30
0.0
  0
VERTEX
  5
1051
330
F86
100
AcDbEntity
  8
7
100
AcDbVertex
100
AcDb2dVertex
 10
160.9379999999999
 20
181.784
 30
0.0
  0
VERTEX
  5
1052
330
F86
100
AcDbEntity
  8
7
100
AcDbVertex
100
AcDb2dVertex
 10
161.996
 20
181.8229999999999
 30
0.0
  0
VERTEX
  5
1053
330
F86
100
AcDbEntity
  8
7
100
AcDbVertex
100
AcDb2dVertex
 10
163.055
 20
181.862
 30
0.0
  0
VERTEX
  5
1054
330
F86
100
AcDbEntity
  8
7
100
AcDbVertex
100
AcDb2dVertex
 10
164.113
 20
181.901
 30
0.0
  0
VERTEX
  5
1055
330
F86
100
AcDbEntity
  8
7
100
AcDbVertex
100
AcDb2dVertex
 10
165.172
 20
181.939
 30
0.0
  0
VERTEX
  5
1056
330
F86
100
AcDbEntity
  8
7
100
AcDbVertex
100
AcDb2dVertex
 10
166.231
 20
181.9779999999999
 30
0.0
  0
VERTEX
  5
1057
330
F86
100
AcDbEntity
  8
7
100
AcDbVertex
100
AcDb2dVertex
 10
167.289
 20
182.017
 30
0.0
  0
VERTEX
  5
1058
330
F86
100
AcDbEntity
  8
7
100
AcDbVertex
100
AcDb2dVertex
 10
168.348
 20
182.056
 30
0.0
  0
VERTEX
  5
1059
330
F86
100
AcDbEntity
  8
7
100
AcDbVertex
100
AcDb2dVertex
 10
169.406
 20
182.095
 30
0.0
  0
VERTEX
  5
105A
330
F86
100
AcDbEntity
  8
7
100
AcDbVertex
100
AcDb2dVertex
 10
170.465
 20
182.134
 30
0.0
  0
VERTEX
  5
105B
330
F86
100
AcDbEntity
  8
7
100
AcDbVertex
100
AcDb2dVertex
 10
171.524
 20
182.173
 30
0.0
  0
VERTEX
  5
105C
330
F86
100
AcDbEntity
  8
7
100
AcDbVertex
100
AcDb2dVertex
 10
172.582
 20
182.212
 30
0.0
  0
VERTEX
  5
105D
330
F86
100
AcDbEntity
  8
7
100
AcDbVertex
100
AcDb2dVertex
 10
173.641
 20
182.25
 30
0.0
  0
VERTEX
  5
105E
330
F86
100
AcDbEntity
  8
7
100
AcDbVertex
100
AcDb2dVertex
 10
174.699
 20
182.289
 30
0.0
  0
VERTEX
  5
105F
330
F86
100
AcDbEntity
  8
7
100
AcDbVertex
100
AcDb2dVertex
 10
175.758
 20
182.328
 30
0.0
  0
VERTEX
  5
1060
330
F86
100
AcDbEntity
  8
7
100
AcDbVertex
100
AcDb2dVertex
 10
176.817
 20
182.367
 30
0.0
  0
VERTEX
  5
1061
330
F86
100
AcDbEntity
  8
7
100
AcDbVertex
100
AcDb2dVertex
 10
177.875
 20
182.406
 30
0.0
  0
VERTEX
  5
1062
330
F86
100
AcDbEntity
  8
7
100
AcDbVertex
100
AcDb2dVertex
 10
178.934
 20
182.445
 30
0.0
  0
VERTEX
  5
1063
330
F86
100
AcDbEntity
  8
7
100
AcDbVertex
100
AcDb2dVertex
 10
179.992
 20
182.484
 30
0.0
  0
VERTEX
  5
1064
330
F86
100
AcDbEntity
  8
7
100
AcDbVertex
100
AcDb2dVertex
 10
181.051
 20
182.523
 30
0.0
  0
VERTEX
  5
1065
330
F86
100
AcDbEntity
  8
7
100
AcDbVertex
100
AcDb2dVertex
 10
182.11
 20
182.5609999999999
 30
0.0
  0
VERTEX
  5
1066
330
F86
100
AcDbEntity
  8
7
100
AcDbVertex
100
AcDb2dVertex
 10
183.168
 20
182.6
 30
0.0
  0
VERTEX
  5
1067
330
F86
100
AcDbEntity
  8
7
100
AcDbVertex
100
AcDb2dVertex
 10
184.227
 20
182.639
 30
0.0
  0
VERTEX
  5
1068
330
F86
100
AcDbEntity
  8
7
100
AcDbVertex
100
AcDb2dVertex
 10
185.285
 20
182.678
 30
0.0
  0
VERTEX
  5
1069
330
F86
100
AcDbEntity
  8
7
100
AcDbVertex
100
AcDb2dVertex
 10
186.344
 20
182.717
 30
0.0
  0
VERTEX
  5
106A
330
F86
100
AcDbEntity
  8
7
100
AcDbVertex
100
AcDb2dVertex
 10
187.403
 20
182.756
 30
0.0
  0
VERTEX
  5
106B
330
F86
100
AcDbEntity
  8
7
100
AcDbVertex
100
AcDb2dVertex
 10
188.461
 20
182.795
 30
0.0
  0
VERTEX
  5
106C
330
F86
100
AcDbEntity
  8
7
100
AcDbVertex
100
AcDb2dVertex
 10
189.52
 20
182.834
 30
0.0
  0
VERTEX
  5
106D
330
F86
100
AcDbEntity
  8
7
100
AcDbVertex
100
AcDb2dVertex
 10
190.578
 20
182.872
 30
0.0
  0
VERTEX
  5
106E
330
F86
100
AcDbEntity
  8
7
100
AcDbVertex
100
AcDb2dVertex
 10
191.637
 20
182.911
 30
0.0
  0
VERTEX
  5
106F
330
F86
100
AcDbEntity
  8
7
100
AcDbVertex
100
AcDb2dVertex
 10
192.696
 20
182.95
 30
0.0
  0
VERTEX
  5
1070
330
F86
100
AcDbEntity
  8
7
100
AcDbVertex
100
AcDb2dVertex
 10
193.225
 20
182.97
 30
0.0
  0
VERTEX
  5
1071
330
F86
100
AcDbEntity
  8
7
100
AcDbVertex
100
AcDb2dVertex
 10
193.754
 20
182.989
 30
0.0
  0
VERTEX
  5
1072
330
F86
100
AcDbEntity
  8
7
100
AcDbVertex
100
AcDb2dVertex
 10
194.284
 20
183.009
 30
0.0
  0
VERTEX
  5
1073
330
F86
100
AcDbEntity
  8
7
100
AcDbVertex
100
AcDb2dVertex
 10
194.813
 20
183.028
 30
0.0
  0
VERTEX
  5
1074
330
F86
100
AcDbEntity
  8
7
100
AcDbVertex
100
AcDb2dVertex
 10
195.342
 20
183.047
 30
0.0
  0
VERTEX
  5
1075
330
F86
100
AcDbEntity
  8
7
100
AcDbVertex
100
AcDb2dVertex
 10
195.871
 20
183.067
 30
0.0
  0
VERTEX
  5
1076
330
F86
100
AcDbEntity
  8
7
100
AcDbVertex
100
AcDb2dVertex
 10
196.401
 20
183.086
 30
0.0
  0
VERTEX
  5
1077
330
F86
100
AcDbEntity
  8
7
100
AcDbVertex
100
AcDb2dVertex
 10
196.93
 20
183.106
 30
0.0
  0
VERTEX
  5
1078
330
F86
100
AcDbEntity
  8
7
100
AcDbVertex
100
AcDb2dVertex
 10
196.93
 20
183.233
 30
0.0
  0
SEQEND
  5
1079
330
F86
100
AcDbEntity
  8
7
  0
ENDBLK
  5
107B
330
F81
100
AcDbEntity
  8
0
100
AcDbBlockEnd
  0
BLOCK
  5
10A3
330
1094
100
AcDbEntity
  8
0
100
AcDbBlockBegin
  2
*D21
 70
     1
 10
0.0
 20
0.0
 30
0.0
  3
*D21
  1

  0
LINE
  5
10B7
330
1094
100
AcDbEntity
  8
AM_5
100
AcDbLine
 10
-80.36883854834128
 20
541.4507638847924
 30
0.0
 11
-102.6386575827508
 21
543.7914161839091
 31
0.0
  0
LINE
  5
10B8
330
1094
100
AcDbEntity
  8
AM_5
100
AcDbLine
 10
-78.19695327023921
 20
484.2194393893874
 30
0.0
 11
-105.7606925940526
 21
484.2194393893874
 31
0.0
  0
ARC
  5
10B9
330
1094
100
AcDbEntity
  8
AM_5
100
AcDbCircle
 10
464.1508408988198
 20
484.2194393893874
 30
0.0
 40
568.9115334928724
100
AcDbArc
 50
174.251778274126
 51
179.7482217258739
  0
SOLID
  5
10BA
330
1094
100
AcDbEntity
  8
AM_5
100
AcDbTrace
 10
-102.3144721779761
 20
541.2426577600014
 30
0.0
 11
-101.4855145426014
 21
541.1573718690327
 31
0.0
 12
-101.6441356873825
 22
543.6868877206413
 32
0.0
 13
-101.6441356873825
 23
543.6868877206413
 33
0.0
  0
SOLID
  5
10BB
330
1094
100
AcDbEntity
  8
AM_5
100
AcDbTrace
 10
-104.3385339877195
 20
486.7185178639877
 30
0.0
 11
-105.1718653095537
 21
486.720348845793
 31
0.0
 12
-104.7606925940526
 22
484.2194393893874
 32
0.0
 13
-104.7606925940526
 23
484.2194393893874
 33
0.0
  0
MTEXT
  5
10BC
330
1094
100
AcDbEntity
  8
AM_5
 62
     2
100
AcDbMText
 10
-107.2265650976308
 20
514.1640603701659
 30
0.0
 40
3.5
 41
0.0
 71
     5
 72
     1
  1
6°
 11
0.0523359562429438
 21
0.9986295347545739
 31
0.0
 73
     1
 44
1.0
1001
ACAD
1000
MTEXTBEGIN
1070
    73
1070
     1
1070
    44
1040
1.0
1070
    74
1070
     0
1000
MTEXTEND
  0
POINT
  5
10BD
330
1094
100
AcDbEntity
  8
Defpoints
 62
     0
100
AcDbPoint
 10
-103.3748526918575
 20
523.9047018382132
 30
0.0
  0
POINT
  5
10BE
330
1094
100
AcDbEntity
  8
Defpoints
 62
     0
100
AcDbPoint
 10
416.3126164229886
 20
489.2474393893874
 30
0.0
  0
POINT
  5
10BF
330
1094
100
AcDbEntity
  8
Defpoints
 62
     0
100
AcDbPoint
 10
562.8030467297609
 20
484.2194393893874
 30
0.0
  0
POINT
  5
10C0
330
1094
100
AcDbEntity
  8
Defpoints
 62
     0
100
AcDbPoint
 10
-77.1969532702392
 20
484.2194393893874
 30
0.0
  0
POINT
  5
10C1
330
1094
100
AcDbEntity
  8
Defpoints
 62
     0
100
AcDbPoint
 10
-79.374316652973
 20
541.3462354215248
 30
0.0
  0
ENDBLK
  5
10A4
330
1094
100
AcDbEntity
  8
0
100
AcDbBlockEnd
  0
BLOCK
  5
10E0
330
10D6
100
AcDbEntity
  8
0
100
AcDbBlockBegin
  2
*D22
 70
     1
 10
0.0
 20
0.0
 30
0.0
  3
*D22
  1

  0
LINE
  5
10E4
330
10D6
100
AcDbEntity
  8
AM_5
100
AcDbLine
 10
-871.6972913686031
 20
792.4168701240771
 30
0.0
 11
-1102.771999952557
 21
792.4168701240771
 31
0.0
  0
LINE
  5
10E5
330
10D6
100
AcDbEntity
  8
AM_5
100
AcDbLine
 10
-871.697291368603
 20
1792.745451643323
 30
0.0
 11
-1102.771999952557
 21
1792.745451643323
 31
0.0
  0
LINE
  5
10E6
330
10D6
100
AcDbEntity
  8
AM_5
100
AcDbLine
 10
-1101.771999952557
 20
794.9168701240771
 30
0.0
 11
-1101.771999952557
 21
1790.245451643323
 31
0.0
  0
SOLID
  5
10E7
330
10D6
100
AcDbEntity
  8
AM_5
100
AcDbTrace
 10
-1102.188666619223
 20
794.9168701240771
 30
0.0
 11
-1101.35533328589
 21
794.9168701240771
 31
0.0
 12
-1101.771999952557
 22
792.4168701240771
 32
0.0
 13
-1101.771999952557
 23
792.4168701240771
 33
0.0
  0
SOLID
  5
10E8
330
10D6
100
AcDbEntity
  8
AM_5
100
AcDbTrace
 10
-1102.188666619223
 20
1790.245451643323
 30
0.0
 11
-1101.35533328589
 21
1790.245451643323
 31
0.0
 12
-1101.771999952557
 22
1792.745451643323
 32
0.0
 13
-1101.771999952557
 23
1792.745451643323
 33
0.0
  0
MTEXT
  5
10E9
330
10D6
100
AcDbEntity
  8
AM_5
 62
     2
100
AcDbMText
 10
-1105.021999952557
 20
1292.5811608837
 30
0.0
 40
3.5
 41
0.0
 71
     5
 72
     1
  1
1000.33
 11
0.0000000000000001
 21
1.0
 31
0.0
 73
     1
 44
1.0
1001
ACAD
1000
MTEXTBEGIN
1070
    73
1070
     1
1070
    44
1040
1.0
1070
    74
1070
     0
1000
MTEXTEND
  0
POINT
  5
10EA
330
10D6
100
AcDbEntity
  8
Defpoints
 62
     0
100
AcDbPoint
 10
-870.6972913686032
 20
792.4168701240771
 30
0.0
  0
POINT
  5
10EB
330
10D6
100
AcDbEntity
  8
Defpoints
 62
     0
100
AcDbPoint
 10
-870.697291368603
 20
1792.745451643323
 30
0.0
  0
POINT
  5
10EC
330
10D6
100
AcDbEntity
  8
Defpoints
 62
     0
100
AcDbPoint
 10
-1101.771999952557
 20
1792.745451643323
 30
0.0
  0
ENDBLK
  5
10E1
330
10D6
100
AcDbEntity
  8
0
100
AcDbBlockEnd
  0
BLOCK
  5
1106
330
10FC
100
AcDbEntity
  8
0
100
AcDbBlockBegin
  2
*D23
 70
     1
 10
0.0
 20
0.0
 30
0.0
  3
*D23
  1

  0
LINE
  5
110A
330
10FC
100
AcDbEntity
  8
AM_5
100
AcDbLine
 10
-1081.79882917356
 20
1293.5811608837
 30
0.0
 11
-1081.79882917356
 21
1812.831020542586
 31
0.0
  0
LINE
  5
110B
330
10FC
100
AcDbEntity
  8
AM_5
100
AcDbLine
 10
-291.8475262859933
 20
1296.081160883773
 30
0.0
 11
-291.8475262859932
 21
1812.831020542586
 31
0.0
  0
LINE
  5
110C
330
10FC
100
AcDbEntity
  8
AM_5
100
AcDbLine
 10
-1079.29882917356
 20
1811.831020542586
 30
0.0
 11
-294.3475262859932
 21
1811.831020542586
 31
0.0
  0
SOLID
  5
110D
330
10FC
100
AcDbEntity
  8
AM_5
100
AcDbTrace
 10
-1079.29882917356
 20
1812.247687209253
 30
0.0
 11
-1079.29882917356
 21
1811.414353875919
 31
0.0
 12
-1081.79882917356
 22
1811.831020542586
 32
0.0
 13
-1081.79882917356
 23
1811.831020542586
 33
0.0
  0
SOLID
  5
110E
330
10FC
100
AcDbEntity
  8
AM_5
100
AcDbTrace
 10
-294.3475262859932
 20
1812.247687209253
 30
0.0
 11
-294.3475262859932
 21
1811.414353875919
 31
0.0
 12
-291.8475262859932
 22
1811.831020542586
 32
0.0
 13
-291.8475262859932
 23
1811.831020542586
 33
0.0
  0
MTEXT
  5
110F
330
10FC
100
AcDbEntity
  8
AM_5
 62
     2
100
AcDbMText
 10
-686.8231777297767
 20
1815.081020542586
 30
0.0
 40
3.5
 41
0.0
 71
     5
 72
     1
  1
789.95
 73
     1
 44
1.0
1001
ACAD
1000
MTEXTBEGIN
1070
    73
1070
     1
1070
    44
1040
1.0
1070
    74
1070
     0
1000
MTEXTEND
  0
POINT
  5
1110
330
10FC
100
AcDbEntity
  8
Defpoints
 62
     0
100
AcDbPoint
 10
-1081.79882917356
 20
1292.5811608837
 30
0.0
  0
POINT
  5
1111
330
10FC
100
AcDbEntity
  8
Defpoints
 62
     0
100
AcDbPoint
 10
-291.8475262859933
 20
1295.081160883773
 30
0.0
  0
POINT
  5
1112
330
10FC
100
AcDbEntity
  8
Defpoints
 62
     0
100
AcDbPoint
 10
-291.8475262859932
 20
1811.831020542586
 30
0.0
  0
ENDBLK
  5
1107
330
10FC
100
AcDbEntity
  8
0
100
AcDbBlockEnd
  0
BLOCK
  5
1173
330
1169
100
AcDbEntity
  8
0
100
AcDbBlockBegin
  2
*D24
 70
     1
 10
0.0
 20
0.0
 30
0.0
  3
*D24
  1

  0
LINE
  5
1177
330
1169
100
AcDbEntity
  8
AM_5
100
AcDbLine
 10
-291.8506910221881
 20
1296.081155875842
 30
0.0
 11
-292.2307170458343
 21
1416.161976886843
 31
0.0
  0
LINE
  5
1178
330
1169
100
AcDbEntity
  8
AM_5
100
AcDbLine
 10
-1081.801993909755
 20
1293.581155875983
 30
0.0
 11
-1082.182019933401
 21
1413.661976886984
 31
0.0
  0
LINE
  5
1179
330
1169
100
AcDbEntity
  8
AM_5
100
AcDbLine
 10
-294.7275397901643
 20
1415.154070054146
 30
0.0
 11
-1079.678867716682
 21
1412.669893735261
 31
0.0
  0
SOLID
  5
117A
330
1169
100
AcDbEntity
  8
AM_5
100
AcDbTrace
 10
-294.7288584302454
 20
1415.570734634234
 30
0.0
 11
-294.7262211500831
 21
1414.737405474059
 31
0.0
 12
-292.2275523096396
 22
1415.161981894633
 32
0.0
 13
-292.2275523096396
 23
1415.161981894633
 33
0.0
  0
SOLID
  5
117B
330
1169
100
AcDbEntity
  8
AM_5
100
AcDbTrace
 10
-1079.680186356763
 20
1413.086558315348
 30
0.0
 11
-1079.6775490766
 21
1412.253229155173
 31
0.0
 12
-1082.178855197206
 22
1412.661981894774
 32
0.0
 13
-1082.178855197206
 23
1412.661981894774
 33
0.0
  0
MTEXT
  5
117C
330
1169
100
AcDbEntity
  8
AM_5
 62
     2
100
AcDbMText
 10
-687.2134891460562
 20
1417.161965619385
 30
0.0
 40
3.5
 41
0.0
 71
     5
 72
     1
  1
789.96
 11
0.9999949922098696
 21
0.0031647361948078
 31
0.0
 73
     1
 44
1.0
1001
ACAD
1000
MTEXTBEGIN
1070
    73
1070
     1
1070
    44
1040
1.0
1070
    74
1070
     0
1000
MTEXTEND
  0
POINT
  5
117D
330
1169
100
AcDbEntity
  8
Defpoints
 62
     0
100
AcDbPoint
 10
-291.8475262859932
 20
1295.081160883632
 30
0.0
  0
POINT
  5
117E
330
1169
100
AcDbEntity
  8
Defpoints
 62
     0
100
AcDbPoint
 10
-1081.79882917356
 20
1292.581160883773
 30
0.0
  0
POINT
  5
117F
330
1169
100
AcDbEntity
  8
Defpoints
 62
     0
100
AcDbPoint
 10
-1082.178855197206
 20
1412.661981894774
 30
0.0
  0
ENDBLK
  5
1174
330
1169
100
AcDbEntity
  8
0
100
AcDbBlockEnd
  0
ENDSEC
  0
SECTION
  2
ENTITIES
  0
LINE
  5
29E
330
1F
100
AcDbEntity
  8
Fuso Corretta
100
AcDbLine
 10
-763.2101208710742
 20
596.5426451522549
 30
0.0
 11
-906.614428106501
 21
592.1110470147657
 31
0.0
  0
ARC
  5
29F
330
1F
100
AcDbEntity
  8
Fuso Corretta
100
AcDbCircle
 10
-889.0818077369283
 20
54.02057595135283
 30
0.0
 40
538.3760282797417
100
AcDbArc
 50
91.86621012280811
 51
105.9960965476341
  0
LINE
  5
2A0
330
1F
100
AcDbEntity
  8
Fuso Corretta
100
AcDbLine
 10
-763.2101208710742
 20
596.5426451522549
 30
0.0
 11
-741.9399261137037
 21
616.2523986074761
 31
0.0
  0
LINE
  5
2A1
330
1F
100
AcDbEntity
  8
Fuso Corretta
100
AcDbLine
 10
-733.6917657127169
 20
619.4864229046136
 30
0.0
 11
-681.4843776590306
 21
619.4864229046133
 31
0.0
  0
LINE
  5
2A2
330
1F
100
AcDbEntity
  8
Fuso Corretta
100
AcDbLine
 10
-681.4843776590306
 20
619.4864229046133
 30
0.0
 11
-526.8620891186974
 21
590.7379744468155
 31
0.0
  0
LINE
  5
2A3
330
1F
100
AcDbEntity
  8
Fuso Corretta
100
AcDbLine
 10
-450.6079233646968
 20
585.9345359111877
 30
0.0
 11
-517.9077702163929
 21
589.6620902290368
 31
0.0
  0
ARC
  5
2A4
330
1F
100
AcDbEntity
  8
Fuso Corretta
100
AcDbCircle
 10
-514.0236280222831
 20
659.7890830302135
 30
0.0
 40
70.23447643373137
100
AcDbArc
 50
259.467438344081
 51
266.8297827533638
  0
ARC
  5
2A7
330
1F
100
AcDbEntity
  8
Fuso Corretta
100
AcDbCircle
 10
-733.6917657127169
 20
607.3512229272422
 30
0.0
 40
12.13519997737146
100
AcDbArc
 50
89.9999999999998
 51
132.8193352947018
  0
ARC
  5
2A8
330
1F
100
AcDbEntity
  8
Fuso Corretta
100
AcDbCircle
 10
-552.7962843004645
 20
-624.0154351409878
 30
0.0
 40
1214.257548282035
100
AcDbArc
 50
77.67311842342748
 51
85.17244497701474
  0
LINE
  5
2A9
330
1F
100
AcDbEntity
  8
Fuso Corretta
100
AcDbLine
 10
-293.565939613857
 20
561.1071278030951
 30
0.0
 11
-293.565939613857
 21
558.3889433455734
 31
0.0
  0
ARC
  5
2AA
330
1F
100
AcDbEntity
  8
Fuso Corretta
100
AcDbCircle
 10
-529.5741890725873
 20
1168.429144617628
 30
0.0
 40
655.1658124963211
100
AcDbArc
 50
280.1044740175144
 51
291.1141219903418
  0
ARC
  5
2AB
330
1F
100
AcDbEntity
  8
Fuso Corretta
100
AcDbCircle
 10
-808.4333792933959
 20
2871.458539696087
 30
0.0
 40
2380.827922112466
100
AcDbArc
 50
273.8023532151164
 51
279.5208356912974
  0
ARC
  5
2AC
330
1F
100
AcDbEntity
  8
Omesso
100
AcDbCircle
 10
-741.9519947208568
 20
766.6768006576951
 30
0.0
 40
301.3342025196859
100
AcDbArc
 50
266.5000008576797
 51
276.9529068326757
  0
ARC
  5
2AD
330
1F
100
AcDbEntity
  8
Omesso
100
AcDbCircle
 10
-675.6046270742027
 20
547.5617998747899
 30
0.0
 40
85.39739525893379
100
AcDbArc
 50
249.5264932342259
 51
272.757160484011
  0
ARC
  5
2AE
330
1F
100
AcDbEntity
  8
Omesso
100
AcDbCircle
 10
-713.532692569879
 20
475.1256791749023
 30
0.0
 40
43.95977316971777
100
AcDbArc
 50
342.9866114116484
 51
3.549049537375246
  0
ARC
  5
2AF
330
1F
100
AcDbEntity
  8
Omesso
100
AcDbCircle
 10
-652.8221642475806
 20
478.8615553971023
 30
0.0
 40
16.86561035767531
100
AcDbArc
 50
93.96129625234065
 51
183.4489947434621
  0
ARC
  5
2B2
330
1F
100
AcDbEntity
  8
Omesso
100
AcDbCircle
 10
-789.295415799
 20
465.3430809707662
 30
0.0
 40
25.51628429135188
100
AcDbArc
 50
9.447236246615517
 51
67.72525151746966
  0
ARC
  5
2B3
330
1F
100
AcDbEntity
  8
Omesso
100
AcDbCircle
 10
-760.101057842804
 20
469.9421686908225
 30
0.0
 40
4.045066659123819
100
AcDbArc
 50
185.829673023301
 51
266.5000008576812
  0
ARC
  5
2B5
330
1F
100
AcDbEntity
  8
Fuso Corretta
100
AcDbCircle
 10
-929.7473559815683
 20
770.5240704363667
 30
0.0
 40
283.2459953041454
100
AcDbArc
 50
247.6527011224798
 51
270.5119331216245
  0
LINE
  5
2B7
330
1F
100
AcDbEntity
  8
Omesso
100
AcDbLine
 10
-988.6384953923684
 20
486.630751899034
 30
0.0
 11
-990.1896433402752
 21
493.8172509365223
 31
0.0
  0
LINE
  5
2B8
330
1F
100
AcDbEntity
  8
Omesso
100
AcDbLine
 10
-937.4923817878093
 20
481.9809789354776
 30
0.0
 11
-933.6764486436141
 21
487.2944253747716
 31
0.0
  0
ARC
  5
2B9
330
1F
100
AcDbEntity
  8
Omesso
100
AcDbCircle
 10
-948.8264126816087
 20
640.9308968846752
 30
0.0
 40
159.3534959527348
100
AcDbArc
 50
255.532250684716
 51
274.0786109091018
  0
LINE
  5
2BC
330
1F
100
AcDbEntity
  8
Fuso Corretta
100
AcDbLine
 10
-681.4843776590306
 20
619.4864229046133
 30
0.0
 11
-681.4843776590306
 21
578.1690819671799
 31
0.0
  0
LINE
  5
2BD
330
1F
100
AcDbEntity
  8
Fuso Corretta
100
AcDbLine
 10
-681.4843776590306
 20
578.1690819671799
 30
0.0
 11
-732.2737015103292
 21
578.1690819671799
 31
0.0
  0
ARC
  5
2BE
330
1F
100
AcDbEntity
  8
Fuso Corretta
100
AcDbCircle
 10
-768.3167560795496
 20
552.7130442354436
 30
0.0
 40
44.12608797162264
100
AcDbArc
 50
35.23231848758682
 51
83.35436848480119
  0
LINE
  5
2BF
330
1F
100
AcDbEntity
  8
Fuso Corretta
100
AcDbLine
 10
-732.2737015103292
 20
578.1690819671799
 30
0.0
 11
-732.2737015103289
 21
619.4864229046136
 31
0.0
  0
LINE
  5
2C1
330
1F
100
AcDbEntity
  8
Fuso Corretta
100
AcDbLine
 10
-681.4843776590306
 20
608.7629909902869
 30
0.0
 11
-732.273701510329
 21
608.7629909902871
 31
0.0
  0
LINE
  5
2C9
330
1F
100
AcDbEntity
  8
Fuso Corretta
100
AcDbLine
 10
-715.3439268932295
 20
608.762990990287
 30
0.0
 11
-715.3439268932294
 21
619.4864229046134
 31
0.0
  0
LINE
  5
2CA
330
1F
100
AcDbEntity
  8
Fuso Corretta
100
AcDbLine
 10
-698.4141522761301
 20
608.762990990287
 30
0.0
 11
-698.41415227613
 21
619.4864229046133
 31
0.0
  0
LINE
  5
2CB
330
1F
100
AcDbEntity
  8
0
100
AcDbLine
 10
-450.6079233646996
 20
585.9345359111877
 30
0.0
 11
-408.9542670091052
 21
661.816483186703
 31
0.0
  0
ARC
  5
2CC
330
1F
100
AcDbEntity
  8
0
100
AcDbCircle
 10
-369.9422433440204
 20
640.40172663622
 30
0.0
 40
44.50314358066843
100
AcDbArc
 50
21.69065160680608
 51
151.2364240492174
  0
ARC
  5
2CD
330
1F
100
AcDbEntity
  8
0
100
AcDbCircle
 10
-478.5462453326463
 20
580.2790159169553
 30
0.0
 40
168.3742854747314
100
AcDbArc
 50
0.3156941418016142
 51
27.04986270759939
  0
ARC
  5
2CE
330
1F
100
AcDbEntity
  8
0
100
AcDbCircle
 10
-290.4851785534185
 20
581.7011418635129
 30
0.0
 40
19.69554348093988
100
AcDbArc
 50
181.4384108730364
 51
261.000885801658
  0
LINE
  5
4AC
330
1F
100
AcDbEntity
  8
Fuso Corretta
100
AcDbLine
 10
-917.2050069973007
 20
1330.32798732185
 30
0.0
 11
-985.7053517695408
 21
1329.487427736803
 31
0.0
  0
ARC
  5
4AD
330
1F
100
AcDbEntity
  8
Fuso Corretta
100
AcDbCircle
 10
-933.3004736359713
 20
577.7078550827882
 30
0.0
 40
753.6038728085515
100
AcDbArc
 50
93.98751074460239
 51
97.94328420330783
  0
ARC
  5
4AF
330
1F
100
AcDbEntity
  8
Fuso Corretta
100
AcDbCircle
 10
-1021.257355605859
 20
489.5633636001401
 30
0.0
 40
83.98025706518691
100
AcDbArc
 50
102.5063485365323
 51
133.1390258572163
  0
LINE
  5
4B1
330
1F
100
AcDbEntity
  8
Fuso Corretta
100
AcDbLine
 10
-1081.798829173564
 20
540.0509387210984
 30
0.0
 11
-1081.798829173564
 21
543.5880681538367
 31
0.0
  0
ARC
  5
4B4
330
1F
100
AcDbEntity
  8
Fuso Corretta
100
AcDbCircle
 10
-1071.798829173564
 20
543.5880681538367
 30
0.0
 40
10.0
100
AcDbArc
 50
133.4861065264987
 51
180.0
  0
LINE
  5
4B5
330
1F
100
AcDbEntity
  8
Fuso Corretta
100
AcDbLine
 10
-681.4843776590306
 20
1325.147383718954
 30
0.0
 11
-681.4843776590306
 21
1292.581160883701
 31
0.0
  0
LINE
  5
4B6
330
1F
100
AcDbEntity
  8
Fuso Corretta
100
AcDbLine
 10
-681.4843776590306
 20
1325.147383718954
 30
0.0
 11
-732.2737015103289
 21
1325.379317056436
 31
0.0
  0
LINE
  5
4B7
330
1F
100
AcDbEntity
  8
Fuso Corretta
100
AcDbLine
 10
-732.2737015103289
 20
1325.379317056436
 30
0.0
 11
-732.2737015103289
 21
1292.581160883631
 31
0.0
  0
ARC
  5
4B8
330
1F
100
AcDbEntity
  8
Fuso Corretta
100
AcDbCircle
 10
-775.6798173898345
 20
1352.249843706068
 30
0.0
 40
51.05013318468067
100
AcDbArc
 50
284.2694929121543
 51
328.2404493337233
  0
ARC
  5
4B9
330
1F
100
AcDbEntity
  8
Fuso Corretta
100
AcDbCircle
 10
-817.8628102881702
 20
1292.581160883656
 30
0.0
 40
55.7065739604997
100
AcDbArc
 50
349.456191611125
 51
10.54380838889378
  0
LINE
  5
4F6
330
1F
100
AcDbEntity
  8
Omesso
100
AcDbLine
 10
-669.6572267502289
 20
477.8469208476947
 30
0.0
 11
-705.4744354225119
 21
467.5586145241689
 31
0.0
  0
LINE
  5
4F9
330
1F
100
AcDbEntity
  8
Fuso Corretta
100
AcDbLine
 10
526.1198901505017
 20
555.7977285121558
 30
0.0
 11
526.1198901505017
 21
522.6060649517137
 31
0.0
  0
LINE
  5
4FC
330
1F
100
AcDbEntity
  8
Fuso Corretta
100
AcDbLine
 10
550.4173614120237
 20
614.1488173878996
 30
0.0
 11
531.3558747676204
 21
577.9809052042598
 31
0.0
  0
LINE
  5
501
330
1F
100
AcDbEntity
  8
Fuso Corretta
100
AcDbLine
 10
530.576595968835
 20
576.0282586045341
 30
0.0
 11
527.6660345315009
 21
565.6890421634736
 31
0.0
  0
ARC
  5
502
330
1F
100
AcDbEntity
  8
Fuso Corretta
100
AcDbCircle
 10
562.8030467297608
 20
555.7977285121558
 30
0.0
 40
36.50270828266594
100
AcDbArc
 50
164.2777193360381
 51
180.0
  0
ARC
  5
504
330
1F
100
AcDbEntity
  8
Fuso Corretta
100
AcDbCircle
 10
540.2024604187189
 20
573.3185107209735
 30
0.0
 40
10.0
100
AcDbArc
 50
152.2095334530027
 51
164.2777193360381
  0
LINE
  5
519
330
1F
100
AcDbEntity
  8
Fuso Corretta
100
AcDbLine
 10
-917.2050069973007
 20
1254.834334445479
 30
0.0
 11
-985.7053517695408
 21
1255.674894030526
 31
0.0
  0
ARC
  5
51A
330
1F
100
AcDbEntity
  8
Fuso Corretta
100
AcDbCircle
 10
-933.3004736411679
 20
2007.454466624811
 30
0.0
 40
753.603872748605
100
AcDbArc
 50
262.0567157964551
 51
266.0124892554758
  0
ARC
  5
51C
330
1F
100
AcDbEntity
  8
Fuso Corretta
100
AcDbCircle
 10
-1021.257355605279
 20
590.5385138429433
 30
0.0
 40
83.98025706617744
100
AcDbArc
 50
226.8609741428687
 51
257.493651463212
  0
ARC
  5
51D
330
1F
100
AcDbEntity
  8
Fuso Corretta
100
AcDbCircle
 10
-1071.798829173564
 20
536.5138092884328
 30
0.0
 40
10.0
100
AcDbArc
 50
180.0
 51
226.5138934734955
  0
LINE
  5
51E
330
1F
100
AcDbEntity
  8
Fuso Corretta
100
AcDbLine
 10
-1081.798829173564
 20
540.0509387211712
 30
0.0
 11
-1081.798829173564
 21
536.5138092884328
 31
0.0
  0
LINE
  5
51F
330
1F
100
AcDbEntity
  8
Fuso Corretta
100
AcDbLine
 10
-681.4843776590306
 20
1260.024926251737
 30
0.0
 11
-681.4843776590306
 21
1292.581160883701
 31
0.0
  0
LINE
  5
520
330
1F
100
AcDbEntity
  8
Fuso Corretta
100
AcDbLine
 10
-681.4843776590306
 20
1260.024926251737
 30
0.0
 11
-732.2737015103289
 21
1259.785815224345
 31
0.0
  0
LINE
  5
521
330
1F
100
AcDbEntity
  8
Fuso Corretta
100
AcDbLine
 10
-732.2737015103289
 20
1259.785815224345
 30
0.0
 11
-732.2737015103289
 21
1292.581160883701
 31
0.0
  0
ARC
  5
522
330
1F
100
AcDbEntity
  8
Fuso Corretta
100
AcDbCircle
 10
-775.6843091042155
 20
1232.903010981015
 30
0.0
 40
51.06041534942258
100
AcDbArc
 50
31.76861172236215
 51
75.72824079515282
  0
ARC
  5
524
330
1F
100
AcDbEntity
  8
Fuso Corretta
100
AcDbCircle
 10
-566.8494430029408
 20
2558.070507713424
 30
0.0
 40
1297.467933273052
100
AcDbArc
 50
273.2467066528421
 51
282.2368138914777
  0
LINE
  5
525
330
1F
100
AcDbEntity
  8
Fuso Corretta
100
AcDbLine
 10
-703.2415258910923
 20
1255.648265652514
 30
0.0
 11
-631.7187005181121
 21
1255.648265652514
 31
0.0
  0
LINE
  5
526
330
1F
100
AcDbEntity
  8
Fuso Corretta
100
AcDbLine
 10
-631.7187005181121
 20
1255.648265652514
 30
0.0
 11
-493.366827400901
 21
1262.685104415959
 31
0.0
  0
ARC
  5
527
330
1F
100
AcDbEntity
  8
0
100
AcDbCircle
 10
-657.253360802844
 20
1204.095326952347
 30
0.0
 40
55.32071776370211
100
AcDbArc
 50
111.2682970854071
 51
152.7823667329021
  0
ARC
  5
52A
330
1F
100
AcDbEntity
  8
Ala
100
AcDbCircle
 10
-358.3908062413525
 20
1184.812824852274
 30
0.0
 40
35.27071000954899
100
AcDbArc
 50
227.6639544133573
 51
271.4478010615622
  0
ARC
  5
52B
330
1F
100
AcDbEntity
  8
Ala
100
AcDbCircle
 10
-384.495342829036
 20
1198.055622924186
 30
0.0
 40
63.96245631906799
100
AcDbArc
 50
324.6608689360085
 51
358.742643985385
  0
LINE
  5
52C
330
1F
100
AcDbEntity
  8
Ala
100
AcDbLine
 10
-317.7324330919079
 20
1270.089070158081
 30
0.0
 11
-320.5482875117446
 21
1196.652079331711
 31
0.0
  0
ARC
  5
52D
330
1F
100
AcDbEntity
  8
Ala
100
AcDbCircle
 10
-335.5421873131909
 20
1210.48470439388
 30
0.0
 40
69.63673860812751
100
AcDbArc
 50
200.853080135998
 51
227.9927120330506
  0
ARC
  5
52E
330
1F
100
AcDbEntity
  8
Ala
100
AcDbCircle
 10
43.10042124444635
 20
1373.331762614344
 30
0.0
 40
481.7600757317206
100
AcDbArc
 50
193.4788431960048
 51
202.9221386408031
  0
ARC
  5
52F
330
1F
100
AcDbEntity
  8
0
100
AcDbCircle
 10
-436.2898211562971
 20
1258.130646201792
 30
0.0
 40
11.28136500974451
100
AcDbArc
 50
14.945394332869
 51
58.90261302325921
  0
ARC
  5
531
330
1F
100
AcDbEntity
  8
Ala
100
AcDbCircle
 10
-299.7182552457996
 20
1269.95049175744
 30
0.0
 40
18.07928049022107
100
AcDbArc
 50
104.382543222743
 51
173.2066389548807
  0
LINE
  5
53C
330
1F
100
AcDbEntity
  8
Fuso Corretta
100
AcDbLine
 10
-1039.44309459332
 20
508.5509387210986
 30
0.0
 11
-1039.44309459332
 21
571.5509387210986
 31
0.0
  0
LINE
  5
543
330
1F
100
AcDbEntity
  8
Assi
100
AcDbLine
 10
-1028.44309459332
 20
540.0509387210989
 30
0.0
 11
-1090.798829173564
 21
540.0509387210982
 31
0.0
  0
ARC
  5
570
330
1F
100
AcDbEntity
  8
Fuso Corretta
100
AcDbCircle
 10
-1021.257355605855
 20
1242.093585762742
 30
0.0
 40
83.98025706518691
100
AcDbArc
 50
102.506348536532
 51
133.139025857217
  0
ARC
  5
571
330
1F
100
AcDbEntity
  8
Fuso Corretta
100
AcDbCircle
 10
-1071.79882917356
 20
1296.118290316439
 30
0.0
 40
10.0
100
AcDbArc
 50
133.4861065264976
 51
180.0
  0
LINE
  5
572
330
1F
100
AcDbEntity
  8
Fuso Corretta
100
AcDbLine
 10
-1081.79882917356
 20
1292.5811608837
 30
0.0
 11
-1081.79882917356
 21
1296.118290316439
 31
0.0
  0
ARC
  5
573
330
1F
100
AcDbEntity
  8
Fuso Corretta
100
AcDbCircle
 10
-1021.257355605275
 20
1343.068736005545
 30
0.0
 40
83.98025706617744
100
AcDbArc
 50
226.8609741428683
 51
257.4936514632116
  0
ARC
  5
574
330
1F
100
AcDbEntity
  8
Fuso Corretta
100
AcDbCircle
 10
-1071.79882917356
 20
1289.044031451035
 30
0.0
 40
10.0
100
AcDbArc
 50
180.0
 51
226.5138934734948
  0
LINE
  5
575
330
1F
100
AcDbEntity
  8
Fuso Corretta
100
AcDbLine
 10
-1081.79882917356
 20
1292.581160883773
 30
0.0
 11
-1081.79882917356
 21
1289.044031451035
 31
0.0
  0
LINE
  5
576
330
1F
100
AcDbEntity
  8
Fuso Corretta
100
AcDbLine
 10
-1039.443094593316
 20
1261.081160883701
 30
0.0
 11
-1039.443094593316
 21
1324.0811608837
 31
0.0
  0
LINE
  5
577
330
1F
100
AcDbEntity
  8
Assi
100
AcDbLine
 10
-281.8475262859934
 20
1292.581160883701
 30
0.0
 11
-1090.79882917356
 21
1292.5811608837
 31
0.0
  0
LINE
  5
578
330
1F
100
AcDbEntity
  8
Fuso Corretta
100
AcDbLine
 10
-1037.443094593316
 20
1261.081160883701
 30
0.0
 11
-1037.443094593316
 21
1324.0811608837
 31
0.0
  0
LINE
  5
579
330
1F
100
AcDbEntity
  8
Fuso Corretta
100
AcDbLine
 10
-1037.44309459332
 20
508.5509387210986
 30
0.0
 11
-1037.44309459332
 21
571.5509387210986
 31
0.0
  0
LINE
  5
57A
330
1F
100
AcDbEntity
  8
Fuso Corretta
100
AcDbLine
 10
-681.4843776590306
 20
578.1690819671799
 30
0.0
 11
-450.6079233646961
 21
585.9345359111877
 31
0.0
  0
LINE
  5
5B4
330
1F
100
AcDbEntity
  8
Fuso Corretta
100
AcDbLine
 10
-293.565939613857
 20
562.2480355743342
 30
0.0
 11
-293.565939613857
 21
557.2480355743342
 31
0.0
  0
LINE
  5
5B6
330
1F
100
AcDbEntity
  8
Ala
100
AcDbLine
 10
-293.565939613857
 20
561.2480355743342
 30
0.0
 11
-429.3283066960607
 21
561.2480355743342
 31
0.0
  0
LINE
  5
5B7
330
1F
100
AcDbEntity
  8
Ala
100
AcDbLine
 10
-293.565939613857
 20
558.2480355743342
 30
0.0
 11
-429.3283066960607
 21
558.2480355743342
 31
0.0
  0
ARC
  5
5BA
330
1F
100
AcDbEntity
  8
Ala
100
AcDbCircle
 10
-429.3283066960607
 20
559.7480355743342
 30
0.0
 40
1.5
100
AcDbArc
 50
90.0
 51
270.0
  0
LINE
  5
5BB
330
1F
100
AcDbEntity
  8
Fuso Corretta
100
AcDbLine
 10
-917.2050069973007
 20
487.2893812130617
 30
0.0
 11
-917.2050069973007
 21
494.2634393893873
 31
0.0
  0
LINE
  5
5E4
330
1F
100
AcDbEntity
  8
Assi
100
AcDbLine
 10
-917.2050069973007
 20
1254.834334445479
 30
0.0
 11
-929.7230293658577
 21
1294.530047215293
 31
0.0
  0
LINE
  5
5E5
330
1F
100
AcDbEntity
  8
Assi
100
AcDbLine
 10
-703.2050069776505
 20
1255.648265652441
 30
0.0
 11
-697.4780336659423
 21
1302.523291656052
 31
0.0
  0
INSERT
  5
6E5
330
1F
100
AcDbEntity
  8
Assi
100
AcDbBlockReference
  2
CLARK YM-15 - 214 mm
 10
-954.2050069973006
 20
324.9014393893874
 30
0.0
  0
LINE
  5
6F0
330
1F
100
AcDbEntity
  8
Ala
100
AcDbLine
 10
-703.2050069973006
 20
494.4344393893874
 30
0.0
 11
-677.320157389944
 21
494.4344393893874
 31
0.0
  0
LINE
  5
6F2
330
1F
100
AcDbEntity
  8
Ala
100
AcDbLine
 10
-703.2050069973006
 20
494.0914393893874
 30
0.0
 11
-677.320157389944
 21
494.0914393893875
 31
0.0
  0
LINE
  5
6F3
330
1F
100
AcDbEntity
  8
Ala
100
AcDbLine
 10
-677.320157389944
 20
494.0914393893875
 30
0.0
 11
-677.320157389944
 21
494.4344393893874
 31
0.0
  0
LINE
  5
6F4
330
1F
100
AcDbEntity
  8
Fuso Corretta
100
AcDbLine
 10
-917.2050069973007
 20
487.2893812130617
 30
0.0
 11
-927.2166097648012
 21
487.2893812130617
 31
0.0
  0
LINE
  5
6F6
330
1F
100
AcDbEntity
  8
Fuso Corretta
100
AcDbLine
 10
-677.320157389944
 20
494.4344393893874
 30
0.0
 11
-650.5490580065767
 21
495.8714257804202
 31
0.0
  0
LINE
  5
705
330
1F
100
AcDbEntity
  8
Fuso Corretta
100
AcDbLine
 10
-291.8475262859934
 20
1295.081160883632
 30
0.0
 11
-291.8475262859934
 21
1290.081160883632
 31
0.0
  0
LINE
  5
706
330
1F
100
AcDbEntity
  8
Ala
100
AcDbLine
 10
-357.4996492016558
 20
1272.089070158081
 30
0.0
 11
-357.4996492016558
 21
1149.553374718893
 31
0.0
  0
LINE
  5
707
330
1F
100
AcDbEntity
  8
Ala
100
AcDbLine
 10
-357.4996492016558
 20
1272.089070158081
 30
0.0
 11
-317.6706051050328
 21
1272.089070158081
 31
0.0
  0
LINE
  5
708
330
1F
100
AcDbEntity
  8
Ala
100
AcDbLine
 10
-355.4996492016557
 20
1270.089070158081
 30
0.0
 11
-317.7324330919079
 21
1270.089070158081
 31
0.0
  0
LINE
  5
709
330
1F
100
AcDbEntity
  8
Ala
100
AcDbLine
 10
-355.4996492016557
 20
1270.089070158081
 30
0.0
 11
-355.4996492016558
 21
1149.66080932614
 31
0.0
  0
ARC
  5
70A
330
1F
100
AcDbEntity
  8
Ala
100
AcDbCircle
 10
-358.3908062413525
 20
1184.812824852274
 30
0.0
 40
35.27071000954899
100
AcDbArc
 50
274.7018380242326
 51
317.6639544133715
  0
ARC
  5
70D
330
1F
100
AcDbEntity
  8
Fuso Corretta
100
AcDbCircle
 10
-597.870018255827
 20
1090.419743800879
 30
0.0
 40
189.0959518672918
100
AcDbArc
 50
95.30066064570055
 51
116.2430267176711
  0
LINE
  5
70E
330
1F
100
AcDbEntity
  8
Fuso Corretta
100
AcDbLine
 10
-450.6079233647045
 20
1291.081160883699
 30
0.0
 11
-615.3390934507481
 21
1278.707051988211
 31
0.0
  0
ARC
  5
70F
330
1F
100
AcDbEntity
  8
Fuso Corretta
100
AcDbCircle
 10
-597.9172233832736
 20
1494.484907926733
 30
0.0
 40
188.8350242368857
100
AcDbArc
 50
243.7339094953265
 51
264.7063783796145
  0
LINE
  5
710
330
1F
100
AcDbEntity
  8
Fuso Corretta
100
AcDbLine
 10
-450.6079233647045
 20
1294.081160883699
 30
0.0
 11
-615.3390934507481
 21
1306.455269779187
 31
0.0
  0
LINE
  5
711
330
1F
100
AcDbEntity
  8
Ala
100
AcDbLine
 10
-450.6079233647045
 20
1291.081160883699
 30
0.0
 11
-291.8475262859934
 21
1291.081160883699
 31
0.0
  0
LINE
  5
712
330
1F
100
AcDbEntity
  8
Ala
100
AcDbLine
 10
-450.6079233647045
 20
1294.081160883699
 30
0.0
 11
-291.8475262859934
 21
1294.081160883699
 31
0.0
  0
ARC
  5
713
330
1F
100
AcDbEntity
  8
Ala
100
AcDbCircle
 10
-449.1079233647046
 20
1292.581160883699
 30
0.0
 40
1.499999999999886
100
AcDbArc
 50
90.0
 51
270.0
  0
ARC
  5
71C
330
1F
100
AcDbEntity
  8
Fuso Corretta
100
AcDbCircle
 10
-566.8494430029408
 20
27.09181405397703
 30
0.0
 40
1297.467933273052
100
AcDbArc
 50
77.76318610851965
 51
86.75329334715732
  0
LINE
  5
71D
330
1F
100
AcDbEntity
  8
Fuso Corretta
100
AcDbLine
 10
-703.2415258910923
 20
1329.514056114886
 30
0.0
 11
-631.7187005181121
 21
1329.514056114886
 31
0.0
  0
LINE
  5
71E
330
1F
100
AcDbEntity
  8
Fuso Corretta
100
AcDbLine
 10
-631.7187005181121
 20
1329.514056114886
 30
0.0
 11
-493.366827400901
 21
1322.477217351441
 31
0.0
  0
ARC
  5
71F
330
1F
100
AcDbEntity
  8
0
100
AcDbCircle
 10
-657.253360802844
 20
1381.066994815053
 30
0.0
 40
55.32071776370211
100
AcDbArc
 50
207.2176332670984
 51
248.731702914594
  0
ARC
  5
720
330
1F
100
AcDbEntity
  8
Ala
100
AcDbCircle
 10
-358.3908062413525
 20
1400.349496915126
 30
0.0
 40
35.27071000954899
100
AcDbArc
 50
88.55219893843772
 51
132.33604558664
  0
ARC
  5
721
330
1F
100
AcDbEntity
  8
Ala
100
AcDbCircle
 10
-358.3908062413525
 20
1400.349496915126
 30
0.0
 40
35.27071000954899
100
AcDbArc
 50
42.33604558662445
 51
85.29816197576817
  0
ARC
  5
722
330
1F
100
AcDbEntity
  8
Ala
100
AcDbCircle
 10
-384.495342829036
 20
1387.106698843214
 30
0.0
 40
63.96245631906799
100
AcDbArc
 50
1.257356014615045
 51
35.33913106399481
  0
LINE
  5
723
330
1F
100
AcDbEntity
  8
Ala
100
AcDbLine
 10
-317.7324330919079
 20
1315.073251609319
 30
0.0
 11
-320.5482875117446
 21
1388.510242435689
 31
0.0
  0
ARC
  5
724
330
1F
100
AcDbEntity
  8
Ala
100
AcDbCircle
 10
-335.5421873131909
 20
1374.67761737352
 30
0.0
 40
69.63673860812751
100
AcDbArc
 50
132.0072879669446
 51
159.1469198640007
  0
ARC
  5
725
330
1F
100
AcDbEntity
  8
Ala
100
AcDbCircle
 10
43.10042124444635
 20
1211.830559153056
 30
0.0
 40
481.7600757317206
100
AcDbArc
 50
157.0778613591973
 51
166.521156803995
  0
ARC
  5
726
330
1F
100
AcDbEntity
  8
0
100
AcDbCircle
 10
-436.2898211562979
 20
1327.031675565608
 30
0.0
 40
11.28136500974525
100
AcDbArc
 50
301.0973869767444
 51
345.0546056671308
  0
ARC
  5
727
330
1F
100
AcDbEntity
  8
Ala
100
AcDbCircle
 10
-299.7182552457996
 20
1315.21183000996
 30
0.0
 40
18.07928049022107
100
AcDbArc
 50
186.7933610451131
 51
255.6174567772576
  0
LINE
  5
729
330
1F
100
AcDbEntity
  8
Ala
100
AcDbLine
 10
-773.1873059477894
 20
1737.399617848188
 30
0.0
 11
-753.6110779418597
 21
1577.169049504639
 31
0.0
  0
LINE
  5
72B
330
1F
100
AcDbEntity
  8
Ala
100
AcDbLine
 10
-357.4996492016558
 20
1313.073251609319
 30
0.0
 11
-357.4996492016558
 21
1435.608947048507
 31
0.0
  0
LINE
  5
72C
330
1F
100
AcDbEntity
  8
Ala
100
AcDbLine
 10
-355.4996492016557
 20
1315.073251609319
 30
0.0
 11
-355.4996492016558
 21
1435.501512441261
 31
0.0
  0
LINE
  5
72D
330
1F
100
AcDbEntity
  8
Ala
100
AcDbLine
 10
-357.4996492016558
 20
1313.073251609319
 30
0.0
 11
-317.6706051050328
 21
1313.073251609319
 31
0.0
  0
LINE
  5
72E
330
1F
100
AcDbEntity
  8
Ala
100
AcDbLine
 10
-355.4996492016557
 20
1315.073251609319
 30
0.0
 11
-317.7324330919079
 21
1315.073251609319
 31
0.0
  0
LINE
  5
72F
330
1F
100
AcDbEntity
  8
Ala
100
AcDbLine
 10
-759.8369897343211
 20
1797.745451643323
 30
0.0
 11
-759.8369897343211
 21
1787.745451643323
 31
0.0
  0
LINE
  5
730
330
1F
100
AcDbEntity
  8
Ala
100
AcDbLine
 10
-764.8369897343211
 20
1792.745451643323
 30
0.0
 11
-754.8369897343211
 21
1792.745451643323
 31
0.0
  0
LINE
  5
731
330
1F
100
AcDbEntity
  8
Ala
100
AcDbLine
 10
-865.6972913686031
 20
1797.745451643323
 30
0.0
 11
-865.6972913686031
 21
1787.745451643323
 31
0.0
  0
LINE
  5
732
330
1F
100
AcDbEntity
  8
Ala
100
AcDbLine
 10
-870.6972913686032
 20
1792.745451643323
 30
0.0
 11
-860.6972913686032
 21
1792.745451643323
 31
0.0
  0
LINE
  5
733
330
1F
100
AcDbEntity
  8
Ala
100
AcDbLine
 10
-733.7586955789149
 20
1579.59452152374
 30
0.0
 11
-753.6110779418597
 21
1577.169049504639
 31
0.0
  0
LINE
  5
734
330
1F
100
AcDbEntity
  8
Ala
100
AcDbLine
 10
-753.33492341234
 20
1739.825089888365
 30
0.0
 11
-773.1873059477894
 21
1737.399617848188
 31
0.0
  0
LINE
  5
735
330
1F
100
AcDbEntity
  8
Ala
100
AcDbLine
 10
-753.6107184699098
 20
1741.806266055829
 30
0.0
 11
-775.4150913881313
 21
1739.142308882311
 31
0.0
  0
LINE
  5
736
330
1F
100
AcDbEntity
  8
Ala
100
AcDbLine
 10
-775.4150913881313
 20
1739.142308882311
 30
0.0
 11
-755.3537689741065
 21
1574.941264066695
 31
0.0
  0
LINE
  5
737
330
1F
100
AcDbEntity
  8
Ala
100
AcDbLine
 10
-733.5161483770048
 20
1577.609283287446
 30
0.0
 11
-755.3537689741065
 21
1574.941264066695
 31
0.0
  0
LINE
  5
738
330
1F
100
AcDbEntity
  8
Ala
100
AcDbLine
 10
-882.7761643334651
 20
1439.071591190472
 30
0.0
 11
-917.1684881035089
 21
1330.327848401639
 31
0.0
  0
LINE
  5
739
330
1F
100
AcDbEntity
  8
Fuso Corretta
100
AcDbLine
 10
-917.1684881035089
 20
1330.327848401639
 30
0.0
 11
-703.2050069973006
 21
1329.513917194603
 31
0.0
  0
LINE
  5
73A
330
1F
100
AcDbEntity
  8
Ala
100
AcDbLine
 10
-867.5099613596337
 20
1754.533537023555
 30
0.0
 11
-882.7761643334651
 21
1439.071591190472
 31
0.0
  0
LINE
  5
73B
330
1F
100
AcDbEntity
  8
Ala
100
AcDbLine
 10
-703.2050069973006
 20
1329.513917194603
 30
0.0
 11
-733.5161483770048
 21
1577.609283287446
 31
0.0
  0
ARC
  5
73C
330
1F
100
AcDbEntity
  8
Ala
100
AcDbCircle
 10
-827.5567172268877
 20
1752.600072964101
 30
0.0
 40
40.0
100
AcDbArc
 50
89.78204412365872
 51
177.2294371541095
  0
LINE
  5
73E
330
1F
100
AcDbEntity
  8
Ala
100
AcDbLine
 10
-827.404555687222
 20
1792.599783548877
 30
0.0
 11
-812.6632743748345
 21
1792.543706741611
 31
0.0
  0
LINE
  5
73F
330
1F
100
AcDbEntity
  8
Ala
100
AcDbLine
 10
-733.7586955789149
 20
1579.59452152374
 30
0.0
 11
-753.33492341234
 21
1739.825089888365
 31
0.0
  0
ARC
  5
740
330
1F
100
AcDbEntity
  8
Ala
100
AcDbCircle
 10
-812.8915166843331
 20
1732.544140864447
 30
0.0
 40
60.0
100
AcDbArc
 50
8.880187853316723
 51
89.78204412365881
  0
LINE
  5
742
330
1F
100
AcDbEntity
  8
Ala
100
AcDbLine
 10
-882.7761643334651
 20
1146.090730576928
 30
0.0
 11
-917.1684881035089
 21
1254.834473365761
 31
0.0
  0
LINE
  5
743
330
1F
100
AcDbEntity
  8
Ala
100
AcDbLine
 10
-867.5099613596337
 20
830.6287847438456
 30
0.0
 11
-882.7761643334651
 21
1146.090730576928
 31
0.0
  0
LINE
  5
744
330
1F
100
AcDbEntity
  8
Ala
100
AcDbLine
 10
-703.2050069973006
 20
1255.648404572797
 30
0.0
 11
-733.5161483770048
 21
1007.553038479954
 31
0.0
  0
LINE
  5
745
330
1F
100
AcDbEntity
  8
Ala
100
AcDbLine
 10
-733.7586955789149
 20
1005.56780024366
 30
0.0
 11
-753.33492341234
 21
845.3372318790352
 31
0.0
  0
ARC
  5
746
330
1F
100
AcDbEntity
  8
Ala
100
AcDbCircle
 10
-827.5567172268877
 20
832.5622488032996
 30
0.0
 40
40.0
100
AcDbArc
 50
182.770562845895
 51
270.2179558763412
  0
ARC
  5
747
330
1F
100
AcDbEntity
  8
Ala
100
AcDbCircle
 10
-812.8915166843331
 20
852.618180902953
 30
0.0
 40
60.0
100
AcDbArc
 50
270.2179558763411
 51
351.119812146676
  0
LINE
  5
748
330
1F
100
AcDbEntity
  8
Ala
100
AcDbLine
 10
-827.404555687222
 20
792.5625382185235
 30
0.0
 11
-812.6632743748345
 21
792.618615025789
 31
0.0
  0
LINE
  5
749
330
1F
100
AcDbEntity
  8
Ala
100
AcDbLine
 10
-773.1873059477894
 20
847.7627039192123
 30
0.0
 11
-753.6110779418597
 21
1007.993272262762
 31
0.0
  0
LINE
  5
74A
330
1F
100
AcDbEntity
  8
Ala
100
AcDbLine
 10
-775.4150913881313
 20
846.0200128850894
 30
0.0
 11
-755.3537689741065
 21
1010.221057700705
 31
0.0
  0
LINE
  5
74B
330
1F
100
AcDbEntity
  8
Ala
100
AcDbLine
 10
-759.8369897343211
 20
787.4168701240771
 30
0.0
 11
-759.8369897343211
 21
797.4168701240771
 31
0.0
  0
LINE
  5
74C
330
1F
100
AcDbEntity
  8
Ala
100
AcDbLine
 10
-764.8369897343211
 20
792.4168701240771
 30
0.0
 11
-754.8369897343211
 21
792.4168701240771
 31
0.0
  0
LINE
  5
74D
330
1F
100
AcDbEntity
  8
Ala
100
AcDbLine
 10
-865.6972913686031
 20
787.4168701240771
 30
0.0
 11
-865.6972913686031
 21
797.4168701240771
 31
0.0
  0
LINE
  5
74E
330
1F
100
AcDbEntity
  8
Ala
100
AcDbLine
 10
-870.6972913686032
 20
792.4168701240771
 30
0.0
 11
-860.6972913686032
 21
792.4168701240771
 31
0.0
  0
LINE
  5
74F
330
1F
100
AcDbEntity
  8
Ala
100
AcDbLine
 10
-733.7586955789149
 20
1005.56780024366
 30
0.0
 11
-753.6110779418597
 21
1007.993272262762
 31
0.0
  0
LINE
  5
750
330
1F
100
AcDbEntity
  8
Ala
100
AcDbLine
 10
-733.5161483770048
 20
1007.553038479954
 30
0.0
 11
-755.3537689741065
 21
1010.221057700705
 31
0.0
  0
LINE
  5
751
330
1F
100
AcDbEntity
  8
Ala
100
AcDbLine
 10
-753.33492341234
 20
845.3372318790352
 30
0.0
 11
-773.1873059477894
 21
847.7627039192123
 31
0.0
  0
LINE
  5
752
330
1F
100
AcDbEntity
  8
Ala
100
AcDbLine
 10
-753.6107184699098
 20
843.3560557115711
 30
0.0
 11
-775.4150913881313
 21
846.0200128850894
 31
0.0
  0
LINE
  5
753
330
1F
100
AcDbEntity
  8
Assi
100
AcDbLine
 10
-917.2050069973007
 20
1330.327987321923
 30
0.0
 11
-929.7230293658577
 21
1290.632274552108
 31
0.0
  0
LINE
  5
754
330
1F
100
AcDbEntity
  8
Assi
100
AcDbLine
 10
-703.2050069776505
 20
1329.51405611496
 30
0.0
 11
-697.4780336659423
 21
1282.63903011135
 31
0.0
  0
LINE
  5
755
330
1F
100
AcDbEntity
  8
Fuso Corretta
100
AcDbLine
 10
-917.1684881035089
 20
1254.834473365761
 30
0.0
 11
-703.2050069973006
 21
1255.648404572797
 31
0.0
  0
LINE
  5
9F2
330
1F
100
AcDbEntity
  8
Ala
100
AcDbLine
 10
-882.7761643334651
 20
1146.090730576928
 30
0.0
 11
-716.5902555733566
 21
1146.090730576928
 31
0.0
  0
LINE
  5
9F3
330
1F
100
AcDbEntity
  8
Ala
100
AcDbLine
 10
-882.7761643334651
 20
1439.071591190472
 30
0.0
 11
-716.5902555733566
 21
1439.071591190472
 31
0.0
  0
INSERT
  5
B18
330
1F
100
AcDbEntity
  8
Ala
100
AcDbBlockReference
  2
CLARK Y - 166
 10
-943.6811643334651
 20
316.6964393893874
 30
0.0
  0
ARC
  5
B4F
330
1F
100
AcDbEntity
  8
Fuso Corretta
100
AcDbCircle
 10
562.8030467297608
 20
523.9725377923207
 30
0.0
 40
36.68315657925905
100
AcDbArc
 50
182.133320860664
 51
270.0
  0
CIRCLE
  5
B51
330
1F
100
AcDbEntity
  8
Fuso Corretta
100
AcDbCircle
 10
562.8030467297608
 20
540.050938721112
 30
0.0
 40
31.5
  0
LINE
  5
B52
330
1F
100
AcDbEntity
  8
Fuso Corretta
100
AcDbLine
 10
599.4862033090198
 20
555.7977285121558
 30
0.0
 11
599.4862033090198
 21
522.6060649517137
 31
0.0
  0
ARC
  5
B53
330
1F
100
AcDbEntity
  8
Fuso Corretta
100
AcDbCircle
 10
562.8030467297608
 20
555.7977285121558
 30
0.0
 40
36.50270828266595
100
AcDbArc
 50
0.000000000000007
 51
15.72228066396175
  0
LINE
  5
B56
330
1F
100
AcDbEntity
  8
Fuso Corretta
100
AcDbLine
 10
575.1887320474978
 20
614.1488173878996
 30
0.0
 11
594.2502186919011
 21
577.9809052042598
 31
0.0
  0
ARC
  5
B57
330
1F
100
AcDbEntity
  8
Fuso Corretta
100
AcDbCircle
 10
585.4036330408026
 20
573.3185107209735
 30
0.0
 40
10.0
100
AcDbArc
 50
15.72228066396175
 51
27.79046654699695
  0
LINE
  5
B58
330
1F
100
AcDbEntity
  8
Fuso Corretta
100
AcDbLine
 10
595.0294974906865
 20
576.0282586045341
 30
0.0
 11
597.9400589280206
 21
565.6890421634736
 31
0.0
  0
LINE
  5
B59
330
1F
100
AcDbEntity
  8
Fuso Corretta
100
AcDbLine
 10
559.2639470631223
 20
619.4864229046133
 30
0.0
 11
566.3421463963993
 21
619.4864229046133
 31
0.0
  0
ARC
  5
B5A
330
1F
100
AcDbEntity
  8
Fuso Corretta
100
AcDbCircle
 10
559.2639470631223
 20
609.4864229046134
 30
0.0
 40
10.00000000000002
100
AcDbArc
 50
90.0
 51
152.2095334530019
  0
ARC
  5
B5B
330
1F
100
AcDbEntity
  8
Fuso Corretta
100
AcDbCircle
 10
566.3421463963993
 20
609.4864229046135
 30
0.0
 40
10.00000000000002
100
AcDbArc
 50
27.79046654699765
 51
90.0
  0
POLYLINE
  5
D74
330
1F
100
AcDbEntity
  8
7
  6
Continuous
100
AcDb2dPolyline
 66
     1
 10
0.0
 20
0.0
 30
0.0
  0
VERTEX
  5
D75
330
D74
100
AcDbEntity
  8
7
100
AcDbVertex
100
AcDb2dVertex
 10
-929.1084490751819
 20
494.2634393893873
 30
0.0
  0
VERTEX
  5
D76
330
D74
100
AcDbEntity
  8
7
100
AcDbVertex
100
AcDb2dVertex
 10
-698.688449075182
 20
494.2634393893873
 30
0.0
  0
SEQEND
  5
D77
330
D74
100
AcDbEntity
  8
7
  0
POLYLINE
  5
E5C
330
1F
100
AcDbEntity
  8
Nascosto
  6
Continuous
100
AcDb2dPolyline
 66
     1
 10
0.0
 20
0.0
 30
0.0
  0
VERTEX
  5
E5D
330
E5C
100
AcDbEntity
  8
Nascosto
  6
Continuous
100
AcDbVertex
100
AcDb2dVertex
 10
-698.688449075182
 20
494.4474393893873
 30
0.0
  0
VERTEX
  5
E5E
330
E5C
100
AcDbEntity
  8
Nascosto
  6
Continuous
100
AcDbVertex
100
AcDb2dVertex
 10
-700.3504490751819
 20
494.9074393893873
 30
0.0
  0
VERTEX
  5
E5F
330
E5C
100
AcDbEntity
  8
Nascosto
  6
Continuous
100
AcDbVertex
100
AcDb2dVertex
 10
-702.0114490751819
 20
495.3664393893872
 30
0.0
  0
VERTEX
  5
E60
330
E5C
100
AcDbEntity
  8
Nascosto
  6
Continuous
100
AcDbVertex
100
AcDb2dVertex
 10
-703.6734490751818
 20
495.8244393893874
 30
0.0
  0
VERTEX
  5
E61
330
E5C
100
AcDbEntity
  8
Nascosto
  6
Continuous
100
AcDbVertex
100
AcDb2dVertex
 10
-705.3354490751819
 20
496.2814393893873
 30
0.0
  0
VERTEX
  5
E62
330
E5C
100
AcDbEntity
  8
Nascosto
  6
Continuous
100
AcDbVertex
100
AcDb2dVertex
 10
-706.9974490751819
 20
496.7364393893872
 30
0.0
  0
VERTEX
  5
E63
330
E5C
100
AcDbEntity
  8
Nascosto
  6
Continuous
100
AcDbVertex
100
AcDb2dVertex
 10
-708.6604490751819
 20
497.1904393893874
 30
0.0
  0
VERTEX
  5
E64
330
E5C
100
AcDbEntity
  8
Nascosto
  6
Continuous
100
AcDbVertex
100
AcDb2dVertex
 10
-710.3244490751819
 20
497.6414393893874
 30
0.0
  0
VERTEX
  5
E65
330
E5C
100
AcDbEntity
  8
Nascosto
  6
Continuous
100
AcDbVertex
100
AcDb2dVertex
 10
-711.9834490751819
 20
498.0884393893873
 30
0.0
  0
VERTEX
  5
E66
330
E5C
100
AcDbEntity
  8
Nascosto
  6
Continuous
100
AcDbVertex
100
AcDb2dVertex
 10
-713.6424490751819
 20
498.5314393893873
 30
0.0
  0
VERTEX
  5
E67
330
E5C
100
AcDbEntity
  8
Nascosto
  6
Continuous
100
AcDbVertex
100
AcDb2dVertex
 10
-715.3024490751819
 20
498.9724393893873
 30
0.0
  0
VERTEX
  5
E68
330
E5C
100
AcDbEntity
  8
Nascosto
  6
Continuous
100
AcDbVertex
100
AcDb2dVertex
 10
-716.9634490751819
 20
499.4094393893873
 30
0.0
  0
VERTEX
  5
E69
330
E5C
100
AcDbEntity
  8
Nascosto
  6
Continuous
100
AcDbVertex
100
AcDb2dVertex
 10
-718.6244490751819
 20
499.8424393893873
 30
0.0
  0
VERTEX
  5
E6A
330
E5C
100
AcDbEntity
  8
Nascosto
  6
Continuous
100
AcDbVertex
100
AcDb2dVertex
 10
-720.2874490751819
 20
500.2724393893873
 30
0.0
  0
VERTEX
  5
E6B
330
E5C
100
AcDbEntity
  8
Nascosto
  6
Continuous
100
AcDbVertex
100
AcDb2dVertex
 10
-721.9514490751819
 20
500.6994393893874
 30
0.0
  0
VERTEX
  5
E6C
330
E5C
100
AcDbEntity
  8
Nascosto
  6
Continuous
100
AcDbVertex
100
AcDb2dVertex
 10
-725.2614490751819
 20
501.5344393893873
 30
0.0
  0
VERTEX
  5
E6D
330
E5C
100
AcDbEntity
  8
Nascosto
  6
Continuous
100
AcDbVertex
100
AcDb2dVertex
 10
-728.573449075182
 20
502.3534393893874
 30
0.0
  0
VERTEX
  5
E6E
330
E5C
100
AcDbEntity
  8
Nascosto
  6
Continuous
100
AcDbVertex
100
AcDb2dVertex
 10
-731.8884490751819
 20
503.1574393893873
 30
0.0
  0
VERTEX
  5
E6F
330
E5C
100
AcDbEntity
  8
Nascosto
  6
Continuous
100
AcDbVertex
100
AcDb2dVertex
 10
-735.207449075182
 20
503.9474393893873
 30
0.0
  0
VERTEX
  5
E70
330
E5C
100
AcDbEntity
  8
Nascosto
  6
Continuous
100
AcDbVertex
100
AcDb2dVertex
 10
-738.5294490751818
 20
504.7234393893873
 30
0.0
  0
VERTEX
  5
E71
330
E5C
100
AcDbEntity
  8
Nascosto
  6
Continuous
100
AcDbVertex
100
AcDb2dVertex
 10
-741.8554490751819
 20
505.4864393893873
 30
0.0
  0
VERTEX
  5
E72
330
E5C
100
AcDbEntity
  8
Nascosto
  6
Continuous
100
AcDbVertex
100
AcDb2dVertex
 10
-745.1844490751819
 20
506.2364393893873
 30
0.0
  0
VERTEX
  5
E73
330
E5C
100
AcDbEntity
  8
Nascosto
  6
Continuous
100
AcDbVertex
100
AcDb2dVertex
 10
-748.4924490751819
 20
506.9674393893873
 30
0.0
  0
VERTEX
  5
E74
330
E5C
100
AcDbEntity
  8
Nascosto
  6
Continuous
100
AcDbVertex
100
AcDb2dVertex
 10
-751.8014490751819
 20
507.6864393893873
 30
0.0
  0
VERTEX
  5
E75
330
E5C
100
AcDbEntity
  8
Nascosto
  6
Continuous
100
AcDbVertex
100
AcDb2dVertex
 10
-755.1134490751819
 20
508.3914393893874
 30
0.0
  0
VERTEX
  5
E76
330
E5C
100
AcDbEntity
  8
Nascosto
  6
Continuous
100
AcDbVertex
100
AcDb2dVertex
 10
-758.4274490751819
 20
509.0814393893873
 30
0.0
  0
VERTEX
  5
E77
330
E5C
100
AcDbEntity
  8
Nascosto
  6
Continuous
100
AcDbVertex
100
AcDb2dVertex
 10
-761.7454490751819
 20
509.7564393893874
 30
0.0
  0
VERTEX
  5
E78
330
E5C
100
AcDbEntity
  8
Nascosto
  6
Continuous
100
AcDbVertex
100
AcDb2dVertex
 10
-765.0664490751819
 20
510.4164393893873
 30
0.0
  0
VERTEX
  5
E79
330
E5C
100
AcDbEntity
  8
Nascosto
  6
Continuous
100
AcDbVertex
100
AcDb2dVertex
 10
-768.3924490751819
 20
511.0584393893873
 30
0.0
  0
VERTEX
  5
E7A
330
E5C
100
AcDbEntity
  8
Nascosto
  6
Continuous
100
AcDbVertex
100
AcDb2dVertex
 10
-771.6944490751818
 20
511.6784393893873
 30
0.0
  0
VERTEX
  5
E7B
330
E5C
100
AcDbEntity
  8
Nascosto
  6
Continuous
100
AcDbVertex
100
AcDb2dVertex
 10
-774.998449075182
 20
512.2804393893873
 30
0.0
  0
VERTEX
  5
E7C
330
E5C
100
AcDbEntity
  8
Nascosto
  6
Continuous
100
AcDbVertex
100
AcDb2dVertex
 10
-778.3054490751819
 20
512.8634393893873
 30
0.0
  0
VERTEX
  5
E7D
330
E5C
100
AcDbEntity
  8
Nascosto
  6
Continuous
100
AcDbVertex
100
AcDb2dVertex
 10
-781.6154490751819
 20
513.4254393893874
 30
0.0
  0
VERTEX
  5
E7E
330
E5C
100
AcDbEntity
  8
Nascosto
  6
Continuous
100
AcDbVertex
100
AcDb2dVertex
 10
-784.9284490751819
 20
513.9674393893874
 30
0.0
  0
VERTEX
  5
E7F
330
E5C
100
AcDbEntity
  8
Nascosto
  6
Continuous
100
AcDbVertex
100
AcDb2dVertex
 10
-788.2464490751819
 20
514.4874393893874
 30
0.0
  0
VERTEX
  5
E80
330
E5C
100
AcDbEntity
  8
Nascosto
  6
Continuous
100
AcDbVertex
100
AcDb2dVertex
 10
-791.5684490751819
 20
514.9854393893873
 30
0.0
  0
VERTEX
  5
E81
330
E5C
100
AcDbEntity
  8
Nascosto
  6
Continuous
100
AcDbVertex
100
AcDb2dVertex
 10
-794.8654490751819
 20
515.4554393893874
 30
0.0
  0
VERTEX
  5
E82
330
E5C
100
AcDbEntity
  8
Nascosto
  6
Continuous
100
AcDbVertex
100
AcDb2dVertex
 10
-798.1654490751818
 20
515.9014393893873
 30
0.0
  0
VERTEX
  5
E83
330
E5C
100
AcDbEntity
  8
Nascosto
  6
Continuous
100
AcDbVertex
100
AcDb2dVertex
 10
-801.4674490751819
 20
516.3254393893874
 30
0.0
  0
VERTEX
  5
E84
330
E5C
100
AcDbEntity
  8
Nascosto
  6
Continuous
100
AcDbVertex
100
AcDb2dVertex
 10
-804.772449075182
 20
516.7254393893873
 30
0.0
  0
VERTEX
  5
E85
330
E5C
100
AcDbEntity
  8
Nascosto
  6
Continuous
100
AcDbVertex
100
AcDb2dVertex
 10
-808.080449075182
 20
517.1014393893873
 30
0.0
  0
VERTEX
  5
E86
330
E5C
100
AcDbEntity
  8
Nascosto
  6
Continuous
100
AcDbVertex
100
AcDb2dVertex
 10
-811.392449075182
 20
517.4554393893873
 30
0.0
  0
VERTEX
  5
E87
330
E5C
100
AcDbEntity
  8
Nascosto
  6
Continuous
100
AcDbVertex
100
AcDb2dVertex
 10
-814.7074490751819
 20
517.7844393893874
 30
0.0
  0
VERTEX
  5
E88
330
E5C
100
AcDbEntity
  8
Nascosto
  6
Continuous
100
AcDbVertex
100
AcDb2dVertex
 10
-818.0014490751819
 20
518.0884393893872
 30
0.0
  0
VERTEX
  5
E89
330
E5C
100
AcDbEntity
  8
Nascosto
  6
Continuous
100
AcDbVertex
100
AcDb2dVertex
 10
-821.2984490751818
 20
518.3674393893873
 30
0.0
  0
VERTEX
  5
E8A
330
E5C
100
AcDbEntity
  8
Nascosto
  6
Continuous
100
AcDbVertex
100
AcDb2dVertex
 10
-824.5954490751818
 20
518.6184393893873
 30
0.0
  0
VERTEX
  5
E8B
330
E5C
100
AcDbEntity
  8
Nascosto
  6
Continuous
100
AcDbVertex
100
AcDb2dVertex
 10
-827.8944490751818
 20
518.8414393893873
 30
0.0
  0
VERTEX
  5
E8C
330
E5C
100
AcDbEntity
  8
Nascosto
  6
Continuous
100
AcDbVertex
100
AcDb2dVertex
 10
-831.1954490751819
 20
519.0334393893873
 30
0.0
  0
VERTEX
  5
E8D
330
E5C
100
AcDbEntity
  8
Nascosto
  6
Continuous
100
AcDbVertex
100
AcDb2dVertex
 10
-834.497449075182
 20
519.1924393893873
 30
0.0
  0
VERTEX
  5
E8E
330
E5C
100
AcDbEntity
  8
Nascosto
  6
Continuous
100
AcDbVertex
100
AcDb2dVertex
 10
-837.8024490751819
 20
519.3164393893873
 30
0.0
  0
VERTEX
  5
E8F
330
E5C
100
AcDbEntity
  8
Nascosto
  6
Continuous
100
AcDbVertex
100
AcDb2dVertex
 10
-841.0924490751819
 20
519.4054393893873
 30
0.0
  0
VERTEX
  5
E90
330
E5C
100
AcDbEntity
  8
Nascosto
  6
Continuous
100
AcDbVertex
100
AcDb2dVertex
 10
-844.3824490751818
 20
519.4604393893873
 30
0.0
  0
VERTEX
  5
E91
330
E5C
100
AcDbEntity
  8
Nascosto
  6
Continuous
100
AcDbVertex
100
AcDb2dVertex
 10
-847.673449075182
 20
519.4834393893874
 30
0.0
  0
VERTEX
  5
E92
330
E5C
100
AcDbEntity
  8
Nascosto
  6
Continuous
100
AcDbVertex
100
AcDb2dVertex
 10
-850.9644490751819
 20
519.4774393893874
 30
0.0
  0
VERTEX
  5
E93
330
E5C
100
AcDbEntity
  8
Nascosto
  6
Continuous
100
AcDbVertex
100
AcDb2dVertex
 10
-854.2564490751818
 20
519.4454393893874
 30
0.0
  0
VERTEX
  5
E94
330
E5C
100
AcDbEntity
  8
Nascosto
  6
Continuous
100
AcDbVertex
100
AcDb2dVertex
 10
-857.5494490751818
 20
519.3874393893874
 30
0.0
  0
VERTEX
  5
E95
330
E5C
100
AcDbEntity
  8
Nascosto
  6
Continuous
100
AcDbVertex
100
AcDb2dVertex
 10
-860.844449075182
 20
519.3074393893873
 30
0.0
  0
VERTEX
  5
E96
330
E5C
100
AcDbEntity
  8
Nascosto
  6
Continuous
100
AcDbVertex
100
AcDb2dVertex
 10
-864.1404490751819
 20
519.2054393893873
 30
0.0
  0
VERTEX
  5
E97
330
E5C
100
AcDbEntity
  8
Nascosto
  6
Continuous
100
AcDbVertex
100
AcDb2dVertex
 10
-867.4344490751819
 20
519.0744393893874
 30
0.0
  0
VERTEX
  5
E98
330
E5C
100
AcDbEntity
  8
Nascosto
  6
Continuous
100
AcDbVertex
100
AcDb2dVertex
 10
-870.725449075182
 20
518.9034393893873
 30
0.0
  0
VERTEX
  5
E99
330
E5C
100
AcDbEntity
  8
Nascosto
  6
Continuous
100
AcDbVertex
100
AcDb2dVertex
 10
-874.0124490751819
 20
518.6814393893873
 30
0.0
  0
VERTEX
  5
E9A
330
E5C
100
AcDbEntity
  8
Nascosto
  6
Continuous
100
AcDbVertex
100
AcDb2dVertex
 10
-877.2924490751819
 20
518.4004393893874
 30
0.0
  0
VERTEX
  5
E9B
330
E5C
100
AcDbEntity
  8
Nascosto
  6
Continuous
100
AcDbVertex
100
AcDb2dVertex
 10
-880.565449075182
 20
518.0494393893873
 30
0.0
  0
VERTEX
  5
E9C
330
E5C
100
AcDbEntity
  8
Nascosto
  6
Continuous
100
AcDbVertex
100
AcDb2dVertex
 10
-883.8284490751819
 20
517.6184393893874
 30
0.0
  0
VERTEX
  5
E9D
330
E5C
100
AcDbEntity
  8
Nascosto
  6
Continuous
100
AcDbVertex
100
AcDb2dVertex
 10
-885.4754490751819
 20
517.3674393893874
 30
0.0
  0
VERTEX
  5
E9E
330
E5C
100
AcDbEntity
  8
Nascosto
  6
Continuous
100
AcDbVertex
100
AcDb2dVertex
 10
-887.1174490751819
 20
517.0934393893873
 30
0.0
  0
VERTEX
  5
E9F
330
E5C
100
AcDbEntity
  8
Nascosto
  6
Continuous
100
AcDbVertex
100
AcDb2dVertex
 10
-888.756449075182
 20
516.7984393893873
 30
0.0
  0
VERTEX
  5
EA0
330
E5C
100
AcDbEntity
  8
Nascosto
  6
Continuous
100
AcDbVertex
100
AcDb2dVertex
 10
-890.3924490751819
 20
516.4814393893873
 30
0.0
  0
VERTEX
  5
EA1
330
E5C
100
AcDbEntity
  8
Nascosto
  6
Continuous
100
AcDbVertex
100
AcDb2dVertex
 10
-892.023449075182
 20
516.1424393893874
 30
0.0
  0
VERTEX
  5
EA2
330
E5C
100
AcDbEntity
  8
Nascosto
  6
Continuous
100
AcDbVertex
100
AcDb2dVertex
 10
-893.6504490751818
 20
515.7834393893873
 30
0.0
  0
VERTEX
  5
EA3
330
E5C
100
AcDbEntity
  8
Nascosto
  6
Continuous
100
AcDbVertex
100
AcDb2dVertex
 10
-895.2734490751819
 20
515.4044393893873
 30
0.0
  0
VERTEX
  5
EA4
330
E5C
100
AcDbEntity
  8
Nascosto
  6
Continuous
100
AcDbVertex
100
AcDb2dVertex
 10
-896.9234490751819
 20
514.9964393893873
 30
0.0
  0
VERTEX
  5
EA5
330
E5C
100
AcDbEntity
  8
Nascosto
  6
Continuous
100
AcDbVertex
100
AcDb2dVertex
 10
-898.5674490751819
 20
514.5684393893873
 30
0.0
  0
VERTEX
  5
EA6
330
E5C
100
AcDbEntity
  8
Nascosto
  6
Continuous
100
AcDbVertex
100
AcDb2dVertex
 10
-900.2044490751819
 20
514.1164393893872
 30
0.0
  0
VERTEX
  5
EA7
330
E5C
100
AcDbEntity
  8
Nascosto
  6
Continuous
100
AcDbVertex
100
AcDb2dVertex
 10
-901.834449075182
 20
513.6414393893874
 30
0.0
  0
VERTEX
  5
EA8
330
E5C
100
AcDbEntity
  8
Nascosto
  6
Continuous
100
AcDbVertex
100
AcDb2dVertex
 10
-903.4574490751818
 20
513.1414393893874
 30
0.0
  0
VERTEX
  5
EA9
330
E5C
100
AcDbEntity
  8
Nascosto
  6
Continuous
100
AcDbVertex
100
AcDb2dVertex
 10
-905.0724490751818
 20
512.6164393893873
 30
0.0
  0
VERTEX
  5
EAA
330
E5C
100
AcDbEntity
  8
Nascosto
  6
Continuous
100
AcDbVertex
100
AcDb2dVertex
 10
-906.6794490751819
 20
512.0634393893872
 30
0.0
  0
VERTEX
  5
EAB
330
E5C
100
AcDbEntity
  8
Nascosto
  6
Continuous
100
AcDbVertex
100
AcDb2dVertex
 10
-907.5004490751819
 20
511.7684393893873
 30
0.0
  0
VERTEX
  5
EAC
330
E5C
100
AcDbEntity
  8
Nascosto
  6
Continuous
100
AcDbVertex
100
AcDb2dVertex
 10
-908.319449075182
 20
511.4664393893873
 30
0.0
  0
VERTEX
  5
EAD
330
E5C
100
AcDbEntity
  8
Nascosto
  6
Continuous
100
AcDbVertex
100
AcDb2dVertex
 10
-909.1354490751818
 20
511.1574393893874
 30
0.0
  0
VERTEX
  5
EAE
330
E5C
100
AcDbEntity
  8
Nascosto
  6
Continuous
100
AcDbVertex
100
AcDb2dVertex
 10
-909.9474490751818
 20
510.8394393893873
 30
0.0
  0
VERTEX
  5
EAF
330
E5C
100
AcDbEntity
  8
Nascosto
  6
Continuous
100
AcDbVertex
100
AcDb2dVertex
 10
-910.7564490751819
 20
510.5144393893873
 30
0.0
  0
VERTEX
  5
EB0
330
E5C
100
AcDbEntity
  8
Nascosto
  6
Continuous
100
AcDbVertex
100
AcDb2dVertex
 10
-911.562449075182
 20
510.1814393893874
 30
0.0
  0
VERTEX
  5
EB1
330
E5C
100
AcDbEntity
  8
Nascosto
  6
Continuous
100
AcDbVertex
100
AcDb2dVertex
 10
-912.363449075182
 20
509.8394393893873
 30
0.0
  0
VERTEX
  5
EB2
330
E5C
100
AcDbEntity
  8
Nascosto
  6
Continuous
100
AcDbVertex
100
AcDb2dVertex
 10
-913.189449075182
 20
509.4774393893874
 30
0.0
  0
VERTEX
  5
EB3
330
E5C
100
AcDbEntity
  8
Nascosto
  6
Continuous
100
AcDbVertex
100
AcDb2dVertex
 10
-914.0104490751818
 20
509.1044393893874
 30
0.0
  0
VERTEX
  5
EB4
330
E5C
100
AcDbEntity
  8
Nascosto
  6
Continuous
100
AcDbVertex
100
AcDb2dVertex
 10
-914.8254490751819
 20
508.7204393893873
 30
0.0
  0
VERTEX
  5
EB5
330
E5C
100
AcDbEntity
  8
Nascosto
  6
Continuous
100
AcDbVertex
100
AcDb2dVertex
 10
-915.6354490751819
 20
508.3234393893873
 30
0.0
  0
VERTEX
  5
EB6
330
E5C
100
AcDbEntity
  8
Nascosto
  6
Continuous
100
AcDbVertex
100
AcDb2dVertex
 10
-916.4394490751819
 20
507.9114393893873
 30
0.0
  0
VERTEX
  5
EB7
330
E5C
100
AcDbEntity
  8
Nascosto
  6
Continuous
100
AcDbVertex
100
AcDb2dVertex
 10
-917.2364490751819
 20
507.4844393893873
 30
0.0
  0
VERTEX
  5
EB8
330
E5C
100
AcDbEntity
  8
Nascosto
  6
Continuous
100
AcDbVertex
100
AcDb2dVertex
 10
-918.027449075182
 20
507.0404393893873
 30
0.0
  0
VERTEX
  5
EB9
330
E5C
100
AcDbEntity
  8
Nascosto
  6
Continuous
100
AcDbVertex
100
AcDb2dVertex
 10
-918.8844490751819
 20
506.5324393893873
 30
0.0
  0
VERTEX
  5
EBA
330
E5C
100
AcDbEntity
  8
Nascosto
  6
Continuous
100
AcDbVertex
100
AcDb2dVertex
 10
-919.7294490751819
 20
506.0024393893874
 30
0.0
  0
VERTEX
  5
EBB
330
E5C
100
AcDbEntity
  8
Nascosto
  6
Continuous
100
AcDbVertex
100
AcDb2dVertex
 10
-920.5594490751819
 20
505.4494393893874
 30
0.0
  0
VERTEX
  5
EBC
330
E5C
100
AcDbEntity
  8
Nascosto
  6
Continuous
100
AcDbVertex
100
AcDb2dVertex
 10
-921.368449075182
 20
504.8734393893873
 30
0.0
  0
VERTEX
  5
EBD
330
E5C
100
AcDbEntity
  8
Nascosto
  6
Continuous
100
AcDbVertex
100
AcDb2dVertex
 10
-922.1554490751818
 20
504.2734393893873
 30
0.0
  0
VERTEX
  5
EBE
330
E5C
100
AcDbEntity
  8
Nascosto
  6
Continuous
100
AcDbVertex
100
AcDb2dVertex
 10
-922.916449075182
 20
503.6494393893874
 30
0.0
  0
VERTEX
  5
EBF
330
E5C
100
AcDbEntity
  8
Nascosto
  6
Continuous
100
AcDbVertex
100
AcDb2dVertex
 10
-923.6474490751819
 20
503.0004393893873
 30
0.0
  0
VERTEX
  5
EC0
330
E5C
100
AcDbEntity
  8
Nascosto
  6
Continuous
100
AcDbVertex
100
AcDb2dVertex
 10
-924.0644490751819
 20
502.6054393893873
 30
0.0
  0
VERTEX
  5
EC1
330
E5C
100
AcDbEntity
  8
Nascosto
  6
Continuous
100
AcDbVertex
100
AcDb2dVertex
 10
-924.4714490751819
 20
502.2004393893873
 30
0.0
  0
VERTEX
  5
EC2
330
E5C
100
AcDbEntity
  8
Nascosto
  6
Continuous
100
AcDbVertex
100
AcDb2dVertex
 10
-924.8704490751819
 20
501.7854393893873
 30
0.0
  0
VERTEX
  5
EC3
330
E5C
100
AcDbEntity
  8
Nascosto
  6
Continuous
100
AcDbVertex
100
AcDb2dVertex
 10
-925.263449075182
 20
501.3584393893873
 30
0.0
  0
VERTEX
  5
EC4
330
E5C
100
AcDbEntity
  8
Nascosto
  6
Continuous
100
AcDbVertex
100
AcDb2dVertex
 10
-925.652449075182
 20
500.9194393893873
 30
0.0
  0
VERTEX
  5
EC5
330
E5C
100
AcDbEntity
  8
Nascosto
  6
Continuous
100
AcDbVertex
100
AcDb2dVertex
 10
-926.0394490751819
 20
500.4674393893873
 30
0.0
  0
VERTEX
  5
EC6
330
E5C
100
AcDbEntity
  8
Nascosto
  6
Continuous
100
AcDbVertex
100
AcDb2dVertex
 10
-926.426449075182
 20
500.0004393893873
 30
0.0
  0
VERTEX
  5
EC7
330
E5C
100
AcDbEntity
  8
Nascosto
  6
Continuous
100
AcDbVertex
100
AcDb2dVertex
 10
-927.0234490751819
 20
499.2494393893873
 30
0.0
  0
VERTEX
  5
EC8
330
E5C
100
AcDbEntity
  8
Nascosto
  6
Continuous
100
AcDbVertex
100
AcDb2dVertex
 10
-927.595449075182
 20
498.4674393893874
 30
0.0
  0
VERTEX
  5
EC9
330
E5C
100
AcDbEntity
  8
Nascosto
  6
Continuous
100
AcDbVertex
100
AcDb2dVertex
 10
-928.1154490751818
 20
497.6594393893874
 30
0.0
  0
VERTEX
  5
ECA
330
E5C
100
AcDbEntity
  8
Nascosto
  6
Continuous
100
AcDbVertex
100
AcDb2dVertex
 10
-928.5544490751819
 20
496.8294393893874
 30
0.0
  0
VERTEX
  5
ECB
330
E5C
100
AcDbEntity
  8
Nascosto
  6
Continuous
100
AcDbVertex
100
AcDb2dVertex
 10
-928.8854490751818
 20
495.9834393893873
 30
0.0
  0
VERTEX
  5
ECC
330
E5C
100
AcDbEntity
  8
Nascosto
  6
Continuous
100
AcDbVertex
100
AcDb2dVertex
 10
-929.0794490751819
 20
495.1264393893873
 30
0.0
  0
VERTEX
  5
ECD
330
E5C
100
AcDbEntity
  8
Nascosto
  6
Continuous
100
AcDbVertex
100
AcDb2dVertex
 10
-929.1084490751819
 20
494.2634393893873
 30
0.0
  0
VERTEX
  5
ECE
330
E5C
100
AcDbEntity
  8
Nascosto
  6
Continuous
100
AcDbVertex
100
AcDb2dVertex
 10
-928.9814490751819
 20
493.5044393893873
 30
0.0
  0
VERTEX
  5
ECF
330
E5C
100
AcDbEntity
  8
Nascosto
  6
Continuous
100
AcDbVertex
100
AcDb2dVertex
 10
-928.7234490751819
 20
492.7554393893873
 30
0.0
  0
VERTEX
  5
ED0
330
E5C
100
AcDbEntity
  8
Nascosto
  6
Continuous
100
AcDbVertex
100
AcDb2dVertex
 10
-928.3514490751819
 20
492.0304393893873
 30
0.0
  0
VERTEX
  5
ED1
330
E5C
100
AcDbEntity
  8
Nascosto
  6
Continuous
100
AcDbVertex
100
AcDb2dVertex
 10
-927.8814490751818
 20
491.3404393893873
 30
0.0
  0
VERTEX
  5
ED2
330
E5C
100
AcDbEntity
  8
Nascosto
  6
Continuous
100
AcDbVertex
100
AcDb2dVertex
 10
-927.3324490751818
 20
490.6964393893873
 30
0.0
  0
VERTEX
  5
ED3
330
E5C
100
AcDbEntity
  8
Nascosto
  6
Continuous
100
AcDbVertex
100
AcDb2dVertex
 10
-926.7224490751818
 20
490.1114393893873
 30
0.0
  0
VERTEX
  5
ED4
330
E5C
100
AcDbEntity
  8
Nascosto
  6
Continuous
100
AcDbVertex
100
AcDb2dVertex
 10
-926.0664490751819
 20
489.5974393893873
 30
0.0
  0
VERTEX
  5
ED5
330
E5C
100
AcDbEntity
  8
Nascosto
  6
Continuous
100
AcDbVertex
100
AcDb2dVertex
 10
-925.6684490751819
 20
489.3324393893873
 30
0.0
  0
VERTEX
  5
ED6
330
E5C
100
AcDbEntity
  8
Nascosto
  6
Continuous
100
AcDbVertex
100
AcDb2dVertex
 10
-925.262449075182
 20
489.0934393893873
 30
0.0
  0
VERTEX
  5
ED7
330
E5C
100
AcDbEntity
  8
Nascosto
  6
Continuous
100
AcDbVertex
100
AcDb2dVertex
 10
-924.8484490751819
 20
488.8754393893873
 30
0.0
  0
VERTEX
  5
ED8
330
E5C
100
AcDbEntity
  8
Nascosto
  6
Continuous
100
AcDbVertex
100
AcDb2dVertex
 10
-924.428449075182
 20
488.6764393893874
 30
0.0
  0
VERTEX
  5
ED9
330
E5C
100
AcDbEntity
  8
Nascosto
  6
Continuous
100
AcDbVertex
100
AcDb2dVertex
 10
-924.0024490751819
 20
488.4914393893874
 30
0.0
  0
VERTEX
  5
EDA
330
E5C
100
AcDbEntity
  8
Nascosto
  6
Continuous
100
AcDbVertex
100
AcDb2dVertex
 10
-923.5724490751819
 20
488.3194393893873
 30
0.0
  0
VERTEX
  5
EDB
330
E5C
100
AcDbEntity
  8
Nascosto
  6
Continuous
100
AcDbVertex
100
AcDb2dVertex
 10
-923.1384490751819
 20
488.1544393893873
 30
0.0
  0
VERTEX
  5
EDC
330
E5C
100
AcDbEntity
  8
Nascosto
  6
Continuous
100
AcDbVertex
100
AcDb2dVertex
 10
-922.3264490751819
 20
487.8654393893874
 30
0.0
  0
VERTEX
  5
EDD
330
E5C
100
AcDbEntity
  8
Nascosto
  6
Continuous
100
AcDbVertex
100
AcDb2dVertex
 10
-921.5074490751819
 20
487.5924393893874
 30
0.0
  0
VERTEX
  5
EDE
330
E5C
100
AcDbEntity
  8
Nascosto
  6
Continuous
100
AcDbVertex
100
AcDb2dVertex
 10
-920.5122454580418
 20
487.2893812130616
 30
0.0
  0
SEQEND
  5
EDF
330
E5C
100
AcDbEntity
  8
Nascosto
  6
Continuous
  0
POLYLINE
  5
EE0
330
1F
100
AcDbEntity
  8
7
  6
Continuous
100
AcDb2dPolyline
 66
     1
 10
0.0
 20
0.0
 30
0.0
  0
VERTEX
  5
EE1
330
EE0
100
AcDbEntity
  8
7
  6
Continuous
100
AcDbVertex
100
AcDb2dVertex
 10
-920.5122454580418
 20
487.2893812130616
 30
0.0
  0
VERTEX
  5
EE2
330
EE0
100
AcDbEntity
  8
7
  6
Continuous
100
AcDbVertex
100
AcDb2dVertex
 10
-919.8474490751818
 20
487.0994393893873
 30
0.0
  0
VERTEX
  5
EE3
330
EE0
100
AcDbEntity
  8
7
  6
Continuous
100
AcDbVertex
100
AcDb2dVertex
 10
-919.0094490751819
 20
486.8794393893873
 30
0.0
  0
VERTEX
  5
EE4
330
EE0
100
AcDbEntity
  8
7
  6
Continuous
100
AcDbVertex
100
AcDb2dVertex
 10
-918.1664490751819
 20
486.6754393893874
 30
0.0
  0
VERTEX
  5
EE5
330
EE0
100
AcDbEntity
  8
7
  6
Continuous
100
AcDbVertex
100
AcDb2dVertex
 10
-917.3204490751819
 20
486.4894393893873
 30
0.0
  0
VERTEX
  5
EE6
330
EE0
100
AcDbEntity
  8
7
  6
Continuous
100
AcDbVertex
100
AcDb2dVertex
 10
-916.497449075182
 20
486.3234393893874
 30
0.0
  0
VERTEX
  5
EE7
330
EE0
100
AcDbEntity
  8
7
  6
Continuous
100
AcDbVertex
100
AcDb2dVertex
 10
-915.6734490751819
 20
486.1734393893873
 30
0.0
  0
VERTEX
  5
EE8
330
EE0
100
AcDbEntity
  8
7
  6
Continuous
100
AcDbVertex
100
AcDb2dVertex
 10
-914.8464490751818
 20
486.0354393893874
 30
0.0
  0
VERTEX
  5
EE9
330
EE0
100
AcDbEntity
  8
7
  6
Continuous
100
AcDbVertex
100
AcDb2dVertex
 10
-914.0184490751819
 20
485.9084393893873
 30
0.0
  0
VERTEX
  5
EEA
330
EE0
100
AcDbEntity
  8
7
  6
Continuous
100
AcDbVertex
100
AcDb2dVertex
 10
-913.189449075182
 20
485.7924393893873
 30
0.0
  0
VERTEX
  5
EEB
330
EE0
100
AcDbEntity
  8
7
  6
Continuous
100
AcDbVertex
100
AcDb2dVertex
 10
-912.359449075182
 20
485.6834393893873
 30
0.0
  0
VERTEX
  5
EEC
330
EE0
100
AcDbEntity
  8
7
  6
Continuous
100
AcDbVertex
100
AcDb2dVertex
 10
-911.5274490751819
 20
485.5814393893873
 30
0.0
  0
VERTEX
  5
EED
330
EE0
100
AcDbEntity
  8
7
  6
Continuous
100
AcDbVertex
100
AcDb2dVertex
 10
-910.7034490751818
 20
485.4854393893873
 30
0.0
  0
VERTEX
  5
EEE
330
EE0
100
AcDbEntity
  8
7
  6
Continuous
100
AcDbVertex
100
AcDb2dVertex
 10
-909.8784490751819
 20
485.3934393893873
 30
0.0
  0
VERTEX
  5
EEF
330
EE0
100
AcDbEntity
  8
7
  6
Continuous
100
AcDbVertex
100
AcDb2dVertex
 10
-909.0534490751819
 20
485.3074393893873
 30
0.0
  0
VERTEX
  5
EF0
330
EE0
100
AcDbEntity
  8
7
  6
Continuous
100
AcDbVertex
100
AcDb2dVertex
 10
-908.2274490751819
 20
485.2244393893873
 30
0.0
  0
VERTEX
  5
EF1
330
EE0
100
AcDbEntity
  8
7
  6
Continuous
100
AcDbVertex
100
AcDb2dVertex
 10
-907.4014490751819
 20
485.1454393893873
 30
0.0
  0
VERTEX
  5
EF2
330
EE0
100
AcDbEntity
  8
7
  6
Continuous
100
AcDbVertex
100
AcDb2dVertex
 10
-906.5754490751819
 20
485.0704393893874
 30
0.0
  0
VERTEX
  5
EF3
330
EE0
100
AcDbEntity
  8
7
  6
Continuous
100
AcDbVertex
100
AcDb2dVertex
 10
-905.748449075182
 20
484.9984393893874
 30
0.0
  0
VERTEX
  5
EF4
330
EE0
100
AcDbEntity
  8
7
  6
Continuous
100
AcDbVertex
100
AcDb2dVertex
 10
-904.1014490751818
 20
484.8634393893873
 30
0.0
  0
VERTEX
  5
EF5
330
EE0
100
AcDbEntity
  8
7
  6
Continuous
100
AcDbVertex
100
AcDb2dVertex
 10
-902.4524490751819
 20
484.7404393893874
 30
0.0
  0
VERTEX
  5
EF6
330
EE0
100
AcDbEntity
  8
7
  6
Continuous
100
AcDbVertex
100
AcDb2dVertex
 10
-900.8044490751819
 20
484.6294393893873
 30
0.0
  0
VERTEX
  5
EF7
330
EE0
100
AcDbEntity
  8
7
  6
Continuous
100
AcDbVertex
100
AcDb2dVertex
 10
-899.1544490751818
 20
484.5314393893874
 30
0.0
  0
VERTEX
  5
EF8
330
EE0
100
AcDbEntity
  8
7
  6
Continuous
100
AcDbVertex
100
AcDb2dVertex
 10
-897.504449075182
 20
484.4454393893873
 30
0.0
  0
VERTEX
  5
EF9
330
EE0
100
AcDbEntity
  8
7
  6
Continuous
100
AcDbVertex
100
AcDb2dVertex
 10
-895.8534490751819
 20
484.3714393893874
 30
0.0
  0
VERTEX
  5
EFA
330
EE0
100
AcDbEntity
  8
7
  6
Continuous
100
AcDbVertex
100
AcDb2dVertex
 10
-894.2024490751819
 20
484.3114393893873
 30
0.0
  0
VERTEX
  5
EFB
330
EE0
100
AcDbEntity
  8
7
  6
Continuous
100
AcDbVertex
100
AcDb2dVertex
 10
-892.5564490751819
 20
484.2644393893873
 30
0.0
  0
VERTEX
  5
EFC
330
EE0
100
AcDbEntity
  8
7
  6
Continuous
100
AcDbVertex
100
AcDb2dVertex
 10
-890.910449075182
 20
484.2294393893873
 30
0.0
  0
VERTEX
  5
EFD
330
EE0
100
AcDbEntity
  8
7
  6
Continuous
100
AcDbVertex
100
AcDb2dVertex
 10
-889.2644490751818
 20
484.2054393893874
 30
0.0
  0
VERTEX
  5
EFE
330
EE0
100
AcDbEntity
  8
7
  6
Continuous
100
AcDbVertex
100
AcDb2dVertex
 10
-887.6184490751819
 20
484.1924393893873
 30
0.0
  0
VERTEX
  5
EFF
330
EE0
100
AcDbEntity
  8
7
  6
Continuous
100
AcDbVertex
100
AcDb2dVertex
 10
-885.9724490751819
 20
484.1874393893873
 30
0.0
  0
VERTEX
  5
F00
330
EE0
100
AcDbEntity
  8
7
  6
Continuous
100
AcDbVertex
100
AcDb2dVertex
 10
-884.3254490751819
 20
484.1904393893874
 30
0.0
  0
VERTEX
  5
F01
330
EE0
100
AcDbEntity
  8
7
  6
Continuous
100
AcDbVertex
100
AcDb2dVertex
 10
-882.6784490751819
 20
484.2004393893874
 30
0.0
  0
VERTEX
  5
F02
330
EE0
100
AcDbEntity
  8
7
  6
Continuous
100
AcDbVertex
100
AcDb2dVertex
 10
-879.387449075182
 20
484.2384393893873
 30
0.0
  0
VERTEX
  5
F03
330
EE0
100
AcDbEntity
  8
7
  6
Continuous
100
AcDbVertex
100
AcDb2dVertex
 10
-876.098449075182
 20
484.2964393893874
 30
0.0
  0
VERTEX
  5
F04
330
EE0
100
AcDbEntity
  8
7
  6
Continuous
100
AcDbVertex
100
AcDb2dVertex
 10
-872.8094490751818
 20
484.3724393893873
 30
0.0
  0
VERTEX
  5
F05
330
EE0
100
AcDbEntity
  8
7
  6
Continuous
100
AcDbVertex
100
AcDb2dVertex
 10
-869.5214490751819
 20
484.4624393893873
 30
0.0
  0
VERTEX
  5
F06
330
EE0
100
AcDbEntity
  8
7
  6
Continuous
100
AcDbVertex
100
AcDb2dVertex
 10
-866.2334490751819
 20
484.5634393893873
 30
0.0
  0
VERTEX
  5
F07
330
EE0
100
AcDbEntity
  8
7
  6
Continuous
100
AcDbVertex
100
AcDb2dVertex
 10
-862.944449075182
 20
484.6724393893873
 30
0.0
  0
VERTEX
  5
F08
330
EE0
100
AcDbEntity
  8
7
  6
Continuous
100
AcDbVertex
100
AcDb2dVertex
 10
-859.6554490751818
 20
484.7864393893874
 30
0.0
  0
VERTEX
  5
F09
330
EE0
100
AcDbEntity
  8
7
  6
Continuous
100
AcDbVertex
100
AcDb2dVertex
 10
-856.3664490751818
 20
484.9024393893873
 30
0.0
  0
VERTEX
  5
F0A
330
EE0
100
AcDbEntity
  8
7
  6
Continuous
100
AcDbVertex
100
AcDb2dVertex
 10
-853.0794490751819
 20
485.0214393893874
 30
0.0
  0
VERTEX
  5
F0B
330
EE0
100
AcDbEntity
  8
7
  6
Continuous
100
AcDbVertex
100
AcDb2dVertex
 10
-849.7924490751818
 20
485.1424393893873
 30
0.0
  0
VERTEX
  5
F0C
330
EE0
100
AcDbEntity
  8
7
  6
Continuous
100
AcDbVertex
100
AcDb2dVertex
 10
-846.5064490751819
 20
485.2684393893873
 30
0.0
  0
VERTEX
  5
F0D
330
EE0
100
AcDbEntity
  8
7
  6
Continuous
100
AcDbVertex
100
AcDb2dVertex
 10
-843.219449075182
 20
485.3974393893873
 30
0.0
  0
VERTEX
  5
F0E
330
EE0
100
AcDbEntity
  8
7
  6
Continuous
100
AcDbVertex
100
AcDb2dVertex
 10
-839.9334490751819
 20
485.5304393893873
 30
0.0
  0
VERTEX
  5
F0F
330
EE0
100
AcDbEntity
  8
7
  6
Continuous
100
AcDbVertex
100
AcDb2dVertex
 10
-836.6454490751818
 20
485.6684393893873
 30
0.0
  0
VERTEX
  5
F10
330
EE0
100
AcDbEntity
  8
7
  6
Continuous
100
AcDbVertex
100
AcDb2dVertex
 10
-833.3574490751818
 20
485.8124393893873
 30
0.0
  0
VERTEX
  5
F11
330
EE0
100
AcDbEntity
  8
7
  6
Continuous
100
AcDbVertex
100
AcDb2dVertex
 10
-830.0704490751819
 20
485.9604393893873
 30
0.0
  0
VERTEX
  5
F12
330
EE0
100
AcDbEntity
  8
7
  6
Continuous
100
AcDbVertex
100
AcDb2dVertex
 10
-826.7844490751819
 20
486.1134393893873
 30
0.0
  0
VERTEX
  5
F13
330
EE0
100
AcDbEntity
  8
7
  6
Continuous
100
AcDbVertex
100
AcDb2dVertex
 10
-823.4994490751819
 20
486.2714393893874
 30
0.0
  0
VERTEX
  5
F14
330
EE0
100
AcDbEntity
  8
7
  6
Continuous
100
AcDbVertex
100
AcDb2dVertex
 10
-820.2134490751818
 20
486.4314393893874
 30
0.0
  0
VERTEX
  5
F15
330
EE0
100
AcDbEntity
  8
7
  6
Continuous
100
AcDbVertex
100
AcDb2dVertex
 10
-816.9274490751819
 20
486.5944393893873
 30
0.0
  0
VERTEX
  5
F16
330
EE0
100
AcDbEntity
  8
7
  6
Continuous
100
AcDbVertex
100
AcDb2dVertex
 10
-813.640449075182
 20
486.7604393893873
 30
0.0
  0
VERTEX
  5
F17
330
EE0
100
AcDbEntity
  8
7
  6
Continuous
100
AcDbVertex
100
AcDb2dVertex
 10
-810.3534490751819
 20
486.9294393893873
 30
0.0
  0
VERTEX
  5
F18
330
EE0
100
AcDbEntity
  8
7
  6
Continuous
100
AcDbVertex
100
AcDb2dVertex
 10
-807.0674490751819
 20
487.0994393893873
 30
0.0
  0
VERTEX
  5
F19
330
EE0
100
AcDbEntity
  8
7
  6
Continuous
100
AcDbVertex
100
AcDb2dVertex
 10
-803.7814490751818
 20
487.2714393893874
 30
0.0
  0
VERTEX
  5
F1A
330
EE0
100
AcDbEntity
  8
7
  6
Continuous
100
AcDbVertex
100
AcDb2dVertex
 10
-800.4964490751818
 20
487.4464393893873
 30
0.0
  0
VERTEX
  5
F1B
330
EE0
100
AcDbEntity
  8
7
  6
Continuous
100
AcDbVertex
100
AcDb2dVertex
 10
-797.2114490751819
 20
487.6244393893873
 30
0.0
  0
VERTEX
  5
F1C
330
EE0
100
AcDbEntity
  8
7
  6
Continuous
100
AcDbVertex
100
AcDb2dVertex
 10
-793.9264490751819
 20
487.8054393893874
 30
0.0
  0
VERTEX
  5
F1D
330
EE0
100
AcDbEntity
  8
7
  6
Continuous
100
AcDbVertex
100
AcDb2dVertex
 10
-790.6394490751819
 20
487.9894393893874
 30
0.0
  0
VERTEX
  5
F1E
330
EE0
100
AcDbEntity
  8
7
  6
Continuous
100
AcDbVertex
100
AcDb2dVertex
 10
-787.3534490751819
 20
488.1764393893873
 30
0.0
  0
VERTEX
  5
F1F
330
EE0
100
AcDbEntity
  8
7
  6
Continuous
100
AcDbVertex
100
AcDb2dVertex
 10
-784.0684490751819
 20
488.3664393893873
 30
0.0
  0
VERTEX
  5
F20
330
EE0
100
AcDbEntity
  8
7
  6
Continuous
100
AcDbVertex
100
AcDb2dVertex
 10
-780.7844490751818
 20
488.5584393893873
 30
0.0
  0
VERTEX
  5
F21
330
EE0
100
AcDbEntity
  8
7
  6
Continuous
100
AcDbVertex
100
AcDb2dVertex
 10
-777.5004490751819
 20
488.7544393893874
 30
0.0
  0
VERTEX
  5
F22
330
EE0
100
AcDbEntity
  8
7
  6
Continuous
100
AcDbVertex
100
AcDb2dVertex
 10
-774.2164490751819
 20
488.9534393893874
 30
0.0
  0
VERTEX
  5
F23
330
EE0
100
AcDbEntity
  8
7
  6
Continuous
100
AcDbVertex
100
AcDb2dVertex
 10
-770.9314490751819
 20
489.1544393893873
 30
0.0
  0
VERTEX
  5
F24
330
EE0
100
AcDbEntity
  8
7
  6
Continuous
100
AcDbVertex
100
AcDb2dVertex
 10
-767.6464490751818
 20
489.3574393893874
 30
0.0
  0
VERTEX
  5
F25
330
EE0
100
AcDbEntity
  8
7
  6
Continuous
100
AcDbVertex
100
AcDb2dVertex
 10
-764.3604490751819
 20
489.5634393893873
 30
0.0
  0
VERTEX
  5
F26
330
EE0
100
AcDbEntity
  8
7
  6
Continuous
100
AcDbVertex
100
AcDb2dVertex
 10
-761.0754490751819
 20
489.7714393893874
 30
0.0
  0
VERTEX
  5
F27
330
EE0
100
AcDbEntity
  8
7
  6
Continuous
100
AcDbVertex
100
AcDb2dVertex
 10
-757.7914490751819
 20
489.9814393893873
 30
0.0
  0
VERTEX
  5
F28
330
EE0
100
AcDbEntity
  8
7
  6
Continuous
100
AcDbVertex
100
AcDb2dVertex
 10
-754.5084490751819
 20
490.1934393893873
 30
0.0
  0
VERTEX
  5
F29
330
EE0
100
AcDbEntity
  8
7
  6
Continuous
100
AcDbVertex
100
AcDb2dVertex
 10
-751.2244490751819
 20
490.4074393893873
 30
0.0
  0
VERTEX
  5
F2A
330
EE0
100
AcDbEntity
  8
7
  6
Continuous
100
AcDbVertex
100
AcDb2dVertex
 10
-747.9404490751819
 20
490.6224393893873
 30
0.0
  0
VERTEX
  5
F2B
330
EE0
100
AcDbEntity
  8
7
  6
Continuous
100
AcDbVertex
100
AcDb2dVertex
 10
-744.6544490751819
 20
490.8394393893874
 30
0.0
  0
VERTEX
  5
F2C
330
EE0
100
AcDbEntity
  8
7
  6
Continuous
100
AcDbVertex
100
AcDb2dVertex
 10
-741.3694490751819
 20
491.0574393893873
 30
0.0
  0
VERTEX
  5
F2D
330
EE0
100
AcDbEntity
  8
7
  6
Continuous
100
AcDbVertex
100
AcDb2dVertex
 10
-738.0844490751819
 20
491.2774393893873
 30
0.0
  0
VERTEX
  5
F2E
330
EE0
100
AcDbEntity
  8
7
  6
Continuous
100
AcDbVertex
100
AcDb2dVertex
 10
-734.8014490751819
 20
491.4994393893874
 30
0.0
  0
VERTEX
  5
F2F
330
EE0
100
AcDbEntity
  8
7
  6
Continuous
100
AcDbVertex
100
AcDb2dVertex
 10
-731.5174490751819
 20
491.7234393893873
 30
0.0
  0
VERTEX
  5
F30
330
EE0
100
AcDbEntity
  8
7
  6
Continuous
100
AcDbVertex
100
AcDb2dVertex
 10
-728.2344490751819
 20
491.9504393893873
 30
0.0
  0
VERTEX
  5
F31
330
EE0
100
AcDbEntity
  8
7
  6
Continuous
100
AcDbVertex
100
AcDb2dVertex
 10
-724.9504490751819
 20
492.1804393893873
 30
0.0
  0
VERTEX
  5
F32
330
EE0
100
AcDbEntity
  8
7
  6
Continuous
100
AcDbVertex
100
AcDb2dVertex
 10
-721.6654490751818
 20
492.4134393893873
 30
0.0
  0
VERTEX
  5
F33
330
EE0
100
AcDbEntity
  8
7
  6
Continuous
100
AcDbVertex
100
AcDb2dVertex
 10
-720.0234490751819
 20
492.5304393893873
 30
0.0
  0
VERTEX
  5
F34
330
EE0
100
AcDbEntity
  8
7
  6
Continuous
100
AcDbVertex
100
AcDb2dVertex
 10
-718.382449075182
 20
492.6494393893873
 30
0.0
  0
VERTEX
  5
F35
330
EE0
100
AcDbEntity
  8
7
  6
Continuous
100
AcDbVertex
100
AcDb2dVertex
 10
-716.7404490751819
 20
492.7684393893874
 30
0.0
  0
VERTEX
  5
F36
330
EE0
100
AcDbEntity
  8
7
  6
Continuous
100
AcDbVertex
100
AcDb2dVertex
 10
-715.0994490751819
 20
492.8884393893874
 30
0.0
  0
VERTEX
  5
F37
330
EE0
100
AcDbEntity
  8
7
  6
Continuous
100
AcDbVertex
100
AcDb2dVertex
 10
-713.4584490751819
 20
493.0074393893874
 30
0.0
  0
VERTEX
  5
F38
330
EE0
100
AcDbEntity
  8
7
  6
Continuous
100
AcDbVertex
100
AcDb2dVertex
 10
-711.8164490751819
 20
493.1274393893874
 30
0.0
  0
VERTEX
  5
F39
330
EE0
100
AcDbEntity
  8
7
  6
Continuous
100
AcDbVertex
100
AcDb2dVertex
 10
-710.1744490751818
 20
493.2474393893873
 30
0.0
  0
VERTEX
  5
F3A
330
EE0
100
AcDbEntity
  8
7
  6
Continuous
100
AcDbVertex
100
AcDb2dVertex
 10
-708.5334490751819
 20
493.3664393893873
 30
0.0
  0
VERTEX
  5
F3B
330
EE0
100
AcDbEntity
  8
7
  6
Continuous
100
AcDbVertex
100
AcDb2dVertex
 10
-706.8924490751819
 20
493.4854393893873
 30
0.0
  0
VERTEX
  5
F3C
330
EE0
100
AcDbEntity
  8
7
  6
Continuous
100
AcDbVertex
100
AcDb2dVertex
 10
-705.2524490751819
 20
493.6044393893873
 30
0.0
  0
VERTEX
  5
F3D
330
EE0
100
AcDbEntity
  8
7
  6
Continuous
100
AcDbVertex
100
AcDb2dVertex
 10
-703.6114490751819
 20
493.7234393893873
 30
0.0
  0
VERTEX
  5
F3E
330
EE0
100
AcDbEntity
  8
7
  6
Continuous
100
AcDbVertex
100
AcDb2dVertex
 10
-701.9704490751819
 20
493.8424393893874
 30
0.0
  0
VERTEX
  5
F3F
330
EE0
100
AcDbEntity
  8
7
  6
Continuous
100
AcDbVertex
100
AcDb2dVertex
 10
-700.3294490751819
 20
493.9604393893874
 30
0.0
  0
VERTEX
  5
F40
330
EE0
100
AcDbEntity
  8
7
  6
Continuous
100
AcDbVertex
100
AcDb2dVertex
 10
-698.688449075182
 20
494.0794393893874
 30
0.0
  0
VERTEX
  5
F41
330
EE0
100
AcDbEntity
  8
7
  6
Continuous
100
AcDbVertex
100
AcDb2dVertex
 10
-698.688449075182
 20
494.4474393893873
 30
0.0
  0
SEQEND
  5
F42
330
EE0
100
AcDbEntity
  8
7
  6
Continuous
  0
LINE
  5
F4A
330
1F
100
AcDbEntity
  8
Nascosto
100
AcDbLine
 10
562.8030467297608
 20
519.4804393893873
 30
0.0
 11
562.8030467297608
 21
487.2893812130617
 31
0.0
  0
ARC
  5
F4C
330
1F
100
AcDbEntity
  8
Fuso Corretta
100
AcDbCircle
 10
562.8030467297608
 20
523.9725377923207
 30
0.0
 40
36.68315657925905
100
AcDbArc
 50
270.0
 51
357.8666791393359
  0
LINE
  5
F50
330
1F
100
AcDbEntity
  8
Fuso Corretta
100
AcDbLine
 10
709.2934770365331
 20
509.4324393893873
 30
0.0
 11
709.2934770365331
 21
489.2474393893873
 31
0.0
  0
LINE
  5
F51
330
1F
100
AcDbEntity
  8
Fuso Corretta
100
AcDbLine
 10
709.2934770365331
 20
489.2474393893873
 30
0.0
 11
562.8030467297608
 21
484.2194393893874
 31
0.0
  0
LINE
  5
F52
330
1F
100
AcDbEntity
  8
Fuso Corretta
100
AcDbLine
 10
709.2934770365331
 20
509.4324393893873
 30
0.0
 11
598.8193954172573
 21
517.0100236028128
 31
0.0
  0
LINE
  5
F53
330
1F
100
AcDbEntity
  8
Nascosto
100
AcDbLine
 10
598.8193954172573
 20
517.0100236028128
 30
0.0
 11
562.8030467297608
 21
519.4804393893873
 31
0.0
  0
LINE
  5
F54
330
1F
100
AcDbEntity
  8
Fuso Corretta
100
AcDbLine
 10
562.8030467297608
 20
487.2893812130617
 30
0.0
 11
562.8030467297608
 21
484.2194393893874
 31
0.0
  0
LINE
  5
F56
330
1F
100
AcDbEntity
  8
Fuso Corretta
100
AcDbLine
 10
709.2934770365331
 20
489.2474393893873
 30
0.0
 11
1204.980410112495
 21
541.3462354215248
 31
0.0
  0
INSERT
  5
107C
330
1F
100
AcDbEntity
  8
Fuso Corretta
100
AcDbBlockReference
  2
CLARK Y - 105
 10
-956.7672913686186
 20
254.8079529662444
 30
0.0
  0
LINE
  5
107E
330
1F
100
AcDbEntity
  8
Fuso Corretta
100
AcDbLine
 10
-831.8222913686186
 20
447.6299529662444
 30
0.0
 11
-706.9036760249518
 21
447.6299529662444
 31
0.0
  0
LINE
  5
107F
330
1F
100
AcDbEntity
  8
Fuso Corretta
100
AcDbLine
 10
-848.2302913686185
 20
434.7784529662444
 30
0.0
 11
-708.1814821190446
 21
434.7784529662444
 31
0.0
  0
LINE
  5
1080
330
1F
100
AcDbEntity
  8
Fuso Corretta
100
AcDbLine
 10
1209.457767796156
 20
546.3188448983662
 30
0.0
 11
1209.457767796156
 21
552.7974819697788
 31
0.0
  0
LINE
  5
1081
330
1F
100
AcDbEntity
  8
Fuso Corretta
100
AcDbLine
 10
709.2934770365331
 20
509.4324393893873
 30
0.0
 11
1203.971470095626
 21
557.77377723297
 31
0.0
  0
ARC
  5
1082
330
1F
100
AcDbEntity
  8
Fuso Corretta
100
AcDbCircle
 10
1204.457767796156
 20
552.7974819697788
 30
0.0
 40
5.0
100
AcDbArc
 50
0.0
 51
95.58138430612634
  0
ARC
  5
1083
330
1F
100
AcDbEntity
  8
Fuso Corretta
100
AcDbCircle
 10
1204.457767796156
 20
546.3188448983662
 30
0.0
 40
5.0
100
AcDbArc
 50
276.0000000000017
 51
0.0
  0
LINE
  5
1084
330
1F
100
AcDbEntity
  8
Fuso Corretta
100
AcDbLine
 10
416.3126164229884
 20
509.4324393893873
 30
0.0
 11
416.3126164229884
 21
489.2474393893873
 31
0.0
  0
LINE
  5
1085
330
1F
100
AcDbEntity
  8
Fuso Corretta
100
AcDbLine
 10
416.3126164229884
 20
489.2474393893873
 30
0.0
 11
562.8030467297608
 21
484.2194393893874
 31
0.0
  0
LINE
  5
1086
330
1F
100
AcDbEntity
  8
Fuso Corretta
100
AcDbLine
 10
416.3126164229884
 20
509.4324393893873
 30
0.0
 11
526.7866980422642
 21
517.0100236028128
 31
0.0
  0
LINE
  5
1087
102
{ACAD_REACTORS
330
10A6
102
}
330
1F
100
AcDbEntity
  8
Fuso Corretta
100
AcDbLine
 10
416.3126164229884
 20
489.2474393893873
 30
0.0
 11
-79.374316652973
 21
541.3462354215248
 31
0.0
  0
ARC
  5
1088
330
1F
100
AcDbEntity
  8
Fuso Corretta
100
AcDbCircle
 10
-78.85167433663468
 20
546.3188448983662
 30
0.0
 40
5.0
100
AcDbArc
 50
180.0
 51
264.0000000000047
  0
LINE
  5
1089
330
1F
100
AcDbEntity
  8
Fuso Corretta
100
AcDbLine
 10
-83.85167433663468
 20
546.3188448983662
 30
0.0
 11
-83.85167433663468
 21
552.7974819697788
 31
0.0
  0
LINE
  5
108A
330
1F
100
AcDbEntity
  8
Fuso Corretta
100
AcDbLine
 10
416.3126164229884
 20
509.4324393893873
 30
0.0
 11
-78.36537663610489
 21
557.77377723297
 31
0.0
  0
ARC
  5
108B
330
1F
100
AcDbEntity
  8
Fuso Corretta
100
AcDbCircle
 10
-78.85167433663468
 20
552.7974819697788
 30
0.0
 40
5.0
100
AcDbArc
 50
84.41861569386722
 51
180.0
  0
LINE
  5
108C
330
1F
100
AcDbEntity
  8
Nascosto
100
AcDbLine
 10
526.7866980422642
 20
517.0100236028128
 30
0.0
 11
562.8030467297608
 21
519.4804393893873
 31
0.0
  0
LINE
  5
108D
330
1F
100
AcDbEntity
  8
Assi
100
AcDbLine
 10
-288.565939613857
 20
559.7480355743342
 30
0.0
 11
-435.8283066960607
 21
559.7480355743342
 31
0.0
  0
LINE
  5
108F
330
1F
100
AcDbEntity
  8
Assi
100
AcDbLine
 10
562.8030467297608
 20
689.8201249249312
 30
0.0
 11
562.8030467297608
 21
479.2194393893874
 31
0.0
  0
LINE
  5
1090
330
1F
100
AcDbEntity
  8
Assi
100
AcDbLine
 10
567.8030467297608
 20
540.050938721112
 30
0.0
 11
557.8030467297607
 21
540.050938721112
 31
0.0
  0
LINE
  5
1091
102
{ACAD_REACTORS
330
10A6
102
}
330
1F
100
AcDbEntity
  8
Assi
100
AcDbLine
 10
562.8030467297608
 20
484.2194393893874
 30
0.0
 11
-77.19695327023919
 21
484.2194393893874
 31
0.0
  0
MTEXT
  5
1155
330
1F
100
AcDbEntity
  8
AM_5
100
AcDbMText
 10
-177.5677269386624
 20
1785.20100538715
 30
0.0
 40
20.0
 41
1368.88226270697
 71
     1
 72
     5
  3
FIAT 55 SCALA 1:12\P\PDISEGNATO DA: OLIVA RENATO\P\PFONTE: TRITTICO SCALA 1:48 DISEGNATO DA ANGELO BRIOSCHI\P\PCARATTERISTICHE:\P\PSUPERFICIE ALARE. DM² 13,6\P\PAPERTURA ALARE: 1000 MM.\P\PLUNGHEZZA COMPRESO OGIVA 790 MM.\P\PMOTORE PREVISTO: OS 15 FP
  1
\P\PPESO PREVISTO: 700-800 GRAMMI\P\PCARICO ALARE SECONDO PESO PREVISTO:  51,5-58,8 G/DM²\P\PPROFILI: CLARK YM-15 (15%) - CLARK Y (11,7%)
 73
     1
 44
1.0
1001
ACAD
1000
ACAD_MTEXT_DEFINED_HEIGHT_BEGIN
1070
    46
1040
0.0
1000
ACAD_MTEXT_DEFINED_HEIGHT_END
1000
MTEXTBEGIN
1070
    73
1070
     1
1070
    44
1040
1.0
1070
    74
1070
     0
1000
MTEXTEND
  0
LINE
  5
1185
330
1F
100
AcDbEntity
  8
AM_5
100
AcDbLine
 10
-80.36883854834128
 20
541.4507638847924
 30
0.0
 11
-102.6386575827508
 21
543.7914161839091
 31
0.0
  0
LINE
  5
1186
330
1F
100
AcDbEntity
  8
AM_5
100
AcDbLine
 10
-78.19695327023921
 20
484.2194393893874
 30
0.0
 11
-105.7606925940526
 21
484.2194393893874
 31
0.0
  0
ARC
  5
1187
330
1F
100
AcDbEntity
  8
AM_5
100
AcDbCircle
 10
464.1508408988198
 20
484.2194393893874
 30
0.0
 40
568.9115334928724
100
AcDbArc
 50
174.251778274126
 51
179.7482217258739
  0
SOLID
  5
1188
330
1F
100
AcDbEntity
  8
AM_5
100
AcDbTrace
 10
-102.3144721779761
 20
541.2426577600014
 30
0.0
 11
-101.4855145426014
 21
541.1573718690327
 31
0.0
 12
-101.6441356873825
 22
543.6868877206413
 32
0.0
 13
-101.6441356873825
 23
543.6868877206413
 33
0.0
  0
SOLID
  5
1189
330
1F
100
AcDbEntity
  8
AM_5
100
AcDbTrace
 10
-104.3385339877195
 20
486.7185178639877
 30
0.0
 11
-105.1718653095537
 21
486.720348845793
 31
0.0
 12
-104.7606925940526
 22
484.2194393893874
 32
0.0
 13
-104.7606925940526
 23
484.2194393893874
 33
0.0
  0
MTEXT
  5
118A
330
1F
100
AcDbEntity
  8
AM_5
 62
     2
100
AcDbMText
 10
-117.8952768929573
 20
513.5634554830584
 30
0.0
 40
20.0
 41
0.0
 71
     5
 72
     1
  1
6°
 11
0.9986295347545739
 21
-0.0523359562429439
 31
0.0
 73
     1
 44
1.0
1001
ACAD
1000
ACAD_MTEXT_DEFINED_HEIGHT_BEGIN
1070
    46
1040
0.0
1000
ACAD_MTEXT_DEFINED_HEIGHT_END
1000
MTEXTBEGIN
1070
    73
1070
     1
1070
    44
1040
1.0
1070
    74
1070
     0
1000
MTEXTEND
  0
LINE
  5
118E
330
1F
100
AcDbEntity
  8
Ala
100
AcDbLine
 10
561.3030467297607
 20
683.3201249249313
 30
0.0
 11
561.3030467297607
 21
619.4864229046133
 31
0.0
  0
LINE
  5
118F
330
1F
100
AcDbEntity
  8
Ala
100
AcDbLine
 10
564.3030467297608
 20
683.3201249249313
 30
0.0
 11
564.3030467297608
 21
619.4864229046133
 31
0.0
  0
ARC
  5
1190
330
1F
100
AcDbEntity
  8
Ala
100
AcDbCircle
 10
562.8030467297608
 20
683.3201249249313
 30
0.0
 40
1.5
100
AcDbArc
 50
0.0
 51
180.0
  0
LINE
  5
1196
330
1F
100
AcDbEntity
  8
Ala
100
AcDbLine
 10
421.2752605649539
 20
561.2480355743342
 30
0.0
 11
526.7095311778312
 21
561.2480355743342
 31
0.0
  0
LINE
  5
1197
330
1F
100
AcDbEntity
  8
Ala
100
AcDbLine
 10
421.2752605649539
 20
558.2480355743342
 30
0.0
 11
526.3826718378071
 21
558.2480355743342
 31
0.0
  0
ARC
  5
119B
330
1F
100
AcDbEntity
  8
Ala
100
AcDbCircle
 10
421.2752605649539
 20
559.7480355743342
 30
0.0
 40
1.499999999999999
100
AcDbArc
 50
90.0
 51
270.0
  0
LINE
  5
119C
330
1F
100
AcDbEntity
  8
Ala
100
AcDbLine
 10
704.3308328945677
 20
561.2480355743342
 30
0.0
 11
598.8965622816903
 21
561.2480355743342
 31
0.0
  0
ARC
  5
119D
330
1F
100
AcDbEntity
  8
Ala
100
AcDbCircle
 10
704.3308328945677
 20
559.7480355743342
 30
0.0
 40
1.499999999999999
100
AcDbArc
 50
270.0
 51
90.0
  0
LINE
  5
119E
330
1F
100
AcDbEntity
  8
Ala
100
AcDbLine
 10
704.3308328945677
 20
558.2480355743342
 30
0.0
 11
599.2234216217144
 21
558.2480355743342
 31
0.0
  0
ARC
  5
11B5
330
1F
100
AcDbEntity
  8
Fuso Corretta
100
AcDbCircle
 10
560.8059657500166
 20
563.7531264446913
 30
0.0
 40
32.46047702240776
100
AcDbArc
 50
104.6259410091824
 51
161.5848893081816
  0
ARC
  5
11B6
330
1F
100
AcDbEntity
  8
Fuso Corretta
100
AcDbCircle
 10
566.4284962440752
 20
531.4670610499604
 30
0.0
 40
65.17649522976546
100
AcDbArc
 50
93.18872970673192
 51
102.2410461485345
  0
LINE
  5
11B7
330
1F
100
AcDbEntity
  8
Fuso Corretta
100
AcDbLine
 10
552.6094528692754
 20
595.1617199362519
 30
0.0
 11
552.6094528692744
 21
616.9508523552844
 31
0.0
  0
ARC
  5
11B8
330
1F
100
AcDbEntity
  8
Fuso Corretta
100
AcDbCircle
 10
564.8001277095049
 20
563.7531264446913
 30
0.0
 40
32.46047702240777
100
AcDbArc
 50
18.41511069181903
 51
75.37405899081665
  0
ARC
  5
11B9
330
1F
100
AcDbEntity
  8
Fuso Corretta
100
AcDbCircle
 10
559.1775972154464
 20
531.4670610499604
 30
0.0
 40
65.17649522976549
100
AcDbArc
 50
77.75895385146172
 51
86.81127029327134
  0
LINE
  5
11BA
330
1F
100
AcDbEntity
  8
Fuso Corretta
100
AcDbLine
 10
572.9966405902461
 20
595.1617199362519
 30
0.0
 11
572.9966405902472
 21
616.9508523552844
 31
0.0
  0
LINE
  5
11BB
330
1F
100
AcDbEntity
  8
Assi
100
AcDbLine
 10
414.7752605649539
 20
559.7480355743342
 30
0.0
 11
521.514718219289
 21
559.7480355743342
 31
0.0
  0
LINE
  5
11BC
330
1F
100
AcDbEntity
  8
Assi
100
AcDbLine
 10
710.8308328945678
 20
559.7480355743342
 30
0.0
 11
604.0913752402326
 21
559.7480355743342
 31
0.0
  0
LINE
  5
11C6
330
1F
100
AcDbEntity
  8
Ala
100
AcDbLine
 10
-1129.798128830002
 20
1302.774754744186
 30
0.0
 11
-1129.798128830002
 21
1282.387567023214
 31
0.0
  0
LINE
  5
11CE
330
1F
100
AcDbEntity
  8
Fuso Corretta
100
AcDbLine
 10
-715.3439268932294
 20
1302.774754744186
 30
0.0
 11
-715.3439268932294
 21
1282.387567023214
 31
0.0
  0
LINE
  5
11CF
330
1F
100
AcDbEntity
  8
Fuso Corretta
100
AcDbLine
 10
-698.41415227613
 20
1282.387567023214
 30
0.0
 11
-698.41415227613
 21
1302.774754744186
 31
0.0
  0
LINE
  5
11D0
330
1F
100
AcDbEntity
  8
Fuso Corretta
100
AcDbLine
 10
-763.0968260769406
 20
1302.774754744114
 30
0.0
 11
-681.4843776590306
 21
1302.774754744114
 31
0.0
  0
LINE
  5
11D1
330
1F
100
AcDbEntity
  8
Fuso Corretta
100
AcDbLine
 10
-763.0968260769352
 20
1282.387567023213
 30
0.0
 11
-681.4843776590306
 21
1282.387567023213
 31
0.0
  0
ENDSEC
  0
SECTION
  2
OBJECTS
  0
DICTIONARY
  5
C
330
0
100
AcDbDictionary
281
     1
  3
ACAD_COLOR
350
BE
  3
ACAD_GROUP
350
D
  3
ACAD_IMAGE_DICT
350
287
  3
ACAD_IMAGE_VARS
350
288
  3
ACAD_LAYOUT
350
1A
  3
ACAD_MATERIAL
350
BD
  3
ACAD_MLINESTYLE
350
17
  3
ACAD_PLOTSETTINGS
350
19
  3
ACAD_PLOTSTYLENAME
350
E
  3
ACAD_TABLESTYLE
350
11A
  3
ACDBHEADERROUNDTRIPXREC
350
11D9
  3
AcDbVariableDictionary
350
94
  3
AcmDictionary
350
5B
  3
AMG
350
41
  3
AMGSNAPSETTINGS
350
28C
  3
DWGPROPS
350
11D8
  0
DICTIONARY
  5
46F
330
2
100
AcDbDictionary
280
     1
281
     1
  3
ACAD_LAYERFILTERS
360
F47
  3
ACLYDICTIONARY
360
F46
  0
DICTIONARY
  5
8F
330
1F
100
AcDbDictionary
280
     1
281
     1
  3
ACAD_SORTENTS
360
29D
  0
DICTIONARY
  5
BE
102
{ACAD_REACTORS
330
C
102
}
330
C
100
AcDbDictionary
281
     1
  0
DICTIONARY
  5
D
102
{ACAD_REACTORS
330
C
102
}
330
C
100
AcDbDictionary
281
     1
  0
DICTIONARY
  5
287
102
{ACAD_REACTORS
330
C
102
}
330
C
100
AcDbDictionary
281
     1
  3
23
350
2D3
  3
24
350
2D6
  3
24_1
350
44D
  3
25
350
2DB
  3
26
350
289
  3
26_1
350
44A
  0
RASTERVARIABLES
  5
288
102
{ACAD_REACTORS
330
C
102
}
330
C
100
AcDbRasterVariables
 90
        0
 70
     1
 71
     1
 72
     1
  0
DICTIONARY
  5
1A
102
{ACAD_REACTORS
330
C
102
}
330
C
100
AcDbDictionary
281
     1
  3
Layout1
350
1E
  3
Layout2
350
26
  3
Model
350
22
  0
DICTIONARY
  5
BD
102
{ACAD_REACTORS
330
C
102
}
330
C
100
AcDbDictionary
281
     1
  0
DICTIONARY
  5
17
102
{ACAD_REACTORS
330
C
102
}
330
C
100
AcDbDictionary
281
     1
  3
Standard
350
18
  0
DICTIONARY
  5
19
102
{ACAD_REACTORS
330
C
102
}
330
C
100
AcDbDictionary
281
     1
  0
ACDBDICTIONARYWDFLT
  5
E
102
{ACAD_REACTORS
330
C
102
}
330
C
100
AcDbDictionary
281
     1
  3
Normal
350
F
100
AcDbDictionaryWithDefault
340
F
  0
DICTIONARY
  5
11A
102
{ACAD_REACTORS
330
C
102
}
330
C
100
AcDbDictionary
281
     1
  3
Standard
350
11B
  0
DICTIONARY
  5
11D9
102
{ACAD_REACTORS
330
C
102
}
330
C
100
AcDbDictionary
281
     1
  0
DICTIONARY
  5
94
102
{ACAD_REACTORS
330
C
102
}
330
C
100
AcDbDictionary
281
     1
  3
CTABLESTYLE
350
138
  3
DIMASSOC
350
96
  3
INDEXCTL
350
95
  3
PROJECTNAME
350
11D6
  0
DICTIONARY
  5
5B
102
{ACAD_REACTORS
330
C
102
}
330
C
100
AcDbDictionary
281
     1
  3
AcmStdDictionary
350
61
  3
AMDTSECTSYM_ARROWCOLOR
350
123
  0
DICTIONARY
  5
41
102
{ACAD_REACTORS
330
C
102
}
330
C
100
AcDbDictionary
281
     1
  0
DICTIONARY
  5
28C
102
{ACAD_REACTORS
330
C
102
}
330
C
100
AcDbDictionary
281
     1
  0
XRECORD
  5
11D8
102
{ACAD_REACTORS
330
C
102
}
330
C
100
AcDbXrecord
280
     1
  1
DWGPROPS COOKIE
  2

  3

  4

  6

  7

  8

  9

300
AmdtFileType=84
301
=
302
=
303
=
304
=
305
=
306
=
307
=
308
=
309
=
 40
0.3590725925925926
 41
2453765.535069977
 42
2453766.453536597
  1

 90
        1
  0
DICTIONARY
  5
F47
102
{ACAD_REACTORS
330
46F
102
}
330
46F
100
AcDbDictionary
281
     1
  0
DICTIONARY
  5
F46
102
{ACAD_REACTORS
330
46F
102
}
330
46F
100
AcDbDictionary
281
     1
1001
ACAD
1000
<All
  0
SORTENTSTABLE
  5
29D
102
{ACAD_REACTORS
330
8F
102
}
330
8F
100
AcDbSortentsTable
330
1F
331
52A
  5
52C
331
753
  5
753
331
735
  5
740
331
4F6
  5
4F8
331
1081
  5
1082
331
2BF
  5
2C9
331
2A1
  5
2A1
331
577
  5
5B4
331
1190
  5
1190
331
746
  5
746
331
525
  5
527
331
748
  5
748
331
2CA
  5
2CD
331
6F6
  5
2B9
331
51A
  5
51D
331
1185
  5
1155
331
71D
  5
726
331
73B
  5
71F
331
1087
  5
1087
331
9F2
  5
9F2
331
707
  5
709
331
4FC
  5
504
331
2A7
  5
2A4
331
1089
  5
1089
331
1196
  5
1192
331
2A9
  5
2A9
331
74E
  5
74E
331
730
  5
73A
331
107C
  5
107E
331
712
  5
712
331
4B5
  5
4B7
331
F4A
  5
F4A
331
572
  5
576
331
520
  5
522
331
B5A
  5
B5C
331
723
  5
72E
331
502
  5
500
331
108F
  5
108F
331
5B7
  5
5E4
331
2AF
  5
2AC
331
754
  5
754
331
52B
  5
52E
331
1082
  5
1083
331
B4F
  5
B52
331
736
  5
734
331
2A2
  5
2A5
331
F50
  5
F51
331
578
  5
57B
331
53C
  5
56C
331
EE0
  5
E5C
331
747
  5
747
331
526
  5
528
331
749
  5
749
331
72B
  5
735
331
70D
  5
70D
331
2CB
  5
2CE
331
2B5
  5
2B6
331
1186
  5
1185
331
9F3
  5
9F3
331
71E
  5
727
331
73C
  5
721
331
531
  5
535
331
108A
  5
108A
331
1197
  5
119B
331
F56
  5
F56
331
2AA
  5
2AA
331
74F
  5
74F
331
731
  5
73B
331
713
  5
713
331
4B6
  5
4B8
331
573
  5
577
331
521
  5
523
331
B5B
  5
B5D
331
742
  5
742
331
724
  5
72F
331
4AC
  5
4AF
331
708
  5
70A
331
1090
  5
1090
331
6F2
  5
6F6
331
755
  5
755
331
52C
  5
52F
331
1083
  5
107C
331
6E5
  5
6F4
331
737
  5
73E
331
2A3
  5
2A6
331
F51
  5
F52
331
579
  5
56D
331
527
  5
529
331
74A
  5
74A
331
72C
  5
736
331
70E
  5
70E
331
4B1
  5
4B6
331
2CC
  5
2D0
331
1187
  5
1186
331
B56
  5
B58
331
51C
  5
51E
331
71F
  5
729
331
108B
  5
108B
331
2C1
  5
2CA
331
543
  5
573
331
2AB
  5
2AB
331
750
  5
750
331
732
  5
73C
331
4B7
  5
4B9
331
107E
  5
107F
331
2BC
  5
2BE
331
29E
  5
29F
331
5E4
  5
6F2
331
F4C
  5
F50
331
574
  5
578
331
522
  5
524
331
743
  5
743
331
725
  5
730
331
4AD
  5
4B3
331
504
  5
506
331
709
  5
708
331
1091
  5
1091
331
6F3
  5
705
331
52D
  5
530
331
1084
  5
1084
331
B51
  5
B53
331
738
  5
71C
331
4F9
  5
4FE
331
2A4
  5
2A7
331
F52
  5
F53
331
57A
  5
5B7
331
74B
  5
74B
331
72D
  5
737
331
70F
  5
70F
331
2CD
  5
387
331
2B7
  5
2BB
331
1188
  5
1187
331
B57
  5
B59
331
720
  5
72B
331
73E
  5
724
331
51D
  5
51F
331
108C
  5
108C
331
5B4
  5
5BA
331
2AC
  5
2AD
331
119B
  5
1195
331
751
  5
751
331
E5C
  5
EE0
331
B18
  5
B18
331
733
  5
73D
331
4B8
  5
4BB
331
107F
  5
1080
331
2BD
  5
2BF
331
29F
  5
29E
331
5E5
  5
6F3
331
575
  5
579
331
118E
  5
118E
331
744
  5
744
331
726
  5
731
331
70A
  5
52D
331
6F4
  5
2B5
331
5BA
  5
5E1
331
2B2
  5
2B2
331
B52
  5
B56
331
739
  5
71D
331
1085
  5
1085
331
705
  5
706
331
52E
  5
531
331
F53
  5
F54
331
74C
  5
74C
331
72E
  5
738
331
710
  5
710
331
2CE
  5
388
331
2B8
  5
2BC
331
570
  5
574
331
1155
  5
118A
331
1189
  5
1188
331
B58
  5
B5A
331
721
  5
72C
331
73F
  5
720
331
51E
  5
520
331
108D
  5
108D
331
2AD
  5
2AF
331
752
  5
752
331
734
  5
73F
331
4B9
  5
4BC
331
1080
  5
1081
331
2BE
  5
2C1
331
2A0
  5
2A0
331
576
  5
57A
331
118F
  5
118F
331
D74
  5
D74
331
524
  5
526
331
745
  5
745
331
727
  5
732
331
4AF
  5
4B4
331
729
  5
733
331
2C9
  5
2CB
331
5BB
  5
6F0
331
2B3
  5
2B3
331
52F
  5
533
331
519
  5
51C
331
B53
  5
B57
331
71C
  5
725
331
1086
  5
1086
331
706
  5
707
331
73A
  5
71E
331
1088
  5
1088
331
F54
  5
F4C
331
2A8
  5
2A8
331
74D
  5
74D
331
72F
  5
739
331
711
  5
711
331
4B4
  5
4B5
331
2B9
  5
2BD
331
571
  5
575
331
51F
  5
521
331
118A
  5
1189
331
B59
  5
B5B
331
722
  5
72D
331
740
  5
723
331
501
  5
512
331
6F0
  5
6F5
331
5B6
  5
5BB
331
2AE
  5
2B0
  0
IMAGEDEF
  5
2D3
102
{ACAD_REACTORS
330
287
102
}
330
287
100
AcDbRasterImageDef
 90
        0
  1
E:\Aeromodellismo\Trittici\fiatg55alitalia\23.jpg
 10
1384.0
 20
2014.0
 11
0.3571428571428571
 21
0.3571428571428571
280
     1
281
     2
  0
IMAGEDEF
  5
2D6
102
{ACAD_REACTORS
330
287
330
2D7
102
}
330
287
100
AcDbRasterImageDef
 90
        0
  1
E:\Aeromodellismo\Trittici\fiatg55alitalia\24.jpg
 10
1396.0
 20
2030.0
 11
0.144927536231884
 21
0.144927536231884
280
     1
281
     2
  0
IMAGEDEF
  5
44D
102
{ACAD_REACTORS
330
287
330
44E
102
}
330
287
100
AcDbRasterImageDef
 90
        0
  1
E:\Trittici\fiatg55alitalia\24.jpg
 10
1396.0
 20
2030.0
 11
0.144927536231884
 21
0.144927536231884
280
     1
281
     2
  0
IMAGEDEF
  5
2DB
102
{ACAD_REACTORS
330
287
102
}
330
287
100
AcDbRasterImageDef
 90
        0
  1
E:\Aeromodellismo\Trittici\fiatg55alitalia\25.jpg
 10
1393.0
 20
2021.0
 11
0.3571428571428571
 21
0.3571428571428571
280
     1
281
     2
  0
IMAGEDEF
  5
289
102
{ACAD_REACTORS
330
287
330
28A
102
}
330
287
100
AcDbRasterImageDef
 90
        0
  1
E:\Aeromodellismo\Trittici\fiatg55alitalia\26.jpg
 10
1386.0
 20
2023.0
 11
0.144927536231884
 21
0.144927536231884
280
     1
281
     2
  0
IMAGEDEF
  5
44A
102
{ACAD_REACTORS
330
287
330
44B
102
}
330
287
100
AcDbRasterImageDef
 90
        0
  1
E:\Trittici\fiatg55alitalia\26.jpg
 10
1386.0
 20
2023.0
 11
0.144927536231884
 21
0.144927536231884
280
     1
281
     2
  0
LAYOUT
  5
1E
102
{ACAD_XDICTIONARY
360
11DA
102
}
102
{ACAD_REACTORS
330
1A
102
}
330
1A
100
AcDbPlotSettings
  1

  2

  4

  6

 40
0.0
 41
0.0
 42
0.0
 43
0.0
 44
0.0
 45
0.0
 46
0.0
 47
0.0
 48
0.0
 49
0.0
140
0.0
141
0.0
142
1.0
143
1.0
 70
   688
 72
     0
 73
     0
 74
     5
  7

 75
    16
147
1.0
148
0.0
149
0.0
100
AcDbLayout
  1
Layout1
 70
     1
 71
     1
 10
0.0
 20
0.0
 11
420.0
 21
297.0
 12
0.0
 22
0.0
 32
0.0
 14
1.000000000000000E+20
 24
1.000000000000000E+20
 34
1.000000000000000E+20
 15
-1.000000000000000E+20
 25
-1.000000000000000E+20
 35
-1.000000000000000E+20
146
0.0
 13
0.0
 23
0.0
 33
0.0
 16
1.0
 26
0.0
 36
0.0
 17
0.0
 27
1.0
 37
0.0
 76
     0
330
1B
  0
LAYOUT
  5
26
102
{ACAD_XDICTIONARY
360
11DE
102
}
102
{ACAD_REACTORS
330
1A
102
}
330
1A
100
AcDbPlotSettings
  1

  2

  4

  6

 40
0.0
 41
0.0
 42
0.0
 43
0.0
 44
0.0
 45
0.0
 46
0.0
 47
0.0
 48
0.0
 49
0.0
140
0.0
141
0.0
142
1.0
143
1.0
 70
   688
 72
     0
 73
     0
 74
     5
  7

 75
    16
147
1.0
148
0.0
149
0.0
100
AcDbLayout
  1
Layout2
 70
     1
 71
     2
 10
0.0
 20
0.0
 11
12.0
 21
9.0
 12
0.0
 22
0.0
 32
0.0
 14
0.0
 24
0.0
 34
0.0
 15
0.0
 25
0.0
 35
0.0
146
0.0
 13
0.0
 23
0.0
 33
0.0
 16
1.0
 26
0.0
 36
0.0
 17
0.0
 27
1.0
 37
0.0
 76
     0
330
23
  0
LAYOUT
  5
22
102
{ACAD_XDICTIONARY
360
11DC
102
}
102
{ACAD_REACTORS
330
1A
102
}
330
1A
100
AcDbPlotSettings
  1

  2
HP PSC 2350 series
  4
A4
  6

 40
3.96875
 41
3.757076978683471
 42
3.96875
 43
3.17498779296875
 44
209.9733276367187
 45
296.9683227539062
 46
0.0
 47
0.0
 48
0.0
 49
0.0
140
0.0
141
0.0
142
1.0
143
7.371552141736838
 70
 11952
 72
     1
 73
     1
 74
     0
  7

 75
     0
147
0.1356566406602648
148
1303.304710081875
149
82.88893316604106
100
AcDbLayout
  1
Model
 70
     1
 71
     0
 10
0.0
 20
0.0
 11
12.0
 21
9.0
 12
0.0
 22
0.0
 32
0.0
 14
0.0
 24
0.0
 34
0.0
 15
0.0
 25
0.0
 35
0.0
146
0.0
 13
0.0
 23
0.0
 33
0.0
 16
1.0
 26
0.0
 36
0.0
 17
0.0
 27
1.0
 37
0.0
 76
     0
330
1F
1001
ACAD_PSEXT
1000
HP PSC 2350 series
1000
HP PSC 2350 series
1000
USB001
1000

1070
     0
  0
MLINESTYLE
  5
18
102
{ACAD_REACTORS
330
17
102
}
330
17
100
AcDbMlineStyle
  2
STANDARD
 70
     0
  3

 62
   256
 51
90.0
 52
90.0
 71
     2
 49
0.5
 62
   256
  6
BYLAYER
 49
-0.5
 62
   256
  6
BYLAYER
  0
ACDBPLACEHOLDER
  5
F
102
{ACAD_REACTORS
330
E
102
}
330
E
  0
TABLESTYLE
  5
11B
102
{ACAD_REACTORS
330
11A
102
}
330
11A
100
AcDbTableStyle
  3
Standard
 70
     0
 71
     0
 40
1.5
 41
1.5
280
     0
281
     0
  7
STANDARD
140
4.5
170
     2
 62
     0
 63
     7
283
     0
274
    -2
284
     1
 64
     0
275
    -2
285
     1
 65
     0
276
    -2
286
     1
 66
     0
277
    -2
287
     1
 67
     0
278
    -2
288
     1
 68
     0
279
    -2
289
     1
 69
     0
  7
STANDARD
140
6.0
170
     5
 62
     0
 63
     7
283
     0
274
    -2
284
     1
 64
     0
275
    -2
285
     1
 65
     0
276
    -2
286
     1
 66
     0
277
    -2
287
     1
 67
     0
278
    -2
288
     1
 68
     0
279
    -2
289
     1
 69
     0
  7
STANDARD
140
4.5
170
     5
 62
     0
 63
     7
283
     0
274
    -2
284
     1
 64
     0
275
    -2
285
     1
 65
     0
276
    -2
286
     1
 66
     0
277
    -2
287
     1
 67
     0
278
    -2
288
     1
 68
     0
279
    -2
289
     1
 69
     0
  0
DICTIONARYVAR
  5
138
102
{ACAD_REACTORS
330
94
102
}
330
94
100
DictionaryVariables
280
     0
  1
STANDARD
  0
DICTIONARYVAR
  5
96
102
{ACAD_REACTORS
330
94
102
}
330
94
100
DictionaryVariables
280
     0
  1
2
  0
DICTIONARYVAR
  5
95
102
{ACAD_REACTORS
330
94
102
}
330
94
100
DictionaryVariables
280
     0
  1
0
  0
DICTIONARYVAR
  5
11D6
102
{ACAD_REACTORS
330
94
102
}
330
94
100
DictionaryVariables
280
     0
  1

  0
DICTIONARY
  5
61
102
{ACAD_REACTORS
330
5B
102
}
330
5B
100
AcDbDictionary
281
     1
  0
XRECORD
  5
123
102
{ACAD_REACTORS
330
5B
102
}
330
5B
100
AcDbXrecord
280
     1
 90
-1023410169
  0
DICTIONARY
  5
11DA
330
1E
100
AcDbDictionary
280
     1
281
     1
  3
ACAD_XREC_ROUNDTRIP
360
11DB
  0
DICTIONARY
  5
11DE
330
26
100
AcDbDictionary
280
     1
281
     1
  3
ACAD_XREC_ROUNDTRIP
360
11DF
  0
DICTIONARY
  5
11DC
330
22
100
AcDbDictionary
280
     1
281
     1
  3
ACAD_XREC_ROUNDTRIP
360
11DD
  0
XRECORD
  5
11DB
102
{ACAD_REACTORS
330
11DA
102
}
330
11DA
100
AcDbXrecord
280
     1
102
SHADEPLOT
 70
     0
102
SHADEPLOTRESLEVEL
 70
     2
102
SHADEPLOTCUSTOMDPI
 70
   300
  0
XRECORD
  5
11DF
102
{ACAD_REACTORS
330
11DE
102
}
330
11DE
100
AcDbXrecord
280
     1
102
SHADEPLOT
 70
     0
102
SHADEPLOTRESLEVEL
 70
     2
102
SHADEPLOTCUSTOMDPI
 70
   300
  0
XRECORD
  5
11DD
102
{ACAD_REACTORS
330
11DC
102
}
330
11DC
100
AcDbXrecord
280
     1
102
SHADEPLOT
 70
     0
102
SHADEPLOTRESLEVEL
 70
     2
102
SHADEPLOTCUSTOMDPI
 70
   300
  0
ENDSEC
  0
EOF
