  0
SECTION
  2
HEADER
  9
$ACADVER
  1
AC1009
  9
$EXTMIN
 10
11.17200000
 20
-144.77100000
 30
0.0
  9
$EXTMAX
 10
150.38800000
 20
-0.97715200
 30
0.0
  0
ENDSEC
  0
SECTION
  2
TABLES
  0
TABLE
  2
LAYER
 70
1
 0
LAYER
 2
Livello Standard
 70
0
 62
1
 6
CONTINUOUS
 0
ENDTAB
 0
ENDSEC
  0
SECTION
  2
ENTITIES
  0
POLYLINE
  8
Livello Standard
 66
   1
 39
0.000000
 70
    0
  0
VERTEX
  8
0
 10
126.77477970
 20
-72.68403404
  0
VERTEX
  8
0
 10
127.19282136
 20
-72.77928404
  0
VERTEX
  8
0
 10
126.85415470
 20
-72.94332571
  0
VERTEX
  8
0
 10
127.12402970
 20
-73.02270071
  0
VERTEX
  8
0
 10
126.65836303
 20
-73.25553404
  0
SEQEND
  0
POLYLINE
  8
Livello Standard
 66
   1
 39
0.000000
 70
    0
  0
VERTEX
  8
0
 10
126.54196614
 20
-72.53653815
  0
VERTEX
  8
0
 10
126.78920389
 20
-72.53022916
  0
VERTEX
  8
0
 10
127.03441867
 20
-72.50608295
  0
VERTEX
  8
0
 10
127.19838843
 20
-72.48752295
  0
VERTEX
  8
0
 10
127.36215470
 20
-72.49882571
  0
SEQEND
  0
POLYLINE
  8
Livello Standard
 66
   1
 39
0.000000
 70
    0
  0
VERTEX
  8
0
 10
127.07099913
 20
-72.38253539
  0
VERTEX
  8
0
 10
126.99706503
 20
-72.34670174
  0
VERTEX
  8
0
 10
126.96054949
 20
-72.32911042
  0
VERTEX
  8
0
 10
126.93237552
 20
-72.29836663
  0
VERTEX
  8
0
 10
126.92975151
 20
-72.17929124
  0
VERTEX
  8
0
 10
126.97385076
 20
-72.06708342
  0
VERTEX
  8
0
 10
127.03922560
 20
-71.97660404
  0
VERTEX
  8
0
 10
127.08138312
 20
-71.94028295
  0
VERTEX
  8
0
 10
127.13481783
 20
-71.91763198
  0
VERTEX
  8
0
 10
127.19736559
 20
-71.91975311
  0
VERTEX
  8
0
 10
127.24859100
 20
-71.94982112
  0
VERTEX
  8
0
 10
127.34377754
 20
-72.04145186
  0
VERTEX
  8
0
 10
127.37196061
 20
-72.08073359
  0
VERTEX
  8
0
 10
127.37640806
 20
-72.12605413
  0
VERTEX
  8
0
 10
127.33561728
 20
-72.21830867
  0
VERTEX
  8
0
 10
127.24878811
 20
-72.30634183
  0
VERTEX
  8
0
 10
127.14533320
 20
-72.36343790
  0
VERTEX
  8
0
 10
127.02990910
 20
-72.39014110
  0
VERTEX
  8
0
 10
126.90717239
 20
-72.38699564
  0
VERTEX
  8
0
 10
126.84447027
 20
-72.36493019
  0
VERTEX
  8
0
 10
126.79518046
 20
-72.32260998
  0
VERTEX
  8
0
 10
126.76185988
 20
-72.26637924
  0
VERTEX
  8
0
 10
126.74706544
 20
-72.20258214
  0
VERTEX
  8
0
 10
126.76336143
 20
-72.07450452
  0
VERTEX
  8
0
 10
126.81182136
 20
-71.95378404
  0
SEQEND
  0
POLYLINE
  8
Livello Standard
 66
   1
 39
0.000000
 70
    0
  0
VERTEX
  8
0
 10
114.94543934
 20
-83.25146828
  0
VERTEX
  8
0
 10
115.36348101
 20
-83.34671828
  0
VERTEX
  8
0
 10
115.02481434
 20
-83.51075995
  0
VERTEX
  8
0
 10
115.29468934
 20
-83.59013495
  0
VERTEX
  8
0
 10
114.82902267
 20
-83.82296828
  0
SEQEND
  0
POLYLINE
  8
Livello Standard
 66
   1
 39
0.000000
 70
    0
  0
VERTEX
  8
0
 10
114.71262578
 20
-83.10397240
  0
VERTEX
  8
0
 10
114.95986353
 20
-83.09766340
  0
VERTEX
  8
0
 10
115.20507831
 20
-83.07351720
  0
VERTEX
  8
0
 10
115.36904807
 20
-83.05495719
  0
VERTEX
  8
0
 10
115.53281434
 20
-83.06625995
  0
SEQEND
  0
POLYLINE
  8
Livello Standard
 66
   1
 39
0.000000
 70
    0
  0
VERTEX
  8
0
 10
115.24165877
 20
-82.94996963
  0
VERTEX
  8
0
 10
115.16772467
 20
-82.91413599
  0
VERTEX
  8
0
 10
115.13120913
 20
-82.89654467
  0
VERTEX
  8
0
 10
115.10303516
 20
-82.86580087
  0
VERTEX
  8
0
 10
115.10041116
 20
-82.74672548
  0
VERTEX
  8
0
 10
115.14451040
 20
-82.63451766
  0
VERTEX
  8
0
 10
115.20988525
 20
-82.54403829
  0
VERTEX
  8
0
 10
115.25204276
 20
-82.50771719
  0
VERTEX
  8
0
 10
115.30547747
 20
-82.48506623
  0
VERTEX
  8
0
 10
115.36802523
 20
-82.48718735
  0
VERTEX
  8
0
 10
115.41925064
 20
-82.51725537
  0
VERTEX
  8
0
 10
115.51443718
 20
-82.60888610
  0
VERTEX
  8
0
 10
115.54262025
 20
-82.64816783
  0
VERTEX
  8
0
 10
115.54706770
 20
-82.69348838
  0
VERTEX
  8
0
 10
115.50627692
 20
-82.78574291
  0
VERTEX
  8
0
 10
115.41944776
 20
-82.87377607
  0
VERTEX
  8
0
 10
115.31599284
 20
-82.93087214
  0
VERTEX
  8
0
 10
115.20056874
 20
-82.95757534
  0
VERTEX
  8
0
 10
115.07783203
 20
-82.95442989
  0
VERTEX
  8
0
 10
115.01512991
 20
-82.93236443
  0
VERTEX
  8
0
 10
114.96584010
 20
-82.89004423
  0
VERTEX
  8
0
 10
114.93251952
 20
-82.83381348
  0
VERTEX
  8
0
 10
114.91772508
 20
-82.77001638
  0
VERTEX
  8
0
 10
114.93402107
 20
-82.64193876
  0
VERTEX
  8
0
 10
114.98248101
 20
-82.52121828
  0
SEQEND
  0
POLYLINE
  8
Livello Standard
 66
   1
 39
0.000000
 70
    0
  0
VERTEX
  8
0
 10
131.74050546
 20
-85.33649713
  0
VERTEX
  8
0
 10
131.75980611
 20
-86.41733339
  0
VERTEX
  8
0
 10
127.02033879
 20
-86.43716380
  0
VERTEX
  8
0
 10
127.02033879
 20
-85.44233046
  0
VERTEX
  8
0
 10
126.74517212
 20
-85.44233046
  0
VERTEX
  8
0
 10
126.74517212
 20
-84.42633046
  0
VERTEX
  8
0
 10
127.02033879
 20
-84.42633046
  0
VERTEX
  8
0
 10
127.02033879
 20
-84.04533046
  0
VERTEX
  8
0
 10
126.66050546
 20
-84.06649713
  0
VERTEX
  8
0
 10
126.66050546
 20
-81.56883046
  0
VERTEX
  8
0
 10
127.18967212
 20
-81.56883046
  0
VERTEX
  8
0
 10
127.18967212
 20
-81.14549713
  0
VERTEX
  8
0
 10
126.76633879
 20
-81.14549713
 42
-0.14082582
  0
VERTEX
  8
0
 10
127.10500546
 20
-78.92299713
  0
VERTEX
  8
0
 10
127.69767212
 20
-78.92299713
  0
VERTEX
  8
0
 10
127.71883879
 20
-78.43616380
  0
VERTEX
  8
0
 10
127.18967212
 20
-78.43616380
 42
-0.05356121
  0
VERTEX
  8
0
 10
127.82467212
 20
-76.84866380
  0
VERTEX
  8
0
 10
128.29033879
 20
-76.84866380
  0
VERTEX
  8
0
 10
128.29033879
 20
-76.44649713
  0
VERTEX
  8
0
 10
131.86750546
 20
-76.44649713
  0
VERTEX
  8
0
 10
131.86750546
 20
-77.20849713
  0
SEQEND
  0
POLYLINE
  8
Livello Standard
 66
   1
 39
0.000000
 70
    0
  0
VERTEX
  8
0
 10
129.44180043
 20
-84.87083046
  0
VERTEX
  8
0
 10
129.39946710
 20
-85.31533046
  0
VERTEX
  8
0
 10
129.10313376
 20
-85.29416380
  0
VERTEX
  8
0
 10
129.10313376
 20
-84.87083046
  0
SEQEND
  0
POLYLINE
  8
Livello Standard
 66
   1
 39
0.000000
 70
    0
  0
VERTEX
  8
0
 10
130.03446710
 20
-84.68033046
  0
VERTEX
  8
0
 10
128.99730043
 20
-84.68033046
  0
SEQEND
  0
POLYLINE
  8
Livello Standard
 66
   1
 39
0.000000
 70
    0
  0
VERTEX
  8
0
 10
129.59001668
 20
-84.02345925
  0
VERTEX
  8
0
 10
129.67219075
 20
-84.04137776
  0
VERTEX
  8
0
 10
129.75007546
 20
-84.08082600
  0
VERTEX
  8
0
 10
129.82042599
 20
-84.13791565
  0
VERTEX
  8
0
 10
129.87999749
 20
-84.20875843
  0
VERTEX
  8
0
 10
129.92554513
 20
-84.28946602
  0
VERTEX
  8
0
 10
129.95382408
 20
-84.37615014
  0
VERTEX
  8
0
 10
129.96158949
 20
-84.46492246
  0
VERTEX
  8
0
 10
129.94559653
 20
-84.55189470
  0
VERTEX
  8
0
 10
129.69914518
 20
-84.54926208
  0
VERTEX
  8
0
 10
129.42245764
 20
-84.52870039
  0
VERTEX
  8
0
 10
129.29422569
 20
-84.49635165
  0
VERTEX
  8
0
 10
129.18417515
 20
-84.44110723
  0
VERTEX
  8
0
 10
129.10088618
 20
-84.35682933
  0
VERTEX
  8
0
 10
129.05293893
 20
-84.23738016
  0
VERTEX
  8
0
 10
129.09750819
 20
-84.17525265
  0
VERTEX
  8
0
 10
129.15388331
 20
-84.12515696
  0
VERTEX
  8
0
 10
129.29133043
 20
-84.05726912
  0
VERTEX
  8
0
 10
129.44383885
 20
-84.02613270
  0
VERTEX
  8
0
 10
129.58996710
 20
-84.02416380
  0
SEQEND
  0
POLYLINE
  8
Livello Standard
 66
   1
 39
0.000000
 70
    0
  0
VERTEX
  8
0
 10
131.76365731
 20
-83.85477889
  0
VERTEX
  8
0
 10
131.74050721
 20
-85.33638495
  0
VERTEX
  8
0
 10
131.74050633
 20
-85.33644104
  0
VERTEX
  8
0
 10
131.84888869
 20
-85.33638495
  0
VERTEX
  8
0
 10
132.37618934
 20
-85.33638495
  0
VERTEX
  8
0
 10
132.35688869
 20
-86.41722121
  0
VERTEX
  8
0
 10
137.09635601
 20
-86.43705162
  0
VERTEX
  8
0
 10
137.09635601
 20
-85.44221828
  0
VERTEX
  8
0
 10
137.37152267
 20
-85.44221828
  0
VERTEX
  8
0
 10
137.37152267
 20
-84.42621828
  0
VERTEX
  8
0
 10
137.09635601
 20
-84.42621828
  0
VERTEX
  8
0
 10
137.09635601
 20
-84.04521828
  0
VERTEX
  8
0
 10
137.45618934
 20
-84.06638495
  0
VERTEX
  8
0
 10
137.45618934
 20
-81.56871828
  0
VERTEX
  8
0
 10
136.92702267
 20
-81.56871828
  0
VERTEX
  8
0
 10
136.92702267
 20
-81.14538495
  0
VERTEX
  8
0
 10
137.35035601
 20
-81.14538495
 42
0.14082582
  0
VERTEX
  8
0
 10
137.01168934
 20
-78.92288495
  0
VERTEX
  8
0
 10
136.41902267
 20
-78.92288495
  0
VERTEX
  8
0
 10
136.39785601
 20
-78.43605162
  0
VERTEX
  8
0
 10
136.92702267
 20
-78.43605162
 42
0.05356121
  0
VERTEX
  8
0
 10
136.29202267
 20
-76.84855162
  0
VERTEX
  8
0
 10
135.82635601
 20
-76.84855162
  0
VERTEX
  8
0
 10
135.82635601
 20
-76.44638495
  0
VERTEX
  8
0
 10
132.24918934
 20
-76.44638495
  0
VERTEX
  8
0
 10
132.24918934
 20
-77.20838495
  0
VERTEX
  8
0
 10
131.85819708
 20
-77.20844104
  0
VERTEX
  8
0
 10
131.84733179
 20
-78.49961179
  0
SEQEND
  0
POLYLINE
  8
Livello Standard
 66
   1
 39
0.000000
 70
    0
  0
VERTEX
  8
0
 10
126.43277749
 20
-103.03010600
  0
VERTEX
  8
0
 10
126.90373582
 20
-103.03010600
  0
VERTEX
  8
0
 10
126.89315249
 20
-104.26306433
  0
VERTEX
  8
0
 10
128.71877749
 20
-104.26835600
  0
VERTEX
  8
0
 10
128.72936082
 20
-103.63335600
  0
VERTEX
  8
0
 10
129.14211082
 20
-103.63335600
  0
VERTEX
  8
0
 10
129.14211082
 20
-104.26835600
  0
VERTEX
  8
0
 10
130.23219415
 20
-104.23660600
 42
0.22817758
  0
VERTEX
  8
0
 10
131.80911082
 20
-100.19377267
  0
VERTEX
  8
0
 10
131.32227749
 20
-100.19377267
  0
VERTEX
  8
0
 10
131.32227749
 20
-99.68577267
  0
VERTEX
  8
0
 10
131.80911082
 20
-99.68577267
 42
0.07637956
  0
VERTEX
  8
0
 10
131.89377749
 20
-97.25160600
  0
VERTEX
  8
0
 10
131.36990249
 20
-97.25160600
  0
VERTEX
  8
0
 10
131.39106915
 20
-96.80710600
  0
VERTEX
  8
0
 10
131.89377749
 20
-96.82298100
 42
0.10639561
  0
VERTEX
  8
0
 10
131.55511082
 20
-94.67985600
  0
VERTEX
  8
0
 10
131.01536082
 20
-94.67985600
  0
VERTEX
  8
0
 10
131.00477749
 20
-94.22477267
  0
VERTEX
  8
0
 10
131.48102749
 20
-94.22477267
 42
0.10347871
  0
VERTEX
  8
0
 10
130.29040249
 20
-92.27743933
  0
VERTEX
  8
0
 10
129.90940249
 20
-92.60023100
  0
VERTEX
  8
0
 10
129.61836082
 20
-92.22981433
  0
VERTEX
  8
0
 10
129.96761082
 20
-91.88056433
 42
0.19808623
  0
VERTEX
  8
0
 10
126.80319415
 20
-90.65818933
  0
VERTEX
  8
0
 10
126.82436082
 20
-91.67418933
  0
VERTEX
  8
0
 10
126.45775641
 20
-91.67420266
  0
VERTEX
  8
0
 10
126.40557931
 20
-103.03011932
  0
VERTEX
  8
0
 10
126.37838114
 20
-103.03013264
  0
VERTEX
  8
0
 10
126.38896447
 20
-104.26309098
  0
VERTEX
  8
0
 10
124.56333947
 20
-104.26838264
  0
VERTEX
  8
0
 10
124.55275614
 20
-103.63338264
  0
VERTEX
  8
0
 10
124.14000614
 20
-103.63338264
  0
VERTEX
  8
0
 10
124.14000614
 20
-104.26838264
  0
VERTEX
  8
0
 10
123.04992280
 20
-104.23663264
 42
-0.22817758
  0
VERTEX
  8
0
 10
121.47300614
 20
-100.19379931
  0
VERTEX
  8
0
 10
121.95983947
 20
-100.19379931
  0
VERTEX
  8
0
 10
121.95983947
 20
-99.68579931
  0
VERTEX
  8
0
 10
121.47300614
 20
-99.68579931
 42
-0.07637956
  0
VERTEX
  8
0
 10
121.38833947
 20
-97.25163264
  0
VERTEX
  8
0
 10
121.91221447
 20
-97.25163264
  0
VERTEX
  8
0
 10
121.89104780
 20
-96.80713264
  0
VERTEX
  8
0
 10
121.38833947
 20
-96.82300764
 42
-0.10639561
  0
VERTEX
  8
0
 10
121.72700614
 20
-94.67988264
  0
VERTEX
  8
0
 10
122.26675614
 20
-94.67988264
  0
VERTEX
  8
0
 10
122.27733947
 20
-94.22479931
  0
VERTEX
  8
0
 10
121.80108947
 20
-94.22479931
 42
-0.10347871
  0
VERTEX
  8
0
 10
122.99171447
 20
-92.27746598
  0
VERTEX
  8
0
 10
123.37271447
 20
-92.60025764
  0
VERTEX
  8
0
 10
123.66375614
 20
-92.22984098
  0
VERTEX
  8
0
 10
123.31450614
 20
-91.88059098
 42
-0.19808623
  0
VERTEX
  8
0
 10
126.47892280
 20
-90.65821598
  0
VERTEX
  8
0
 10
126.45775614
 20
-91.67421598
  0
SEQEND
  0
POLYLINE
  8
Livello Standard
 66
   1
 39
0.000000
 70
    0
  0
VERTEX
  8
0
 10
134.68620355
 20
-106.27185650
  0
VERTEX
  8
0
 10
134.70737021
 20
-105.59452316
 42
0.21463469
  0
VERTEX
  8
0
 10
133.28920355
 20
-105.95435650
  0
VERTEX
  8
0
 10
133.60670355
 20
-106.42002316
  0
VERTEX
  8
0
 10
133.28920355
 20
-106.63168983
  0
VERTEX
  8
0
 10
132.97170355
 20
-106.27185650
 42
0.21521184
  0
VERTEX
  8
0
 10
132.14620355
 20
-107.11852316
  0
VERTEX
  8
0
 10
132.54837021
 20
-107.49952316
  0
VERTEX
  8
0
 10
132.23087021
 20
-107.75352316
  0
VERTEX
  8
0
 10
131.93453688
 20
-107.52068983
 42
0.16572357
  0
VERTEX
  8
0
 10
131.44770355
 20
-109.40452316
  0
VERTEX
  8
0
 10
131.91337021
 20
-109.40452316
  0
VERTEX
  8
0
 10
131.89220355
 20
-109.89135650
  0
VERTEX
  8
0
 10
131.44770355
 20
-109.82785650
 42
0.11559615
  0
VERTEX
  8
0
 10
131.44770355
 20
-111.33068983
  0
VERTEX
  8
0
 10
132.06153688
 20
-111.22485650
  0
VERTEX
  8
0
 10
132.06153688
 20
-111.54235650
  0
VERTEX
  8
0
 10
131.63820355
 20
-111.77518983
 42
0.32130106
  0
VERTEX
  8
0
 10
132.61187021
 20
-112.91818983
  0
VERTEX
  8
0
 10
132.97170355
 20
-112.51602316
  0
VERTEX
  8
0
 10
133.35270355
 20
-112.70652316
  0
VERTEX
  8
0
 10
133.05637021
 20
-113.17218983
 42
0.11360180
  0
VERTEX
  8
0
 10
134.53803688
 20
-113.65902316
  0
VERTEX
  8
0
 10
134.60153688
 20
-112.87585650
  0
SEQEND
  0
POLYLINE
  8
Livello Standard
 66
   1
 39
0.000000
 70
    0
  0
VERTEX
  8
0
 10
136.90320380
 20
-110.89712840
  0
VERTEX
  8
0
 10
137.29478713
 20
-110.89712840
  0
VERTEX
  8
0
 10
137.28420380
 20
-110.73837840
  0
VERTEX
  8
0
 10
137.29478713
 20
-110.89712840
  0
VERTEX
  8
0
 10
137.16429273
 20
-110.89709506
  0
VERTEX
  8
0
 10
137.16778713
 20
-110.74896174
  0
SEQEND
  0
POLYLINE
  8
Livello Standard
 66
   1
 39
0.000000
 70
    0
  0
VERTEX
  8
0
 10
136.89262047
 20
-110.55846174
  0
VERTEX
  8
0
 10
137.35828713
 20
-110.55846174
  0
SEQEND
  0
POLYLINE
  8
Livello Standard
 66
   1
 39
0.000000
 70
    0
  0
VERTEX
  8
0
 10
136.94553713
 20
-110.31504507
  0
VERTEX
  8
0
 10
136.95031660
 20
-110.25415009
  0
VERTEX
  8
0
 10
136.98207313
 20
-110.19981661
  0
VERTEX
  8
0
 10
137.03260332
 20
-110.16605570
  0
VERTEX
  8
0
 10
137.09370380
 20
-110.16687840
  0
VERTEX
  8
0
 10
137.09274452
 20
-110.23720585
  0
VERTEX
  8
0
 10
137.07253713
 20
-110.30446174
  0
VERTEX
  8
0
 10
137.12309516
 20
-110.28147974
  0
VERTEX
  8
0
 10
137.16893368
 20
-110.24902427
  0
VERTEX
  8
0
 10
137.21684477
 20
-110.22312087
  0
VERTEX
  8
0
 10
137.27362047
 20
-110.21979507
  0
VERTEX
  8
0
 10
137.30412364
 20
-110.25927168
  0
VERTEX
  8
0
 10
137.30224912
 20
-110.30532448
  0
VERTEX
  8
0
 10
137.27547694
 20
-110.34300841
  0
VERTEX
  8
0
 10
137.23128713
 20
-110.35737840
  0
SEQEND
  0
POLYLINE
  8
Livello Standard
 66
   1
 39
0.000000
 70
    0
  0
VERTEX
  8
0
 10
121.19184505
 20
-125.99672170
  0
VERTEX
  8
0
 10
121.19184505
 20
-126.35126337
  0
VERTEX
  8
0
 10
121.71572005
 20
-126.34597170
  0
VERTEX
  8
0
 10
121.45378255
 20
-126.34861754
  0
VERTEX
  8
0
 10
121.43526172
 20
-126.08668004
  0
SEQEND
  0
POLYLINE
  8
Livello Standard
 66
   1
 39
0.000000
 70
    0
  0
VERTEX
  8
0
 10
121.19184505
 20
-125.79034670
  0
VERTEX
  8
0
 10
121.20610512
 20
-125.73414009
  0
VERTEX
  8
0
 10
121.21149847
 20
-125.67236993
  0
VERTEX
  8
0
 10
121.22716500
 20
-125.61594516
  0
VERTEX
  8
0
 10
121.27224457
 20
-125.57577469
  0
VERTEX
  8
0
 10
121.33261323
 20
-125.57321294
  0
VERTEX
  8
0
 10
121.37834598
 20
-125.61034926
  0
VERTEX
  8
0
 10
121.44437318
 20
-125.71599808
  0
VERTEX
  8
0
 10
121.44497284
 20
-125.62815951
  0
VERTEX
  8
0
 10
121.45335995
 20
-125.54251870
  0
VERTEX
  8
0
 10
121.48512909
 20
-125.50664456
  0
VERTEX
  8
0
 10
121.53563036
 20
-125.48854254
  0
VERTEX
  8
0
 10
121.59152445
 20
-125.48644746
  0
VERTEX
  8
0
 10
121.63947205
 20
-125.49859413
  0
VERTEX
  8
0
 10
121.67083597
 20
-125.53005869
  0
VERTEX
  8
0
 10
121.69041001
 20
-125.57884568
  0
VERTEX
  8
0
 10
121.72153647
 20
-125.67895311
  0
VERTEX
  8
0
 10
121.74963794
 20
-125.78542062
  0
VERTEX
  8
0
 10
121.74643966
 20
-125.84235179
  0
VERTEX
  8
0
 10
121.72700891
 20
-125.89136576
  0
SEQEND
  0
POLYLINE
  8
Livello Standard
 66
   1
 39
0.000000
 70
    0
  0
VERTEX
  8
0
 10
121.74217838
 20
-125.36701337
  0
VERTEX
  8
0
 10
121.62171955
 20
-125.30515288
  0
VERTEX
  8
0
 10
121.51193031
 20
-125.22499417
  0
VERTEX
  8
0
 10
121.31430847
 20
-125.03818393
  0
VERTEX
  8
0
 10
121.34530338
 20
-125.01776337
  0
VERTEX
  8
0
 10
121.34540338
 20
-125.01766337
  0
VERTEX
  8
0
 10
121.44489703
 20
-124.99320642
  0
VERTEX
  8
0
 10
121.49451671
 20
-124.98211806
  0
VERTEX
  8
0
 10
121.54089568
 20
-124.95927972
  0
VERTEX
  8
0
 10
121.58728478
 20
-124.93755965
  0
VERTEX
  8
0
 10
121.63700115
 20
-124.92925406
  0
VERTEX
  8
0
 10
121.73698685
 20
-124.91218388
  0
VERTEX
  8
0
 10
121.73698672
 20
-124.91183004
  0
SEQEND
  0
POLYLINE
  8
Livello Standard
 66
   1
 39
0.000000
 70
    0
  0
VERTEX
  8
0
 10
121.49876172
 20
-124.82726337
  0
VERTEX
  8
0
 10
121.52479079
 20
-124.88790467
  0
VERTEX
  8
0
 10
121.53236141
 20
-124.95298914
  0
VERTEX
  8
0
 10
121.52925790
 20
-125.08658662
  0
VERTEX
  8
0
 10
121.53124864
 20
-125.22182110
  0
VERTEX
  8
0
 10
121.52011130
 20
-125.35646167
  0
SEQEND
  0
POLYLINE
  8
Livello Standard
 66
   1
 39
0.000000
 70
    0
  0
VERTEX
  8
0
 10
135.07717838
 20
-133.95538837
  0
VERTEX
  8
0
 10
135.07717838
 20
-134.30993004
  0
VERTEX
  8
0
 10
135.60105338
 20
-134.30463837
  0
VERTEX
  8
0
 10
135.33911588
 20
-134.30728420
  0
VERTEX
  8
0
 10
135.32059505
 20
-134.04534670
  0
SEQEND
  0
POLYLINE
  8
Livello Standard
 66
   1
 39
0.000000
 70
    0
  0
VERTEX
  8
0
 10
135.07717838
 20
-133.74901337
  0
VERTEX
  8
0
 10
135.09143845
 20
-133.69280675
  0
VERTEX
  8
0
 10
135.09683181
 20
-133.63103660
  0
VERTEX
  8
0
 10
135.11249833
 20
-133.57461183
  0
VERTEX
  8
0
 10
135.15757790
 20
-133.53444136
  0
VERTEX
  8
0
 10
135.21794656
 20
-133.53187960
  0
VERTEX
  8
0
 10
135.26367932
 20
-133.56901592
  0
VERTEX
  8
0
 10
135.32970651
 20
-133.67466474
  0
VERTEX
  8
0
 10
135.33030617
 20
-133.58682617
  0
VERTEX
  8
0
 10
135.33869329
 20
-133.50118537
  0
VERTEX
  8
0
 10
135.37046243
 20
-133.46531122
  0
VERTEX
  8
0
 10
135.42096370
 20
-133.44720920
  0
VERTEX
  8
0
 10
135.47685779
 20
-133.44511413
  0
VERTEX
  8
0
 10
135.52480538
 20
-133.45726080
  0
VERTEX
  8
0
 10
135.55616931
 20
-133.48872536
  0
VERTEX
  8
0
 10
135.57574335
 20
-133.53751235
  0
VERTEX
  8
0
 10
135.60686981
 20
-133.63761978
  0
VERTEX
  8
0
 10
135.63497127
 20
-133.74408728
  0
VERTEX
  8
0
 10
135.63177300
 20
-133.80101845
  0
VERTEX
  8
0
 10
135.61234224
 20
-133.85003243
  0
SEQEND
  0
POLYLINE
  8
Livello Standard
 66
   1
 39
0.000000
 70
    0
  0
VERTEX
  8
0
 10
135.62751172
 20
-133.32568004
  0
VERTEX
  8
0
 10
135.50705288
 20
-133.26381955
  0
VERTEX
  8
0
 10
135.39726365
 20
-133.18366083
  0
VERTEX
  8
0
 10
135.19964180
 20
-132.99685059
  0
VERTEX
  8
0
 10
135.23063672
 20
-132.97643004
  0
VERTEX
  8
0
 10
135.23073672
 20
-132.97633004
  0
VERTEX
  8
0
 10
135.33023036
 20
-132.95187309
  0
VERTEX
  8
0
 10
135.37985004
 20
-132.94078473
  0
VERTEX
  8
0
 10
135.42622901
 20
-132.91794639
  0
VERTEX
  8
0
 10
135.47261811
 20
-132.89622632
  0
VERTEX
  8
0
 10
135.52233449
 20
-132.88792073
  0
VERTEX
  8
0
 10
135.62232018
 20
-132.87085054
  0
VERTEX
  8
0
 10
135.62232005
 20
-132.87049670
  0
SEQEND
  0
POLYLINE
  8
Livello Standard
 66
   1
 39
0.000000
 70
    0
  0
VERTEX
  8
0
 10
135.38409505
 20
-132.78593004
  0
VERTEX
  8
0
 10
135.41012412
 20
-132.84657133
  0
VERTEX
  8
0
 10
135.41769474
 20
-132.91165581
  0
VERTEX
  8
0
 10
135.41459123
 20
-133.04525329
  0
VERTEX
  8
0
 10
135.41658197
 20
-133.18048777
  0
VERTEX
  8
0
 10
135.40544463
 20
-133.31512834
  0
SEQEND
  0
POLYLINE
  8
Livello Standard
 66
   1
 39
0.000000
 70
    0
  0
VERTEX
  8
0
 10
116.67149396
 20
-14.24795088
  0
VERTEX
  8
0
 10
116.07882729
 20
-14.24795088
  0
VERTEX
  8
0
 10
116.08941063
 20
-13.85636755
  0
VERTEX
  8
0
 10
116.34341063
 20
-13.86695088
  0
VERTEX
  8
0
 10
116.31166063
 20
-14.24795088
  0
VERTEX
  8
0
 10
116.55507729
 20
-13.89870088
  0
SEQEND
  0
POLYLINE
  8
Livello Standard
 66
   1
 39
0.000000
 70
    0
  0
VERTEX
  8
0
 10
116.60799396
 20
-13.39070088
  0
VERTEX
  8
0
 10
115.92007729
 20
-13.39070088
  0
VERTEX
  8
0
 10
116.37516063
 20
-13.73995088
  0
VERTEX
  8
0
 10
116.39632729
 20
-13.18961755
  0
SEQEND
  0
POLYLINE
  8
Livello Standard
 66
   1
 39
0.000000
 70
    0
  0
VERTEX
  8
0
 10
112.61896801
 20
-14.17864169
  0
VERTEX
  8
0
 10
112.33162378
 20
-14.17923761
  0
VERTEX
  8
0
 10
112.18963476
 20
-14.16714079
  0
VERTEX
  8
0
 10
112.05280672
 20
-14.12562314
  0
VERTEX
  8
0
 10
112.05275968
 20
-14.12572503
  0
VERTEX
  8
0
 10
112.07921801
 20
-13.79235003
  0
VERTEX
  8
0
 10
112.38613468
 20
-13.81351669
  0
VERTEX
  8
0
 10
112.34909301
 20
-14.17864169
  0
VERTEX
  8
0
 10
112.36496801
 20
-14.14689169
  0
VERTEX
  8
0
 10
112.57663468
 20
-13.85585003
  0
SEQEND
  0
POLYLINE
  8
Livello Standard
 66
   1
 39
0.000000
 70
    0
  0
VERTEX
  8
0
 10
112.06863468
 20
-13.63889169
  0
VERTEX
  8
0
 10
112.06655467
 20
-13.47061627
  0
VERTEX
  8
0
 10
112.06868265
 20
-13.38739154
  0
VERTEX
  8
0
 10
112.09267600
 20
-13.30697729
  0
VERTEX
  8
0
 10
112.12387623
 20
-13.27282759
  0
VERTEX
  8
0
 10
112.16675511
 20
-13.26016532
  0
VERTEX
  8
0
 10
112.27498279
 20
-13.26379137
  0
VERTEX
  8
0
 10
112.31725708
 20
-13.28406012
  0
VERTEX
  8
0
 10
112.31961883
 20
-13.32751351
  0
VERTEX
  8
0
 10
112.29652340
 20
-13.37701727
  0
VERTEX
  8
0
 10
112.26242618
 20
-13.41543714
  0
VERTEX
  8
0
 10
112.32563797
 20
-13.26784410
  0
VERTEX
  8
0
 10
112.35733604
 20
-13.23301713
  0
VERTEX
  8
0
 10
112.41044026
 20
-13.22352456
  0
VERTEX
  8
0
 10
112.46172778
 20
-13.23763042
  0
VERTEX
  8
0
 10
112.48797575
 20
-13.27359874
  0
VERTEX
  8
0
 10
112.51164409
 20
-13.34120159
  0
VERTEX
  8
0
 10
112.54631564
 20
-13.41137138
  0
VERTEX
  8
0
 10
112.56241273
 20
-13.47796484
  0
VERTEX
  8
0
 10
112.55425283
 20
-13.50800067
  0
VERTEX
  8
0
 10
112.53035770
 20
-13.53483869
  0
SEQEND
  0
POLYLINE
  8
Livello Standard
 66
   1
 39
0.000000
 70
    0
  0
VERTEX
  8
0
 10
114.45263972
 20
-35.61753189
  0
VERTEX
  8
0
 10
113.91288972
 20
-35.61753189
  0
VERTEX
  8
0
 10
113.92347305
 20
-35.18361523
  0
VERTEX
  8
0
 10
114.20922305
 20
-35.18361523
  0
VERTEX
  8
0
 10
114.18276472
 20
-35.61753189
  0
VERTEX
  8
0
 10
114.45263972
 20
-35.15186523
  0
SEQEND
  0
POLYLINE
  8
Livello Standard
 66
   1
 39
0.000000
 70
    0
  0
VERTEX
  8
0
 10
113.83880638
 20
-34.92961523
  0
VERTEX
  8
0
 10
114.48438972
 20
-34.92961523
  0
SEQEND
  0
POLYLINE
  8
Livello Standard
 66
   1
 39
0.000000
 70
    0
  0
VERTEX
  8
0
 10
81.89761948
 20
-20.21983384
  0
VERTEX
  8
0
 10
82.27861948
 20
-20.07166717
  0
VERTEX
  8
0
 10
82.04578615
 20
-19.90233384
  0
VERTEX
  8
0
 10
82.32095281
 20
-19.71183384
  0
VERTEX
  8
0
 10
81.89761948
 20
-19.64833384
  0
SEQEND
  0
POLYLINE
  8
Livello Standard
 66
   1
 39
0.000000
 70
    0
  0
VERTEX
  8
0
 10
81.77061948
 20
-19.43666717
  0
VERTEX
  8
0
 10
81.80081308
 20
-19.20298949
  0
VERTEX
  8
0
 10
81.82942347
 20
-19.09078726
  0
VERTEX
  8
0
 10
81.89761948
 20
-18.99216717
  0
VERTEX
  8
0
 10
81.95701487
 20
-19.04458979
  0
VERTEX
  8
0
 10
81.99987304
 20
-19.11119279
  0
VERTEX
  8
0
 10
82.02335443
 20
-19.18707465
  0
VERTEX
  8
0
 10
82.02461948
 20
-19.26733384
  0
VERTEX
  8
0
 10
82.06284950
 20
-19.23084841
  0
VERTEX
  8
0
 10
82.09183481
 20
-19.18056611
  0
VERTEX
  8
0
 10
82.13988165
 20
-19.06739869
  0
VERTEX
  8
0
 10
82.16784837
 20
-19.01890747
  0
VERTEX
  8
0
 10
82.20438075
 20
-18.98540718
  0
VERTEX
  8
0
 10
82.25393136
 20
-18.97409476
  0
VERTEX
  8
0
 10
82.32095281
 20
-18.99216717
  0
VERTEX
  8
0
 10
82.32095281
 20
-19.26733384
  0
SEQEND
  0
POLYLINE
  8
Livello Standard
 66
   1
 39
0.000000
 70
    0
  0
VERTEX
  8
0
 10
85.30082755
 20
-21.06701230
  0
VERTEX
  8
0
 10
85.68182755
 20
-20.91884563
  0
VERTEX
  8
0
 10
85.44899422
 20
-20.74951230
  0
VERTEX
  8
0
 10
85.72416089
 20
-20.55901230
  0
VERTEX
  8
0
 10
85.30082755
 20
-20.49551230
  0
SEQEND
  0
POLYLINE
  8
Livello Standard
 66
   1
 39
0.000000
 70
    0
  0
VERTEX
  8
0
 10
85.17382755
 20
-20.28384563
  0
VERTEX
  8
0
 10
85.20402116
 20
-20.05016795
  0
VERTEX
  8
0
 10
85.23263154
 20
-19.93796572
  0
VERTEX
  8
0
 10
85.30082755
 20
-19.83934563
  0
VERTEX
  8
0
 10
85.36022294
 20
-19.89176824
  0
VERTEX
  8
0
 10
85.40308111
 20
-19.95837125
  0
VERTEX
  8
0
 10
85.42656250
 20
-20.03425311
  0
VERTEX
  8
0
 10
85.42782755
 20
-20.11451230
  0
VERTEX
  8
0
 10
85.46605757
 20
-20.07802687
  0
VERTEX
  8
0
 10
85.49504288
 20
-20.02774457
  0
VERTEX
  8
0
 10
85.54308973
 20
-19.91457715
  0
VERTEX
  8
0
 10
85.57105645
 20
-19.86608593
  0
VERTEX
  8
0
 10
85.60758882
 20
-19.83258564
  0
VERTEX
  8
0
 10
85.65713944
 20
-19.82127322
  0
VERTEX
  8
0
 10
85.72416089
 20
-19.83934563
  0
VERTEX
  8
0
 10
85.72416089
 20
-20.11451230
  0
SEQEND
  0
POLYLINE
  8
Livello Standard
 66
   1
 39
0.000000
 70
    0
  0
VERTEX
  8
0
 10
88.61341089
 20
-19.19905396
  0
VERTEX
  8
0
 10
89.15316089
 20
-18.91330396
  0
VERTEX
  8
0
 10
88.78274422
 20
-18.83922063
  0
VERTEX
  8
0
 10
89.23782755
 20
-18.66988730
  0
VERTEX
  8
0
 10
88.61341089
 20
-18.57463730
  0
SEQEND
  0
POLYLINE
  8
Livello Standard
 66
   1
 39
0.000000
 70
    0
  0
VERTEX
  8
0
 10
89.07907755
 20
-17.98197063
  0
VERTEX
  8
0
 10
89.07907755
 20
-18.48997063
  0
VERTEX
  8
0
 10
88.60282755
 20
-18.11955396
  0
VERTEX
  8
0
 10
89.33307755
 20
-18.11955396
  0
SEQEND
  0
POLYLINE
  8
Livello Standard
 66
   1
 39
0.000000
 70
    0
  0
VERTEX
  8
0
 10
77.23632755
 20
-19.94517896
  0
VERTEX
  8
0
 10
77.77607755
 20
-19.65942896
  0
VERTEX
  8
0
 10
77.40566089
 20
-19.58534563
  0
VERTEX
  8
0
 10
77.86074422
 20
-19.41601230
  0
VERTEX
  8
0
 10
77.23632755
 20
-19.32076230
  0
SEQEND
  0
POLYLINE
  8
Livello Standard
 66
   1
 39
0.000000
 70
    0
  0
VERTEX
  8
0
 10
77.70199422
 20
-18.72809563
  0
VERTEX
  8
0
 10
77.70199422
 20
-19.23609563
  0
VERTEX
  8
0
 10
77.22574422
 20
-18.86567896
  0
VERTEX
  8
0
 10
77.95599422
 20
-18.86567896
  0
SEQEND
  0
POLYLINE
  8
Livello Standard
 66
   1
 39
0.000000
 70
    0
  0
VERTEX
  8
0
 10
100.81095111
 20
-19.70936310
  0
VERTEX
  8
0
 10
102.92761778
 20
-19.70936310
  0
VERTEX
  8
0
 10
102.64186778
 20
-22.40811310
  0
VERTEX
  8
0
 10
101.81636778
 20
-22.41869643
  0
VERTEX
  8
0
 10
100.74745111
 20
-19.70936310
  0
VERTEX
  8
0
 10
100.94853445
 20
-19.70936310
  0
SEQEND
  0
POLYLINE
  8
Livello Standard
 66
   1
 39
0.000000
 70
    0
  0
VERTEX
  8
0
 10
101.83753445
 20
-21.00052977
  0
VERTEX
  8
0
 10
101.83753445
 20
-21.28627977
  0
VERTEX
  8
0
 10
102.05978445
 20
-21.28627977
  0
VERTEX
  8
0
 10
102.08095111
 20
-21.00052977
  0
VERTEX
  8
0
 10
102.05978445
 20
-21.28627977
  0
VERTEX
  8
0
 10
102.41961778
 20
-21.28627977
  0
SEQEND
  0
POLYLINE
  8
Livello Standard
 66
   1
 39
0.000000
 70
    0
  0
VERTEX
  8
0
 10
101.79520111
 20
-20.51369643
  0
VERTEX
  8
0
 10
101.79866794
 20
-20.60320714
  0
VERTEX
  8
0
 10
101.79528108
 20
-20.70081119
  0
VERTEX
  8
0
 10
101.81026129
 20
-20.78984986
  0
VERTEX
  8
0
 10
101.83252056
 20
-20.82595132
  0
VERTEX
  8
0
 10
101.86882938
 20
-20.85366441
  0
VERTEX
  8
0
 10
101.91294933
 20
-20.85634308
  0
VERTEX
  8
0
 10
101.95140505
 20
-20.83631762
  0
VERTEX
  8
0
 10
102.00281052
 20
-20.75383666
  0
VERTEX
  8
0
 10
102.00601931
 20
-20.65758623
  0
VERTEX
  8
0
 10
101.98422918
 20
-20.62034892
  0
VERTEX
  8
0
 10
101.94400495
 20
-20.59893101
  0
VERTEX
  8
0
 10
101.92244738
 20
-20.64419469
  0
VERTEX
  8
0
 10
101.92686094
 20
-20.69249032
  0
VERTEX
  8
0
 10
101.95293616
 20
-20.73367780
  0
VERTEX
  8
0
 10
101.99636356
 20
-20.75761700
  0
VERTEX
  8
0
 10
102.05753938
 20
-20.72171479
  0
VERTEX
  8
0
 10
102.07671461
 20
-20.68726333
  0
VERTEX
  8
0
 10
102.06652743
 20
-20.64649927
  0
VERTEX
  8
0
 10
102.03912004
 20
-20.57966569
  0
VERTEX
  8
0
 10
102.04580041
 20
-20.51610763
  0
VERTEX
  8
0
 10
102.07741859
 20
-20.46023464
  0
VERTEX
  8
0
 10
102.12482463
 20
-20.41645627
  0
VERTEX
  8
0
 10
102.17886858
 20
-20.38918205
  0
VERTEX
  8
0
 10
102.23040048
 20
-20.38282154
  0
VERTEX
  8
0
 10
102.27027040
 20
-20.40178427
  0
VERTEX
  8
0
 10
102.28932838
 20
-20.45047979
  0
VERTEX
  8
0
 10
102.30622125
 20
-20.59377338
  0
VERTEX
  8
0
 10
102.31205667
 20
-20.73911697
  0
VERTEX
  8
0
 10
102.30021793
 20
-20.80003061
  0
VERTEX
  8
0
 10
102.27288294
 20
-20.84642444
  0
VERTEX
  8
0
 10
102.22580773
 20
-20.87328770
  0
VERTEX
  8
0
 10
102.15474835
 20
-20.87560963
  0
SEQEND
  0
POLYLINE
  8
Livello Standard
 66
   1
 39
0.000000
 70
    0
  0
VERTEX
  8
0
 10
103.50070632
 20
-11.96245730
 42
0.36869687
  0
VERTEX
  8
0
 10
101.99787299
 20
-13.44412396
  0
VERTEX
  8
0
 10
101.99787299
 20
-15.09512396
 42
0.28395960
  0
VERTEX
  8
0
 10
103.45837299
 20
-16.56620730
 42
-0.26050932
  0
VERTEX
  8
0
 10
103.54303966
 20
-12.01537396
  0
SEQEND
  0
POLYLINE
  8
Livello Standard
 66
   1
 39
0.000000
 70
    0
  0
VERTEX
  8
0
 10
95.19634260
 20
-24.31929459
  0
VERTEX
  8
0
 10
95.18118785
 20
-24.27114115
  0
VERTEX
  8
0
 10
95.20922771
 20
-24.24045387
  0
VERTEX
  8
0
 10
95.25204252
 20
-24.21480714
  0
VERTEX
  8
0
 10
95.28121260
 20
-24.18177531
  0
VERTEX
  8
0
 10
95.30563742
 20
-24.08031273
  0
VERTEX
  8
0
 10
95.30747290
 20
-24.02837790
  0
VERTEX
  8
0
 10
95.29496591
 20
-23.98481474
  0
VERTEX
  8
0
 10
95.23457045
 20
-23.91051507
  0
VERTEX
  8
0
 10
95.19208956
 20
-23.88619247
  0
VERTEX
  8
0
 10
95.14302879
 20
-23.88359222
  0
VERTEX
  8
0
 10
95.09336235
 20
-23.90459003
  0
VERTEX
  8
0
 10
95.06019496
 20
-23.94017282
  0
VERTEX
  8
0
 10
95.04476640
 20
-23.98759138
  0
VERTEX
  8
0
 10
95.04831646
 20
-24.04409648
  0
VERTEX
  8
0
 10
95.05110466
 20
-24.12161861
  0
VERTEX
  8
0
 10
95.02426807
 20
-24.18323264
  0
VERTEX
  8
0
 10
94.97098965
 20
-24.22275655
  0
VERTEX
  8
0
 10
94.89445237
 20
-24.23400826
  0
VERTEX
  8
0
 10
94.85064411
 20
-24.22333878
  0
VERTEX
  8
0
 10
94.81931178
 20
-24.19933750
  0
VERTEX
  8
0
 10
94.79060667
 20
-24.12509161
  0
VERTEX
  8
0
 10
94.80140057
 20
-24.03877475
  0
VERTEX
  8
0
 10
94.84475702
 20
-23.96789111
  0
VERTEX
  8
0
 10
94.88463252
 20
-23.91070183
  0
VERTEX
  8
0
 10
94.90104960
 20
-23.84172372
  0
VERTEX
  8
0
 10
94.88987784
 20
-23.77290172
  0
VERTEX
  8
0
 10
94.84698685
 20
-23.71618078
  0
VERTEX
  8
0
 10
94.80288926
 20
-23.66922057
  0
VERTEX
  8
0
 10
94.77974194
 20
-23.61356689
  0
VERTEX
  8
0
 10
94.78156107
 20
-23.55305207
  0
VERTEX
  8
0
 10
94.81236284
 20
-23.49150847
  0
VERTEX
  8
0
 10
94.83984070
 20
-23.46596511
  0
VERTEX
  8
0
 10
94.86813351
 20
-23.45727682
  0
VERTEX
  8
0
 10
94.92438314
 20
-23.47833392
  0
VERTEX
  8
0
 10
94.97555001
 20
-23.53041676
  0
VERTEX
  8
0
 10
95.01607239
 20
-23.58926235
  0
VERTEX
  8
0
 10
95.06571413
 20
-23.65016074
  0
VERTEX
  8
0
 10
95.13084949
 20
-23.69871395
  0
VERTEX
  8
0
 10
95.20643743
 20
-23.72958040
  0
VERTEX
  8
0
 10
95.28743693
 20
-23.73741850
  0
VERTEX
  8
0
 10
95.30665297
 20
-23.64194199
  0
VERTEX
  8
0
 10
95.33899775
 20
-23.54661404
  0
VERTEX
  8
0
 10
95.34317148
 20
-23.48711799
  0
VERTEX
  8
0
 10
95.31935760
 20
-23.43263841
  0
VERTEX
  8
0
 10
95.29793987
 20
-23.37721904
  0
VERTEX
  8
0
 10
95.30930207
 20
-23.31490362
  0
SEQEND
  0
POLYLINE
  8
Livello Standard
 66
   1
 39
0.000000
 70
    0
  0
VERTEX
  8
0
 10
97.17680715
 20
-17.61973571
  0
VERTEX
  8
0
 10
97.13906904
 20
-17.50424198
  0
VERTEX
  8
0
 10
97.12440012
 20
-17.38247351
  0
VERTEX
  8
0
 10
97.09360126
 20
-17.26820836
  0
VERTEX
  8
0
 10
97.05990339
 20
-17.21819516
  0
VERTEX
  8
0
 10
97.00747338
 20
-17.17522456
  0
VERTEX
  8
0
 10
96.92936530
 20
-17.19897884
  0
VERTEX
  8
0
 10
96.89077926
 20
-17.25408889
  0
VERTEX
  8
0
 10
96.87781488
 20
-17.32829438
  0
VERTEX
  8
0
 10
96.87657179
 20
-17.40933500
  0
VERTEX
  8
0
 10
96.87314962
 20
-17.48495042
  0
VERTEX
  8
0
 10
96.85364800
 20
-17.54288029
  0
VERTEX
  8
0
 10
96.80416655
 20
-17.57086431
  0
VERTEX
  8
0
 10
96.71080491
 20
-17.55664214
  0
VERTEX
  8
0
 10
96.66030395
 20
-17.50054148
  0
VERTEX
  8
0
 10
96.62745334
 20
-17.43224957
  0
VERTEX
  8
0
 10
96.61519574
 20
-17.35726067
  0
VERTEX
  8
0
 10
96.62647381
 20
-17.28106905
  0
SEQEND
  0
POLYLINE
  8
Livello Standard
 66
   1
 39
0.000000
 70
    0
  0
VERTEX
  8
0
 10
96.66880715
 20
-16.92123571
  0
VERTEX
  8
0
 10
97.36730715
 20
-16.92123571
  0
SEQEND
  0
POLYLINE
  8
Livello Standard
 66
   1
 39
0.000000
 70
    0
  0
VERTEX
  8
0
 10
97.38723236
 20
-25.76499570
  0
VERTEX
  8
0
 10
97.37207760
 20
-25.71684226
  0
VERTEX
  8
0
 10
97.40011747
 20
-25.68615499
  0
VERTEX
  8
0
 10
97.44293228
 20
-25.66050825
  0
VERTEX
  8
0
 10
97.47210236
 20
-25.62747643
  0
VERTEX
  8
0
 10
97.49652717
 20
-25.52601384
  0
VERTEX
  8
0
 10
97.49836266
 20
-25.47407902
  0
VERTEX
  8
0
 10
97.48585567
 20
-25.43051585
  0
VERTEX
  8
0
 10
97.42546020
 20
-25.35621619
  0
VERTEX
  8
0
 10
97.38297931
 20
-25.33189359
  0
VERTEX
  8
0
 10
97.33391854
 20
-25.32929333
  0
VERTEX
  8
0
 10
97.28425211
 20
-25.35029115
  0
VERTEX
  8
0
 10
97.25108472
 20
-25.38587394
  0
VERTEX
  8
0
 10
97.23565616
 20
-25.43329249
  0
VERTEX
  8
0
 10
97.23920622
 20
-25.48979760
  0
VERTEX
  8
0
 10
97.24199442
 20
-25.56731972
  0
VERTEX
  8
0
 10
97.21515782
 20
-25.62893376
  0
VERTEX
  8
0
 10
97.16187940
 20
-25.66845766
  0
VERTEX
  8
0
 10
97.08534213
 20
-25.67970938
  0
VERTEX
  8
0
 10
97.04153387
 20
-25.66903990
  0
VERTEX
  8
0
 10
97.01020154
 20
-25.64503861
  0
VERTEX
  8
0
 10
96.98149643
 20
-25.57079272
  0
VERTEX
  8
0
 10
96.99229033
 20
-25.48447587
  0
VERTEX
  8
0
 10
97.03564677
 20
-25.41359222
  0
VERTEX
  8
0
 10
97.07552227
 20
-25.35640294
  0
VERTEX
  8
0
 10
97.09193935
 20
-25.28742483
  0
VERTEX
  8
0
 10
97.08076760
 20
-25.21860283
  0
VERTEX
  8
0
 10
97.03787660
 20
-25.16188190
  0
VERTEX
  8
0
 10
96.99377901
 20
-25.11492168
  0
VERTEX
  8
0
 10
96.97063169
 20
-25.05926800
  0
VERTEX
  8
0
 10
96.97245083
 20
-24.99875319
  0
VERTEX
  8
0
 10
97.00325260
 20
-24.93720958
  0
VERTEX
  8
0
 10
97.03073045
 20
-24.91166623
  0
VERTEX
  8
0
 10
97.05902326
 20
-24.90297794
  0
VERTEX
  8
0
 10
97.11527290
 20
-24.92403503
  0
VERTEX
  8
0
 10
97.16643977
 20
-24.97611788
  0
VERTEX
  8
0
 10
97.20696215
 20
-25.03496346
  0
VERTEX
  8
0
 10
97.25660389
 20
-25.09586185
  0
VERTEX
  8
0
 10
97.32173924
 20
-25.14441506
  0
VERTEX
  8
0
 10
97.39732718
 20
-25.17528152
  0
VERTEX
  8
0
 10
97.47832668
 20
-25.18311962
  0
VERTEX
  8
0
 10
97.49754273
 20
-25.08764311
  0
VERTEX
  8
0
 10
97.52988751
 20
-24.99231515
  0
VERTEX
  8
0
 10
97.53406124
 20
-24.93281911
  0
VERTEX
  8
0
 10
97.51024735
 20
-24.87833952
  0
VERTEX
  8
0
 10
97.48882963
 20
-24.82292015
  0
VERTEX
  8
0
 10
97.50019183
 20
-24.76060473
  0
SEQEND
  0
POLYLINE
  8
Livello Standard
 66
   1
 39
0.000000
 70
    0
  0
VERTEX
  8
0
 10
95.52290766
 20
-17.51358487
  0
VERTEX
  8
0
 10
95.48516956
 20
-17.39809113
  0
VERTEX
  8
0
 10
95.47050063
 20
-17.27632267
  0
VERTEX
  8
0
 10
95.43970178
 20
-17.16205751
  0
VERTEX
  8
0
 10
95.40600391
 20
-17.11204432
  0
VERTEX
  8
0
 10
95.35357390
 20
-17.06907371
  0
VERTEX
  8
0
 10
95.27546582
 20
-17.09282799
  0
VERTEX
  8
0
 10
95.23687977
 20
-17.14793804
  0
VERTEX
  8
0
 10
95.22391539
 20
-17.22214354
  0
VERTEX
  8
0
 10
95.22267230
 20
-17.30318416
  0
VERTEX
  8
0
 10
95.21925014
 20
-17.37879957
  0
VERTEX
  8
0
 10
95.19974851
 20
-17.43672945
  0
VERTEX
  8
0
 10
95.15026707
 20
-17.46471346
  0
VERTEX
  8
0
 10
95.05690543
 20
-17.45049129
  0
VERTEX
  8
0
 10
95.00640447
 20
-17.39439063
  0
VERTEX
  8
0
 10
94.97355386
 20
-17.32609872
  0
VERTEX
  8
0
 10
94.96129626
 20
-17.25110982
  0
VERTEX
  8
0
 10
94.97257433
 20
-17.17491820
  0
SEQEND
  0
POLYLINE
  8
Livello Standard
 66
   1
 39
0.000000
 70
    0
  0
VERTEX
  8
0
 10
95.01490766
 20
-16.81508487
  0
VERTEX
  8
0
 10
95.71340766
 20
-16.81508487
  0
SEQEND
  0
POLYLINE
  8
Livello Standard
 66
   1
 39
0.000000
 70
    0
  0
VERTEX
  8
0
 10
58.20873203
 20
-78.52551506
  0
VERTEX
  8
0
 10
58.21685860
 20
-78.61243353
  0
VERTEX
  8
0
 10
58.24016601
 20
-78.68751763
  0
VERTEX
  8
0
 10
58.32588931
 20
-78.81466229
  0
VERTEX
  8
0
 10
58.45303398
 20
-78.90038560
  0
VERTEX
  8
0
 10
58.52811807
 20
-78.92369300
  0
VERTEX
  8
0
 10
58.60873203
 20
-78.93181958
  0
VERTEX
  8
0
 10
58.68934598
 20
-78.92369300
  0
VERTEX
  8
0
 10
58.76443008
 20
-78.90038560
  0
VERTEX
  8
0
 10
58.89157474
 20
-78.81466229
  0
VERTEX
  8
0
 10
58.97729804
 20
-78.68751763
  0
VERTEX
  8
0
 10
59.00060545
 20
-78.61243353
  0
VERTEX
  8
0
 10
59.00873203
 20
-78.53181958
  0
VERTEX
  8
0
 10
59.00060545
 20
-78.45120563
  0
VERTEX
  8
0
 10
58.97729804
 20
-78.37612153
  0
VERTEX
  8
0
 10
58.89157474
 20
-78.24897687
  0
VERTEX
  8
0
 10
58.76443008
 20
-78.16325356
  0
VERTEX
  8
0
 10
58.68934598
 20
-78.13994616
  0
VERTEX
  8
0
 10
58.60873203
 20
-78.13181958
  0
VERTEX
  8
0
 10
58.52811807
 20
-78.13994616
  0
VERTEX
  8
0
 10
58.45303398
 20
-78.16325356
  0
VERTEX
  8
0
 10
58.32588931
 20
-78.24897687
  0
VERTEX
  8
0
 10
58.24016601
 20
-78.37612153
  0
VERTEX
  8
0
 10
58.21685860
 20
-78.45120563
  0
VERTEX
  8
0
 10
58.20873203
 20
-78.52551506
  0
VERTEX
  8
0
 10
58.72731536
 20
-78.61975219
  0
VERTEX
  8
0
 10
58.46273203
 20
-78.78379386
  0
VERTEX
  8
0
 10
58.78023203
 20
-78.87375219
  0
VERTEX
  8
0
 10
58.20873203
 20
-79.01662719
  0
SEQEND
  0
POLYLINE
  8
Livello Standard
 66
   1
 39
0.000000
 70
    0
  0
VERTEX
  8
0
 10
58.83314869
 20
-78.36561125
  0
VERTEX
  8
0
 10
58.20873203
 20
-78.39736125
  0
SEQEND
  0
POLYLINE
  8
Livello Standard
 66
   1
 39
0.000000
 70
    0
  0
VERTEX
  8
0
 10
48.26606536
 20
-99.33733553
  0
VERTEX
  8
0
 10
48.27419194
 20
-99.37140781
  0
VERTEX
  8
0
 10
48.29749934
 20
-99.44649191
  0
VERTEX
  8
0
 10
48.38322265
 20
-99.57363657
  0
VERTEX
  8
0
 10
48.51036731
 20
-99.65935988
  0
VERTEX
  8
0
 10
48.58545141
 20
-99.68266728
  0
VERTEX
  8
0
 10
48.66606536
 20
-99.69079386
  0
VERTEX
  8
0
 10
48.74667931
 20
-99.68266728
  0
VERTEX
  8
0
 10
48.82176341
 20
-99.65935988
  0
VERTEX
  8
0
 10
48.94890807
 20
-99.57363657
  0
VERTEX
  8
0
 10
49.03463138
 20
-99.44649191
  0
VERTEX
  8
0
 10
49.05793878
 20
-99.37140781
  0
VERTEX
  8
0
 10
49.06606536
 20
-99.29079386
  0
VERTEX
  8
0
 10
49.05793878
 20
-99.21017991
  0
VERTEX
  8
0
 10
49.03463138
 20
-99.13509581
  0
VERTEX
  8
0
 10
48.94890807
 20
-99.00795115
  0
VERTEX
  8
0
 10
48.82176341
 20
-98.92222784
  0
VERTEX
  8
0
 10
48.74667931
 20
-98.89892044
  0
VERTEX
  8
0
 10
48.66606536
 20
-98.89079386
  0
VERTEX
  8
0
 10
48.58545141
 20
-98.89892044
  0
VERTEX
  8
0
 10
48.51036731
 20
-98.92222784
  0
VERTEX
  8
0
 10
48.38322265
 20
-99.00795115
  0
VERTEX
  8
0
 10
48.29749934
 20
-99.13509581
  0
VERTEX
  8
0
 10
48.27419194
 20
-99.21017991
  0
VERTEX
  8
0
 10
48.26606536
 20
-99.33733553
  0
VERTEX
  8
0
 10
48.78464869
 20
-99.48441886
  0
VERTEX
  8
0
 10
48.52006536
 20
-99.64846053
  0
VERTEX
  8
0
 10
48.83756536
 20
-99.73841886
  0
VERTEX
  8
0
 10
48.26606536
 20
-99.88129386
  0
SEQEND
  0
POLYLINE
  8
Livello Standard
 66
   1
 39
0.000000
 70
    0
  0
VERTEX
  8
0
 10
48.89048203
 20
-99.12458553
  0
VERTEX
  8
0
 10
48.26606536
 20
-99.15633553
  0
SEQEND
  0
POLYLINE
  8
Livello Standard
 66
   1
 39
0.000000
 70
    0
  0
VERTEX
  8
0
 10
48.69469036
 20
-98.43137719
  0
VERTEX
  8
0
 10
48.68410703
 20
-98.96583553
  0
VERTEX
  8
0
 10
48.26606536
 20
-98.59012719
  0
VERTEX
  8
0
 10
48.87460703
 20
-98.59012719
  0
SEQEND
  0
POLYLINE
  8
Livello Standard
 66
   1
 39
0.000000
 70
    0
  0
VERTEX
  8
0
 10
42.71473203
 20
-93.54333553
  0
VERTEX
  8
0
 10
42.72285860
 20
-93.57740781
  0
VERTEX
  8
0
 10
42.74616601
 20
-93.65249191
  0
VERTEX
  8
0
 10
42.83188931
 20
-93.77963657
  0
VERTEX
  8
0
 10
42.95903398
 20
-93.86535988
  0
VERTEX
  8
0
 10
43.03411807
 20
-93.88866728
  0
VERTEX
  8
0
 10
43.11473203
 20
-93.89679386
  0
VERTEX
  8
0
 10
43.19534598
 20
-93.88866728
  0
VERTEX
  8
0
 10
43.27043008
 20
-93.86535988
  0
VERTEX
  8
0
 10
43.39757474
 20
-93.77963657
  0
VERTEX
  8
0
 10
43.48329804
 20
-93.65249191
  0
VERTEX
  8
0
 10
43.50660545
 20
-93.57740781
  0
VERTEX
  8
0
 10
43.51473203
 20
-93.49679386
  0
VERTEX
  8
0
 10
43.50660545
 20
-93.41617991
  0
VERTEX
  8
0
 10
43.48329804
 20
-93.34109581
  0
VERTEX
  8
0
 10
43.39757474
 20
-93.21395115
  0
VERTEX
  8
0
 10
43.27043008
 20
-93.12822784
  0
VERTEX
  8
0
 10
43.19534598
 20
-93.10492044
  0
VERTEX
  8
0
 10
43.11473203
 20
-93.09679386
  0
VERTEX
  8
0
 10
43.03411807
 20
-93.10492044
  0
VERTEX
  8
0
 10
42.95903398
 20
-93.12822784
  0
VERTEX
  8
0
 10
42.83188931
 20
-93.21395115
  0
VERTEX
  8
0
 10
42.74616601
 20
-93.34109581
  0
VERTEX
  8
0
 10
42.72285860
 20
-93.41617991
  0
VERTEX
  8
0
 10
42.71473203
 20
-93.54333553
  0
VERTEX
  8
0
 10
43.23331536
 20
-93.69041886
  0
VERTEX
  8
0
 10
42.96873203
 20
-93.85446053
  0
VERTEX
  8
0
 10
43.28623203
 20
-93.94441886
  0
VERTEX
  8
0
 10
42.71473203
 20
-94.08729386
  0
SEQEND
  0
POLYLINE
  8
Livello Standard
 66
   1
 39
0.000000
 70
    0
  0
VERTEX
  8
0
 10
43.33914869
 20
-93.33058553
  0
VERTEX
  8
0
 10
42.71473203
 20
-93.36233553
  0
SEQEND
  0
POLYLINE
  8
Livello Standard
 66
   1
 39
0.000000
 70
    0
  0
VERTEX
  8
0
 10
43.14335703
 20
-92.63737719
  0
VERTEX
  8
0
 10
43.13277369
 20
-93.17183553
  0
VERTEX
  8
0
 10
42.71473203
 20
-92.79612719
  0
VERTEX
  8
0
 10
43.32327369
 20
-92.79612719
  0
SEQEND
  0
POLYLINE
  8
Livello Standard
 66
   1
 39
0.000000
 70
    0
  0
VERTEX
  8
0
 10
58.91822962
 20
-77.96901814
  0
VERTEX
  8
0
 10
58.98172962
 20
-77.96901814
  0
VERTEX
  8
0
 10
58.98172962
 20
-77.65151814
  0
VERTEX
  8
0
 10
58.79122962
 20
-77.65151814
  0
VERTEX
  8
0
 10
58.70656296
 20
-77.65151814
  0
VERTEX
  8
0
 10
58.70656296
 20
-77.99018481
  0
VERTEX
  8
0
 10
58.41022962
 20
-77.99018481
  0
VERTEX
  8
0
 10
58.41022962
 20
-77.65151814
  0
SEQEND
  0
POLYLINE
  8
Livello Standard
 66
   1
 39
0.000000
 70
    0
  0
VERTEX
  8
0
 10
50.54639869
 20
-85.58951506
  0
VERTEX
  8
0
 10
50.55452527
 20
-85.67643353
  0
VERTEX
  8
0
 10
50.57783268
 20
-85.75151763
  0
VERTEX
  8
0
 10
50.66355598
 20
-85.87866229
  0
VERTEX
  8
0
 10
50.79070064
 20
-85.96438560
  0
VERTEX
  8
0
 10
50.86578474
 20
-85.98769300
  0
VERTEX
  8
0
 10
50.94639869
 20
-85.99581958
  0
VERTEX
  8
0
 10
51.02701265
 20
-85.98769300
  0
VERTEX
  8
0
 10
51.10209674
 20
-85.96438560
  0
VERTEX
  8
0
 10
51.22924141
 20
-85.87866229
  0
VERTEX
  8
0
 10
51.31496471
 20
-85.75151763
  0
VERTEX
  8
0
 10
51.33827212
 20
-85.67643353
  0
VERTEX
  8
0
 10
51.34639869
 20
-85.59581958
  0
VERTEX
  8
0
 10
51.33827212
 20
-85.51520563
  0
VERTEX
  8
0
 10
51.31496471
 20
-85.44012153
  0
VERTEX
  8
0
 10
51.22924141
 20
-85.31297687
  0
VERTEX
  8
0
 10
51.10209674
 20
-85.22725356
  0
VERTEX
  8
0
 10
51.02701265
 20
-85.20394616
  0
VERTEX
  8
0
 10
50.94639869
 20
-85.19581958
  0
VERTEX
  8
0
 10
50.86578474
 20
-85.20394616
  0
VERTEX
  8
0
 10
50.79070064
 20
-85.22725356
  0
VERTEX
  8
0
 10
50.66355598
 20
-85.31297687
  0
VERTEX
  8
0
 10
50.57783268
 20
-85.44012153
  0
VERTEX
  8
0
 10
50.55452527
 20
-85.51520563
  0
VERTEX
  8
0
 10
50.54639869
 20
-85.58951506
  0
VERTEX
  8
0
 10
51.06498203
 20
-85.68375219
  0
VERTEX
  8
0
 10
50.80039869
 20
-85.84779386
  0
VERTEX
  8
0
 10
51.11789869
 20
-85.93775219
  0
VERTEX
  8
0
 10
50.54639869
 20
-86.08062719
  0
SEQEND
  0
POLYLINE
  8
Livello Standard
 66
   1
 39
0.000000
 70
    0
  0
VERTEX
  8
0
 10
51.17081536
 20
-85.42961125
  0
VERTEX
  8
0
 10
50.54639869
 20
-85.46136125
  0
SEQEND
  0
POLYLINE
  8
Livello Standard
 66
   1
 39
0.000000
 70
    0
  0
VERTEX
  8
0
 10
51.25589629
 20
-85.03301814
  0
VERTEX
  8
0
 10
51.31939629
 20
-85.03301814
  0
VERTEX
  8
0
 10
51.31939629
 20
-84.71551814
  0
VERTEX
  8
0
 10
51.12889629
 20
-84.71551814
  0
VERTEX
  8
0
 10
51.04422962
 20
-84.71551814
  0
VERTEX
  8
0
 10
51.04422962
 20
-85.05418481
  0
VERTEX
  8
0
 10
50.74789629
 20
-85.05418481
  0
VERTEX
  8
0
 10
50.74789629
 20
-84.71551814
  0
SEQEND
  0
POLYLINE
  8
Livello Standard
 66
   1
 39
0.000000
 70
    0
  0
VERTEX
  8
0
 10
63.59289869
 20
-100.18350219
  0
VERTEX
  8
0
 10
64.16439869
 20
-100.21525219
  0
VERTEX
  8
0
 10
63.73048203
 20
-100.54333553
  0
VERTEX
  8
0
 10
64.24906536
 20
-100.54333553
  0
SEQEND
  0
POLYLINE
  8
Livello Standard
 66
   1
 39
0.000000
 70
    0
  0
VERTEX
  8
0
 10
64.27023203
 20
-99.51675219
  0
VERTEX
  8
0
 10
64.25964869
 20
-99.92950219
  0
VERTEX
  8
0
 10
64.18556536
 20
-99.92950219
  0
VERTEX
  8
0
 10
63.71989869
 20
-99.54850219
  0
VERTEX
  8
0
 10
63.75164869
 20
-99.92950219
  0
VERTEX
  8
0
 10
63.86806536
 20
-99.92950219
  0
SEQEND
  0
POLYLINE
  8
Livello Standard
 66
   1
 39
0.000000
 70
    0
  0
VERTEX
  8
0
 10
54.27958874
 20
-111.17148918
  0
VERTEX
  8
0
 10
54.80346374
 20
-111.21382252
  0
VERTEX
  8
0
 10
54.31133874
 20
-111.53661418
  0
VERTEX
  8
0
 10
54.83521374
 20
-111.53661418
  0
SEQEND
  0
POLYLINE
  8
Livello Standard
 66
   1
 39
0.000000
 70
    0
  0
VERTEX
  8
0
 10
54.88283874
 20
-110.93336418
  0
VERTEX
  8
0
 10
54.87225541
 20
-110.59469752
  0
VERTEX
  8
0
 10
54.30075541
 20
-110.61057252
  0
VERTEX
  8
0
 10
54.30075541
 20
-110.93336418
  0
SEQEND
  0
POLYLINE
  8
Livello Standard
 66
   1
 39
0.000000
 70
    0
  0
VERTEX
  8
0
 10
54.58650541
 20
-110.93336418
  0
VERTEX
  8
0
 10
54.58650541
 20
-110.60263502
  0
SEQEND
  0
POLYLINE
  8
Livello Standard
 66
   1
 39
0.000000
 70
    0
  0
VERTEX
  8
0
 10
44.63256464
 20
-111.52208481
  0
VERTEX
  8
0
 10
45.16173131
 20
-111.50091814
  0
VERTEX
  8
0
 10
44.59023131
 20
-111.96658481
  0
VERTEX
  8
0
 10
45.16173131
 20
-111.96658481
  0
SEQEND
  0
POLYLINE
  8
Livello Standard
 66
   1
 39
0.000000
 70
    0
  0
VERTEX
  8
0
 10
44.59023131
 20
-111.20458481
  0
VERTEX
  8
0
 10
45.14056464
 20
-111.20458481
  0
SEQEND
  0
POLYLINE
  8
Livello Standard
 66
   1
 39
0.000000
 70
    0
  0
VERTEX
  8
0
 10
33.01823203
 20
-96.61104386
  0
VERTEX
  8
0
 10
33.52623203
 20
-96.61633553
  0
VERTEX
  8
0
 10
33.02352369
 20
-96.95500219
  0
VERTEX
  8
0
 10
33.58444036
 20
-96.98146053
  0
SEQEND
  0
POLYLINE
  8
Livello Standard
 66
   1
 39
0.000000
 70
    0
  0
VERTEX
  8
0
 10
33.57914869
 20
-96.35175219
  0
VERTEX
  8
0
 10
33.00764869
 20
-96.35175219
  0
SEQEND
  0
POLYLINE
  8
Livello Standard
 66
   1
 39
0.000000
 70
    0
  0
VERTEX
  8
0
 10
33.40387024
 20
-96.14521517
  0
VERTEX
  8
0
 10
33.42368130
 20
-96.10192712
  0
VERTEX
  8
0
 10
33.45575844
 20
-96.06481821
  0
VERTEX
  8
0
 10
33.53204333
 20
-96.00316759
  0
VERTEX
  8
0
 10
33.56729315
 20
-95.95304318
  0
VERTEX
  8
0
 10
33.57751667
 20
-95.88796171
  0
VERTEX
  8
0
 10
33.56274778
 20
-95.82393418
  0
VERTEX
  8
0
 10
33.52302036
 20
-95.77697156
  0
VERTEX
  8
0
 10
33.40976530
 20
-95.73758682
  0
VERTEX
  8
0
 10
33.29438799
 20
-95.69919645
  0
VERTEX
  8
0
 10
33.21123234
 20
-95.68402433
  0
VERTEX
  8
0
 10
33.17031450
 20
-95.69719083
  0
VERTEX
  8
0
 10
33.13754458
 20
-95.72431494
  0
VERTEX
  8
0
 10
33.05526406
 20
-95.78734711
  0
VERTEX
  8
0
 10
33.01251631
 20
-95.81638219
  0
VERTEX
  8
0
 10
32.97812051
 20
-95.85564316
  0
VERTEX
  8
0
 10
32.96479193
 20
-95.91852301
  0
VERTEX
  8
0
 10
32.98801885
 20
-95.97948378
  0
VERTEX
  8
0
 10
33.03377024
 20
-96.03195527
  0
VERTEX
  8
0
 10
33.08801509
 20
-96.06936726
  0
VERTEX
  8
0
 10
33.14365549
 20
-96.07877399
  0
VERTEX
  8
0
 10
33.20480571
 20
-96.06337017
  0
VERTEX
  8
0
 10
33.31471505
 20
-96.00807363
  0
VERTEX
  8
0
 10
33.34736545
 20
-95.94972812
  0
VERTEX
  8
0
 10
33.36097040
 20
-95.88824039
  0
VERTEX
  8
0
 10
33.36219036
 20
-95.75908553
  0
SEQEND
  0
POLYLINE
  8
Livello Standard
 66
   1
 39
0.000000
 70
    0
  0
VERTEX
  8
0
 10
50.20556536
 20
-73.43304386
  0
VERTEX
  8
0
 10
50.71356536
 20
-73.43833553
  0
VERTEX
  8
0
 10
50.21085703
 20
-73.77700219
  0
VERTEX
  8
0
 10
50.77177369
 20
-73.80346053
  0
SEQEND
  0
POLYLINE
  8
Livello Standard
 66
   1
 39
0.000000
 70
    0
  0
VERTEX
  8
0
 10
50.76648203
 20
-73.17375219
  0
VERTEX
  8
0
 10
50.19498203
 20
-73.17375219
  0
SEQEND
  0
POLYLINE
  8
Livello Standard
 66
   1
 39
0.000000
 70
    0
  0
VERTEX
  8
0
 10
50.59120357
 20
-72.96721517
  0
VERTEX
  8
0
 10
50.61101464
 20
-72.92392712
  0
VERTEX
  8
0
 10
50.64309177
 20
-72.88681821
  0
VERTEX
  8
0
 10
50.71937667
 20
-72.82516759
  0
VERTEX
  8
0
 10
50.75462649
 20
-72.77504318
  0
VERTEX
  8
0
 10
50.76485000
 20
-72.70996171
  0
VERTEX
  8
0
 10
50.75008111
 20
-72.64593418
  0
VERTEX
  8
0
 10
50.71035370
 20
-72.59897156
  0
VERTEX
  8
0
 10
50.59709864
 20
-72.55958682
  0
VERTEX
  8
0
 10
50.48172132
 20
-72.52119645
  0
VERTEX
  8
0
 10
50.39856567
 20
-72.50602433
  0
VERTEX
  8
0
 10
50.35764784
 20
-72.51919083
  0
VERTEX
  8
0
 10
50.32487792
 20
-72.54631494
  0
VERTEX
  8
0
 10
50.24259739
 20
-72.60934711
  0
VERTEX
  8
0
 10
50.19984965
 20
-72.63838219
  0
VERTEX
  8
0
 10
50.16545384
 20
-72.67764316
  0
VERTEX
  8
0
 10
50.15212527
 20
-72.74052301
  0
VERTEX
  8
0
 10
50.17535218
 20
-72.80148378
  0
VERTEX
  8
0
 10
50.22110357
 20
-72.85395527
  0
VERTEX
  8
0
 10
50.27534843
 20
-72.89136726
  0
VERTEX
  8
0
 10
50.33098883
 20
-72.90077399
  0
VERTEX
  8
0
 10
50.39213904
 20
-72.88537017
  0
VERTEX
  8
0
 10
50.50204839
 20
-72.83007363
  0
VERTEX
  8
0
 10
50.53469879
 20
-72.77172812
  0
VERTEX
  8
0
 10
50.54830373
 20
-72.71024039
  0
VERTEX
  8
0
 10
50.54952369
 20
-72.58108553
  0
SEQEND
  0
POLYLINE
  8
Livello Standard
 66
   1
 39
0.000000
 70
    0
  0
VERTEX
  8
0
 10
70.09694036
 20
-108.07808553
  0
VERTEX
  8
0
 10
70.58906536
 20
-108.06750219
  0
VERTEX
  8
0
 10
70.17102369
 20
-108.41675219
  0
VERTEX
  8
0
 10
70.66314869
 20
-108.43791886
  0
SEQEND
  0
POLYLINE
  8
Livello Standard
 66
   1
 39
0.000000
 70
    0
  0
VERTEX
  8
0
 10
70.47794036
 20
-107.92991886
  0
VERTEX
  8
0
 10
70.61023203
 20
-107.90875219
  0
VERTEX
  8
0
 10
70.59964869
 20
-107.58066886
  0
VERTEX
  8
0
 10
70.41444036
 20
-107.58066886
  0
VERTEX
  8
0
 10
70.34035703
 20
-107.60712719
  0
VERTEX
  8
0
 10
70.34035703
 20
-107.84525219
  0
VERTEX
  8
0
 10
70.30331536
 20
-107.89287719
  0
VERTEX
  8
0
 10
70.10752369
 20
-107.88758553
  0
VERTEX
  8
0
 10
70.07048203
 20
-107.86112719
  0
VERTEX
  8
0
 10
70.07048203
 20
-107.58066886
  0
SEQEND
  0
POLYLINE
  8
Livello Standard
 66
   1
 39
0.000000
 70
    0
  0
VERTEX
  8
0
 10
79.03456536
 20
-103.28225219
  0
VERTEX
  8
0
 10
79.58489869
 20
-103.30341886
  0
VERTEX
  8
0
 10
79.02398203
 20
-103.62091886
  0
VERTEX
  8
0
 10
79.65898203
 20
-103.62091886
  0
SEQEND
  0
POLYLINE
  8
Livello Standard
 66
   1
 39
0.000000
 70
    0
  0
VERTEX
  8
0
 10
79.66956536
 20
-102.92241886
  0
VERTEX
  8
0
 10
78.97106536
 20
-102.92241886
  0
SEQEND
  0
POLYLINE
  8
Livello Standard
 66
   1
 39
0.000000
 70
    0
  0
VERTEX
  8
0
 10
79.46855597
 20
-102.67964598
  0
VERTEX
  8
0
 10
79.52564829
 20
-102.65739180
  0
VERTEX
  8
0
 10
79.56689796
 20
-102.61087471
  0
VERTEX
  8
0
 10
79.59208718
 20
-102.54808697
  0
VERTEX
  8
0
 10
79.60099811
 20
-102.47702082
  0
VERTEX
  8
0
 10
79.59341294
 20
-102.40566855
  0
VERTEX
  8
0
 10
79.56911385
 20
-102.34202239
  0
VERTEX
  8
0
 10
79.52788303
 20
-102.29407462
  0
VERTEX
  8
0
 10
79.46950265
 20
-102.26981750
  0
VERTEX
  8
0
 10
79.38402851
 20
-102.28093142
  0
VERTEX
  8
0
 10
79.32121944
 20
-102.33347458
  0
VERTEX
  8
0
 10
79.28202599
 20
-102.41415203
  0
VERTEX
  8
0
 10
79.26739869
 20
-102.50966886
  0
VERTEX
  8
0
 10
79.00281536
 20
-102.36150219
  0
VERTEX
  8
0
 10
79.00281536
 20
-102.70016886
  0
SEQEND
  0
POLYLINE
  8
Livello Standard
 66
   1
 39
0.000000
 70
    0
  0
VERTEX
  8
0
 10
75.31452369
 20
-91.33366886
  0
VERTEX
  8
0
 10
74.75360703
 20
-91.33366886
  0
VERTEX
  8
0
 10
74.76948203
 20
-91.66175219
  0
VERTEX
  8
0
 10
75.16635703
 20
-91.63529386
  0
VERTEX
  8
0
 10
74.74302369
 20
-92.01100219
  0
VERTEX
  8
0
 10
75.31452369
 20
-92.01100219
  0
SEQEND
  0
POLYLINE
  8
Livello Standard
 66
   1
 39
0.000000
 70
    0
  0
VERTEX
  8
0
 10
75.37802369
 20
-90.82566886
  0
VERTEX
  8
0
 10
74.69539869
 20
-90.81508553
  0
VERTEX
  8
0
 10
75.13460703
 20
-91.12729386
  0
VERTEX
  8
0
 10
75.17164869
 20
-90.74629386
  0
SEQEND
  0
POLYLINE
  8
Livello Standard
 66
   1
 39
0.000000
 70
    0
  0
VERTEX
  8
0
 10
32.07434901
 20
-107.42838592
  0
VERTEX
  8
0
 10
32.08493234
 20
-107.92051092
  0
VERTEX
  8
0
 10
31.73568234
 20
-107.50246926
  0
VERTEX
  8
0
 10
31.71451567
 20
-107.99459426
  0
SEQEND
  0
POLYLINE
  8
Livello Standard
 66
   1
 39
0.000000
 70
    0
  0
VERTEX
  8
0
 10
32.27278651
 20
-107.66651092
  0
VERTEX
  8
0
 10
32.60086984
 20
-107.66386509
  0
VERTEX
  8
0
 10
32.35745317
 20
-107.40192759
  0
VERTEX
  8
0
 10
32.37068234
 20
-107.79615676
  0
SEQEND
  0
POLYLINE
  8
Livello Standard
 66
   1
 39
0.000000
 70
    0
  0
VERTEX
  8
0
 10
35.07139869
 20
-124.81033553
  0
VERTEX
  8
0
 10
33.80139869
 20
-124.81033553
  0
SEQEND
  0
POLYLINE
  8
Livello Standard
 66
   1
 39
0.000000
 70
    0
  0
VERTEX
  8
0
 10
35.11409226
 20
-119.43320622
  0
VERTEX
  8
0
 10
34.97697317
 20
-119.38410334
  0
VERTEX
  8
0
 10
34.83664805
 20
-119.35592447
  0
VERTEX
  8
0
 10
34.54947694
 20
-119.34255874
  0
VERTEX
  8
0
 10
34.25877343
 20
-119.35354908
  0
VERTEX
  8
0
 10
33.97073203
 20
-119.34933553
  0
SEQEND
  0
POLYLINE
  8
Livello Standard
 66
   1
 39
0.000000
 70
    0
  0
VERTEX
  8
0
 10
34.94439869
 20
-118.41800219
  0
VERTEX
  8
0
 10
34.05539869
 20
-118.41800219
  0
SEQEND
  0
POLYLINE
  8
Livello Standard
 66
   1
 39
0.000000
 70
    0
  0
VERTEX
  8
0
 10
35.24073203
 20
-114.18466886
  0
VERTEX
  8
0
 10
33.88606536
 20
-114.18466886
  0
SEQEND
  0
POLYLINE
  8
Livello Standard
 66
   1
 39
0.000000
 70
    0
  0
VERTEX
  8
0
 10
35.32539869
 20
-112.87233553
  0
VERTEX
  8
0
 10
35.24073203
 20
-113.38033553
  0
VERTEX
  8
0
 10
34.64806536
 20
-113.38033553
  0
VERTEX
  8
0
 10
34.77506536
 20
-112.70300219
  0
VERTEX
  8
0
 10
33.84373203
 20
-112.70300219
  0
VERTEX
  8
0
 10
33.84373203
 20
-113.38033553
  0
SEQEND
  0
POLYLINE
  8
Livello Standard
 66
   1
 39
0.000000
 70
    0
  0
VERTEX
  8
0
 10
35.17245710
 20
-135.47645174
  0
VERTEX
  8
0
 10
35.13707000
 20
-135.36124758
  0
VERTEX
  8
0
 10
35.12948145
 20
-135.22626694
  0
VERTEX
  8
0
 10
35.14285192
 20
-135.16724078
  0
VERTEX
  8
0
 10
35.17126036
 20
-135.12232691
  0
VERTEX
  8
0
 10
35.21740290
 20
-135.09787745
  0
VERTEX
  8
0
 10
35.28397564
 20
-135.10024454
  0
VERTEX
  8
0
 10
35.35516052
 20
-135.12813268
  0
VERTEX
  8
0
 10
35.40977999
 20
-135.17227943
  0
VERTEX
  8
0
 10
35.44793357
 20
-135.22834007
  0
VERTEX
  8
0
 10
35.46972079
 20
-135.29196988
  0
VERTEX
  8
0
 10
35.47524116
 20
-135.35882413
  0
VERTEX
  8
0
 10
35.46459420
 20
-135.42455811
  0
VERTEX
  8
0
 10
35.43787944
 20
-135.48482709
  0
VERTEX
  8
0
 10
35.39519639
 20
-135.53528635
  0
VERTEX
  8
0
 10
35.35895224
 20
-135.55584015
  0
VERTEX
  8
0
 10
35.31857610
 20
-135.56095300
  0
VERTEX
  8
0
 10
35.22994415
 20
-135.53889227
  0
VERTEX
  8
0
 10
35.05277560
 20
-135.46388024
  0
VERTEX
  8
0
 10
35.01538122
 20
-135.44599361
  0
VERTEX
  8
0
 10
34.98534757
 20
-135.41502543
  0
VERTEX
  8
0
 10
34.94486658
 20
-135.32708094
  0
VERTEX
  8
0
 10
34.92634086
 20
-135.22651982
  0
VERTEX
  8
0
 10
34.92477863
 20
-135.13981511
  0
VERTEX
  8
0
 10
34.89302863
 20
-135.63723178
  0
VERTEX
  8
0
 10
35.31636196
 20
-135.70073178
  0
VERTEX
  8
0
 10
34.89302863
 20
-136.04998178
  0
VERTEX
  8
0
 10
35.44336196
 20
-136.04998178
  0
SEQEND
  0
POLYLINE
  8
Livello Standard
 66
   1
 39
0.000000
 70
    0
  0
VERTEX
  8
0
 10
34.84011196
 20
-131.01231511
  0
VERTEX
  8
0
 10
35.35869529
 20
-131.01231511
  0
VERTEX
  8
0
 10
34.90361196
 20
-131.41448178
  0
VERTEX
  8
0
 10
35.44336196
 20
-131.41448178
  0
SEQEND
  0
POLYLINE
  8
Livello Standard
 66
   1
 39
0.000000
 70
    0
  0
VERTEX
  8
0
 10
35.40112863
 20
-130.68413178
  0
VERTEX
  8
0
 10
35.40102150
 20
-130.68432148
  0
VERTEX
  8
0
 10
35.21750311
 20
-130.68368819
  0
VERTEX
  8
0
 10
35.13075482
 20
-130.66147371
  0
VERTEX
  8
0
 10
35.09513369
 20
-130.63585516
  0
VERTEX
  8
0
 10
35.06715754
 20
-130.59711980
  0
VERTEX
  8
0
 10
35.02510927
 20
-130.52996379
  0
VERTEX
  8
0
 10
34.97470896
 20
-130.48508805
  0
VERTEX
  8
0
 10
34.91112571
 20
-130.46508951
  0
VERTEX
  8
0
 10
34.82952863
 20
-130.47256511
  0
VERTEX
  8
0
 10
34.82952863
 20
-130.83239844
  0
SEQEND
  0
POLYLINE
  8
Livello Standard
 66
   1
 39
0.000000
 70
    0
  0
VERTEX
  8
0
 10
49.87748203
 20
-121.56125219
  0
VERTEX
  8
0
 10
49.87831069
 20
-121.55885810
  0
VERTEX
  8
0
 10
50.01339260
 20
-121.59162880
  0
VERTEX
  8
0
 10
50.15042819
 20
-121.60362965
  0
VERTEX
  8
0
 10
50.42781536
 20
-121.60358553
  0
VERTEX
  8
0
 10
49.85631536
 20
-121.89991886
  0
VERTEX
  8
0
 10
50.48073203
 20
-121.89991886
  0
SEQEND
  0
POLYLINE
  8
Livello Standard
 66
   1
 39
0.000000
 70
    0
  0
VERTEX
  8
0
 10
64.05044036
 20
-123.81891886
  0
VERTEX
  8
0
 10
64.56373203
 20
-123.81891886
  0
VERTEX
  8
0
 10
64.14569036
 20
-124.19991886
  0
VERTEX
  8
0
 10
64.67485703
 20
-124.19991886
  0
SEQEND
  0
POLYLINE
  8
Livello Standard
 66
   1
 39
0.000000
 70
    0
  0
VERTEX
  8
0
 10
64.43679297
 20
-123.14487490
  0
VERTEX
  8
0
 10
64.48640483
 20
-123.16275543
  0
VERTEX
  8
0
 10
64.51926864
 20
-123.20503631
  0
VERTEX
  8
0
 10
64.54491283
 20
-123.31612141
  0
VERTEX
  8
0
 10
64.53664583
 20
-123.37730852
  0
VERTEX
  8
0
 10
64.51018434
 20
-123.43513809
  0
VERTEX
  8
0
 10
64.42086632
 20
-123.52789086
  0
VERTEX
  8
0
 10
64.29489799
 20
-123.59836675
  0
VERTEX
  8
0
 10
64.15611842
 20
-123.64905487
  0
VERTEX
  8
0
 10
64.10873521
 20
-123.65186444
  0
VERTEX
  8
0
 10
64.06624811
 20
-123.63574661
  0
VERTEX
  8
0
 10
63.98348128
 20
-123.57807308
  0
VERTEX
  8
0
 10
63.94396092
 20
-123.53267432
  0
VERTEX
  8
0
 10
63.93237897
 20
-123.47627947
  0
VERTEX
  8
0
 10
63.94180167
 20
-123.41583637
  0
VERTEX
  8
0
 10
63.96529528
 20
-123.35829283
  0
VERTEX
  8
0
 10
64.03287229
 20
-123.26523146
  0
VERTEX
  8
0
 10
64.12502163
 20
-123.19541096
  0
VERTEX
  8
0
 10
64.22336139
 20
-123.15200207
  0
VERTEX
  8
0
 10
64.32602484
 20
-123.12982040
  0
VERTEX
  8
0
 10
64.43022221
 20
-123.13436788
  0
VERTEX
  8
0
 10
64.53316372
 20
-123.17114645
  0
VERTEX
  8
0
 10
64.57266713
 20
-123.20488595
  0
VERTEX
  8
0
 10
64.59297479
 20
-123.24891222
  0
VERTEX
  8
0
 10
64.59548203
 20
-123.35325219
  0
VERTEX
  8
0
 10
64.59548203
 20
-123.60725219
  0
VERTEX
  8
0
 10
64.44731536
 20
-123.60725219
  0
SEQEND
  0
POLYLINE
  8
Livello Standard
 66
   1
 39
0.000000
 70
    0
  0
VERTEX
  8
0
 10
37.33939870
 20
-81.19925219
  0
VERTEX
  8
0
 10
37.32352370
 20
-80.76533552
  0
VERTEX
  8
0
 10
37.76273203
 20
-81.24687719
  0
VERTEX
  8
0
 10
37.76273203
 20
-80.63304386
  0
SEQEND
  0
POLYLINE
  8
Livello Standard
 66
   1
 39
0.000000
 70
    0
  0
VERTEX
  8
0
 10
37.12773203
 20
-80.59600219
  0
VERTEX
  8
0
 10
37.12773203
 20
-81.28391886
  0
SEQEND
  0
POLYLINE
  8
Livello Standard
 66
   1
 39
0.000000
 70
    0
  0
VERTEX
  8
0
 10
36.90548203
 20
-80.71241886
  0
VERTEX
  8
0
 10
36.69381536
 20
-80.69125219
  0
VERTEX
  8
0
 10
36.53506536
 20
-80.79179386
  0
VERTEX
  8
0
 10
36.61973203
 20
-81.00875219
  0
VERTEX
  8
0
 10
36.88960703
 20
-81.00875219
  0
VERTEX
  8
0
 10
36.90019036
 20
-81.26804386
  0
VERTEX
  8
0
 10
36.61973203
 20
-81.26804386
  0
SEQEND
  0
POLYLINE
  8
Livello Standard
 66
   1
 39
0.000000
 70
    0
  0
VERTEX
  8
0
 10
23.10381536
 20
-89.92804386
  0
VERTEX
  8
0
 10
23.62239870
 20
-89.91746052
  0
VERTEX
  8
0
 10
23.10381536
 20
-90.25612719
  0
VERTEX
  8
0
 10
23.73881536
 20
-90.25612719
  0
SEQEND
  0
POLYLINE
  8
Livello Standard
 66
   1
 39
0.000000
 70
    0
  0
VERTEX
  8
0
 10
23.79173203
 20
-89.56821052
  0
VERTEX
  8
0
 10
23.07206536
 20
-89.56821052
  0
SEQEND
  0
POLYLINE
  8
Livello Standard
 66
   1
 39
0.000000
 70
    0
  0
VERTEX
  8
0
 10
23.36839870
 20
-89.28246052
  0
VERTEX
  8
0
 10
23.41281270
 20
-89.23865056
  0
VERTEX
  8
0
 10
23.42255549
 20
-89.18617441
  0
VERTEX
  8
0
 10
23.42094708
 20
-89.12886269
  0
VERTEX
  8
0
 10
23.43130749
 20
-89.07054606
  0
VERTEX
  8
0
 10
23.52562640
 20
-89.07500317
  0
VERTEX
  8
0
 10
23.61326729
 20
-89.12479620
  0
VERTEX
  8
0
 10
23.66741628
 20
-89.20650080
  0
VERTEX
  8
0
 10
23.67355197
 20
-89.25512482
  0
VERTEX
  8
0
 10
23.66125948
 20
-89.30669259
  0
VERTEX
  8
0
 10
23.61534406
 20
-89.36264005
  0
VERTEX
  8
0
 10
23.55122922
 20
-89.38192719
  0
VERTEX
  8
0
 10
23.47939852
 20
-89.37360603
  0
VERTEX
  8
0
 10
23.41033548
 20
-89.34672858
  0
VERTEX
  8
0
 10
23.32619406
 20
-89.28681374
  0
VERTEX
  8
0
 10
23.25814696
 20
-89.20861514
  0
VERTEX
  8
0
 10
23.15673203
 20
-89.02846052
  0
SEQEND
  0
POLYLINE
  8
Livello Standard
 66
   1
 39
0.000000
 70
    0
  0
VERTEX
  8
0
 10
51.48831536
 20
-136.34654386
  0
VERTEX
  8
0
 10
50.95914870
 20
-136.34654386
  0
VERTEX
  8
0
 10
51.48831536
 20
-135.96554386
  0
VERTEX
  8
0
 10
50.87448203
 20
-135.96554386
  0
VERTEX
  8
0
 10
50.90623203
 20
-135.65862719
  0
VERTEX
  8
0
 10
51.53064870
 20
-135.69037719
  0
VERTEX
  8
0
 10
50.94856536
 20
-135.46812719
  0
VERTEX
  8
0
 10
50.85331536
 20
-135.46812719
  0
VERTEX
  8
0
 10
50.85331536
 20
-135.16121052
  0
VERTEX
  8
0
 10
51.48831536
 20
-135.43637719
  0
SEQEND
  0
POLYLINE
  8
Livello Standard
 66
   1
 39
0.000000
 70
    0
  0
VERTEX
  8
0
 10
41.33044896
 20
-34.52577147
  0
VERTEX
  8
0
 10
41.41247750
 20
-34.54322732
  0
VERTEX
  8
0
 10
41.61502978
 20
-34.55044036
  0
VERTEX
  8
0
 10
41.90836836
 20
-34.53562804
  0
VERTEX
  8
0
 10
42.19323335
 20
-34.49215248
  0
VERTEX
  8
0
 10
42.46818262
 20
-34.42145580
  0
VERTEX
  8
0
 10
42.73177405
 20
-34.32498012
  0
VERTEX
  8
0
 10
42.98256554
 20
-34.20416755
  0
VERTEX
  8
0
 10
43.21911496
 20
-34.06046022
  0
VERTEX
  8
0
 10
43.43998020
 20
-33.89530023
  0
VERTEX
  8
0
 10
43.64371913
 20
-33.71012972
  0
VERTEX
  8
0
 10
43.82888965
 20
-33.50639078
  0
VERTEX
  8
0
 10
43.99404964
 20
-33.28552554
  0
VERTEX
  8
0
 10
44.13775697
 20
-33.04897612
  0
VERTEX
  8
0
 10
44.25856954
 20
-32.79818464
  0
VERTEX
  8
0
 10
44.35504522
 20
-32.53459320
  0
VERTEX
  8
0
 10
44.42574189
 20
-32.25964393
  0
VERTEX
  8
0
 10
44.46921745
 20
-31.97477894
  0
VERTEX
  8
0
 10
44.48402978
 20
-31.68144036
  0
VERTEX
  8
0
 10
44.46921745
 20
-31.38810178
  0
VERTEX
  8
0
 10
44.42574189
 20
-31.10323679
  0
VERTEX
  8
0
 10
44.35504522
 20
-30.82828752
  0
VERTEX
  8
0
 10
44.25856954
 20
-30.56469609
  0
VERTEX
  8
0
 10
44.13775697
 20
-30.31390460
  0
VERTEX
  8
0
 10
43.99404964
 20
-30.07735518
  0
VERTEX
  8
0
 10
43.82888965
 20
-29.85648994
  0
VERTEX
  8
0
 10
43.64371913
 20
-29.65275101
  0
VERTEX
  8
0
 10
43.43998020
 20
-29.46758049
  0
VERTEX
  8
0
 10
43.21911496
 20
-29.30242050
  0
VERTEX
  8
0
 10
42.98256554
 20
-29.15871317
  0
VERTEX
  8
0
 10
42.73177405
 20
-29.03790060
  0
VERTEX
  8
0
 10
42.46818262
 20
-28.94142492
  0
VERTEX
  8
0
 10
42.19323335
 20
-28.87072824
  0
VERTEX
  8
0
 10
41.90836836
 20
-28.82725268
  0
VERTEX
  8
0
 10
41.61502978
 20
-28.81244036
  0
VERTEX
  8
0
 10
41.41247750
 20
-28.81965340
  0
VERTEX
  8
0
 10
41.37833797
 20
-28.82165751
  0
VERTEX
  8
0
 10
41.32251917
 20
-28.82716073
  0
VERTEX
  8
0
 10
41.09267491
 20
-28.86303484
  0
VERTEX
  8
0
 10
40.86647262
 20
-28.91720382
  0
VERTEX
  8
0
 10
40.57073414
 20
-29.01910205
  0
VERTEX
  8
0
 10
40.28805031
 20
-29.15279328
  0
VERTEX
  8
0
 10
40.02153934
 20
-29.31638572
  0
VERTEX
  8
0
 10
39.77431945
 20
-29.50798759
  0
VERTEX
  8
0
 10
39.56271012
 20
-29.71113584
  0
VERTEX
  8
0
 10
39.37279960
 20
-29.93462994
  0
VERTEX
  8
0
 10
39.20652022
 20
-30.17620293
  0
VERTEX
  8
0
 10
39.06580434
 20
-30.43358786
  0
VERTEX
  8
0
 10
38.94456939
 20
-30.72573364
  0
VERTEX
  8
0
 10
38.85631384
 20
-31.02948759
  0
VERTEX
  8
0
 10
38.80583494
 20
-31.31200701
  0
VERTEX
  8
0
 10
38.78291457
 20
-31.67742992
  0
VERTEX
  8
0
 10
38.79785642
 20
-31.96799392
  0
VERTEX
  8
0
 10
38.84093313
 20
-32.25569008
  0
VERTEX
  8
0
 10
38.91159709
 20
-32.52907148
  0
VERTEX
  8
0
 10
39.00827454
 20
-32.79421664
  0
VERTEX
  8
0
 10
39.12835757
 20
-33.04343665
  0
VERTEX
  8
0
 10
39.27181876
 20
-33.27981507
  0
VERTEX
  8
0
 10
39.43723401
 20
-33.50138143
  0
VERTEX
  8
0
 10
39.62317918
 20
-33.70616531
  0
VERTEX
  8
0
 10
39.82796284
 20
-33.89211050
  0
VERTEX
  8
0
 10
40.04952915
 20
-34.05752539
  0
VERTEX
  8
0
 10
40.28590758
 20
-34.20098655
  0
VERTEX
  8
0
 10
40.53512760
 20
-34.32107055
  0
VERTEX
  8
0
 10
40.80027247
 20
-34.41774627
  0
VERTEX
  8
0
 10
41.07365408
 20
-34.48841289
  0
VERTEX
  8
0
 10
41.33044896
 20
-34.52577147
  0
VERTEX
  8
0
 10
41.30577065
 20
-37.46523172
 42
-0.12517711
  0
VERTEX
  8
0
 10
40.01296684
 20
-37.30040030
  0
VERTEX
  8
0
 10
40.01296684
 20
-36.72890030
  0
VERTEX
  8
0
 10
39.54730018
 20
-36.75006696
  0
VERTEX
  8
0
 10
39.50496684
 20
-37.19456696
 42
-0.10687331
  0
VERTEX
  8
0
 10
38.44663351
 20
-36.47490030
  0
VERTEX
  8
0
 10
38.70063351
 20
-35.96690030
  0
VERTEX
  8
0
 10
38.44663351
 20
-35.77640030
  0
VERTEX
  8
0
 10
38.10796684
 20
-36.22090030
 42
-0.19588722
  0
VERTEX
  8
0
 10
37.36713351
 20
-34.50640030
  0
VERTEX
  8
0
 10
37.68463351
 20
-34.50640030
  0
VERTEX
  8
0
 10
37.68463351
 20
-34.08306696
  0
VERTEX
  8
0
 10
37.26130018
 20
-34.08306696
  0
VERTEX
  8
0
 10
37.26130018
 20
-32.26273363
  0
VERTEX
  8
0
 10
37.66346684
 20
-32.26273363
  0
VERTEX
  8
0
 10
37.70580018
 20
-31.81823363
  0
VERTEX
  8
0
 10
37.26130018
 20
-31.81823363
 42
-0.11728978
  0
VERTEX
  8
0
 10
37.70580018
 20
-29.46873363
  0
VERTEX
  8
0
 10
38.17146684
 20
-29.57456696
  0
VERTEX
  8
0
 10
38.25613351
 20
-29.15123363
  0
VERTEX
  8
0
 10
37.85396684
 20
-29.02423363
 42
-0.20029068
  0
VERTEX
  8
0
 10
38.80646684
 20
-27.54256696
  0
VERTEX
  8
0
 10
39.10280018
 20
-27.86006696
  0
VERTEX
  8
0
 10
39.44146684
 20
-27.54256696
  0
VERTEX
  8
0
 10
39.08163351
 20
-27.22506696
 42
-0.25659881
  0
VERTEX
  8
0
 10
41.26180018
 20
-26.31490030
  0
VERTEX
  8
0
 10
41.39938351
 20
-26.31490030
  0
VERTEX
  8
0
 10
41.37833797
 20
-28.82165751
  0
SEQEND
  0
POLYLINE
  8
Livello Standard
 66
   1
 39
0.000000
 70
    0
  0
VERTEX
  8
0
 10
43.06524105
 20
-17.21940280
  0
VERTEX
  8
0
 10
43.07401115
 20
-17.21940280
  0
VERTEX
  8
0
 10
43.52909449
 20
-17.21940280
  0
VERTEX
  8
0
 10
43.49734449
 20
-17.89673613
 42
0.38399718
  0
VERTEX
  8
0
 10
44.44984449
 20
-16.49973613
  0
VERTEX
  8
0
 10
43.96301115
 20
-16.51031947
  0
VERTEX
  8
0
 10
43.97359449
 20
-16.12931947
  0
VERTEX
  8
0
 10
44.44984449
 20
-16.12931947
 42
0.28444118
  0
VERTEX
  8
0
 10
43.52909449
 20
-14.84873613
  0
VERTEX
  8
0
 10
43.52909449
 20
-15.24031947
  0
VERTEX
  8
0
 10
43.09984041
 20
-15.24031947
  0
SEQEND
  0
POLYLINE
  8
Livello Standard
 66
   1
 39
0.000000
 70
    0
  0
VERTEX
  8
0
 10
35.19454670
 20
-17.74391094
  0
VERTEX
  8
0
 10
35.75436173
 20
-17.74391094
  0
VERTEX
  8
0
 10
35.77552840
 20
-17.27824427
  0
VERTEX
  8
0
 10
35.21357481
 20
-17.27824427
  0
SEQEND
  0
POLYLINE
  8
Livello Standard
 66
   1
 39
0.000000
 70
    0
  0
VERTEX
  8
0
 10
41.38469506
 20
-13.70107761
  0
VERTEX
  8
0
 10
41.38469506
 20
-11.41306435
  0
SEQEND
  0
POLYLINE
  8
Livello Standard
 66
   1
 39
0.000000
 70
    0
  0
VERTEX
  8
0
 10
38.14456814
 20
-23.09961899
  0
VERTEX
  8
0
 10
38.50602840
 20
-22.71807761
  0
VERTEX
  8
0
 10
38.18852840
 20
-22.44291094
  0
VERTEX
  8
0
 10
37.76519506
 20
-22.82391094
  0
SEQEND
  0
POLYLINE
  8
Livello Standard
 66
   1
 39
0.000000
 70
    0
  0
VERTEX
  8
0
 10
29.71687515
 20
-30.10494749
  0
VERTEX
  8
0
 10
30.21429182
 20
-30.23194749
  0
VERTEX
  8
0
 10
29.89150015
 20
-30.29544749
  0
VERTEX
  8
0
 10
30.25133348
 20
-30.46478083
  0
VERTEX
  8
0
 10
29.69570848
 20
-30.66057249
  0
SEQEND
  0
POLYLINE
  8
Livello Standard
 66
   1
 39
0.000000
 70
    0
  0
VERTEX
  8
0
 10
30.42595848
 20
-29.85623916
  0
VERTEX
  8
0
 10
29.91266682
 20
-29.86153083
  0
VERTEX
  8
0
 10
29.74333348
 20
-29.96736416
  0
SEQEND
  0
POLYLINE
  8
Livello Standard
 66
   1
 39
0.000000
 70
    0
  0
VERTEX
  8
0
 10
30.32039908
 20
-29.17362531
  0
VERTEX
  8
0
 10
30.31895262
 20
-29.36932193
  0
VERTEX
  8
0
 10
30.32233333
 20
-29.45529018
  0
VERTEX
  8
0
 10
30.31817064
 20
-29.49621665
  0
VERTEX
  8
0
 10
30.29860603
 20
-29.53313742
  0
VERTEX
  8
0
 10
30.25203149
 20
-29.56950507
  0
VERTEX
  8
0
 10
30.19861860
 20
-29.58435183
  0
VERTEX
  8
0
 10
30.14842152
 20
-29.57202375
  0
VERTEX
  8
0
 10
30.11149443
 20
-29.52686689
  0
VERTEX
  8
0
 10
30.05395685
 20
-29.45193437
  0
VERTEX
  8
0
 10
30.03117216
 20
-29.41712967
  0
VERTEX
  8
0
 10
30.02792625
 20
-29.37016732
  0
VERTEX
  8
0
 10
30.02259222
 20
-29.29946638
  0
VERTEX
  8
0
 10
29.98406417
 20
-29.25883938
  0
VERTEX
  8
0
 10
29.92558919
 20
-29.25012384
  0
VERTEX
  8
0
 10
29.86041437
 20
-29.27515728
  0
VERTEX
  8
0
 10
29.82135363
 20
-29.32096752
  0
VERTEX
  8
0
 10
29.80980322
 20
-29.37802970
  0
VERTEX
  8
0
 10
29.82017567
 20
-29.49659918
  0
VERTEX
  8
0
 10
29.87918610
 20
-29.54911838
  0
VERTEX
  8
0
 10
29.94441682
 20
-29.59165583
  0
SEQEND
  0
POLYLINE
  8
Livello Standard
 66
   1
 39
0.000000
 70
    0
  0
VERTEX
  8
0
 10
29.71687515
 20
-14.60571625
  0
VERTEX
  8
0
 10
30.21429182
 20
-14.73271625
  0
VERTEX
  8
0
 10
29.89150015
 20
-14.79621625
  0
VERTEX
  8
0
 10
30.25133349
 20
-14.96554958
  0
VERTEX
  8
0
 10
29.69570849
 20
-15.16134125
  0
SEQEND
  0
POLYLINE
  8
Livello Standard
 66
   1
 39
0.000000
 70
    0
  0
VERTEX
  8
0
 10
30.42595849
 20
-14.35700792
  0
VERTEX
  8
0
 10
29.91266682
 20
-14.36229958
  0
VERTEX
  8
0
 10
29.74333349
 20
-14.46813292
  0
SEQEND
  0
POLYLINE
  8
Livello Standard
 66
   1
 39
0.000000
 70
    0
  0
VERTEX
  8
0
 10
30.32039909
 20
-13.67439407
  0
VERTEX
  8
0
 10
30.31895262
 20
-13.87009068
  0
VERTEX
  8
0
 10
30.32233334
 20
-13.95605894
  0
VERTEX
  8
0
 10
30.31817064
 20
-13.99698540
  0
VERTEX
  8
0
 10
30.29860603
 20
-14.03390617
  0
VERTEX
  8
0
 10
30.25203149
 20
-14.07027383
  0
VERTEX
  8
0
 10
30.19861860
 20
-14.08512059
  0
VERTEX
  8
0
 10
30.14842152
 20
-14.07279250
  0
VERTEX
  8
0
 10
30.11149443
 20
-14.02763565
  0
VERTEX
  8
0
 10
30.05395685
 20
-13.95270312
  0
VERTEX
  8
0
 10
30.03117216
 20
-13.91789843
  0
VERTEX
  8
0
 10
30.02792625
 20
-13.87093608
  0
VERTEX
  8
0
 10
30.02259223
 20
-13.80023514
  0
VERTEX
  8
0
 10
29.98406418
 20
-13.75960814
  0
VERTEX
  8
0
 10
29.92558919
 20
-13.75089260
  0
VERTEX
  8
0
 10
29.86041437
 20
-13.77592604
  0
VERTEX
  8
0
 10
29.82135363
 20
-13.82173628
  0
VERTEX
  8
0
 10
29.80980323
 20
-13.87879846
  0
VERTEX
  8
0
 10
29.82017567
 20
-13.99736794
  0
VERTEX
  8
0
 10
29.87918610
 20
-14.04988714
  0
VERTEX
  8
0
 10
29.94441682
 20
-14.09242458
  0
SEQEND
  0
POLYLINE
  8
Livello Standard
 66
   1
 39
0.000000
 70
    0
  0
VERTEX
  8
0
 10
41.62359449
 20
-20.12481947
  0
VERTEX
  8
0
 10
42.12101115
 20
-20.31531947
  0
VERTEX
  8
0
 10
41.75059449
 20
-20.39998613
  0
VERTEX
  8
0
 10
42.02576115
 20
-20.50581947
  0
VERTEX
  8
0
 10
41.62359449
 20
-20.66456947
  0
SEQEND
  0
POLYLINE
  8
Livello Standard
 66
   1
 39
0.000000
 70
    0
  0
VERTEX
  8
0
 10
42.20567782
 20
-19.89198613
  0
VERTEX
  8
0
 10
41.62359449
 20
-19.89198613
  0
SEQEND
  0
POLYLINE
  8
Livello Standard
 66
   1
 39
0.000000
 70
    0
  0
VERTEX
  8
0
 10
42.13114000
 20
-19.64859642
  0
VERTEX
  8
0
 10
42.13071742
 20
-19.47683494
  0
VERTEX
  8
0
 10
42.09968032
 20
-19.40828661
  0
VERTEX
  8
0
 10
42.06564258
 20
-19.38869749
  0
VERTEX
  8
0
 10
42.01513959
 20
-19.38284201
  0
VERTEX
  8
0
 10
41.94013034
 20
-19.39563466
  0
VERTEX
  8
0
 10
41.89551557
 20
-19.42806286
  0
VERTEX
  8
0
 10
41.87368070
 20
-19.48050000
  0
VERTEX
  8
0
 10
41.86701115
 20
-19.55331947
  0
VERTEX
  8
0
 10
41.63417782
 20
-19.39456947
  0
VERTEX
  8
0
 10
41.63417782
 20
-19.65915280
  0
SEQEND
  0
POLYLINE
  8
Livello Standard
 66
   1
 39
0.000000
 70
    0
  0
VERTEX
  8
0
 10
40.41692782
 20
-15.55281947
  0
VERTEX
  8
0
 10
40.91434449
 20
-15.74331947
  0
VERTEX
  8
0
 10
40.54392782
 20
-15.82798613
  0
VERTEX
  8
0
 10
40.81909449
 20
-15.93381947
  0
VERTEX
  8
0
 10
40.41692782
 20
-16.09256947
  0
SEQEND
  0
POLYLINE
  8
Livello Standard
 66
   1
 39
0.000000
 70
    0
  0
VERTEX
  8
0
 10
40.99901115
 20
-15.31998613
  0
VERTEX
  8
0
 10
40.41692782
 20
-15.31998613
  0
SEQEND
  0
POLYLINE
  8
Livello Standard
 66
   1
 39
0.000000
 70
    0
  0
VERTEX
  8
0
 10
40.92447333
 20
-15.07659642
  0
VERTEX
  8
0
 10
40.92405076
 20
-14.90483494
  0
VERTEX
  8
0
 10
40.89301365
 20
-14.83628661
  0
VERTEX
  8
0
 10
40.85897592
 20
-14.81669749
  0
VERTEX
  8
0
 10
40.80847292
 20
-14.81084201
  0
VERTEX
  8
0
 10
40.73346367
 20
-14.82363466
  0
VERTEX
  8
0
 10
40.68884891
 20
-14.85606286
  0
VERTEX
  8
0
 10
40.66701404
 20
-14.90850000
  0
VERTEX
  8
0
 10
40.66034449
 20
-14.98131947
  0
VERTEX
  8
0
 10
40.42751115
 20
-14.82256947
  0
VERTEX
  8
0
 10
40.42751115
 20
-15.08715280
  0
SEQEND
  0
POLYLINE
  8
Livello Standard
 66
   1
 39
0.000000
 70
    0
  0
VERTEX
  8
0
 10
42.17442782
 20
-16.04465280
  0
VERTEX
  8
0
 10
42.59776115
 20
-16.04465280
  0
VERTEX
  8
0
 10
42.57659449
 20
-16.49973613
  0
VERTEX
  8
0
 10
42.12151115
 20
-16.49973613
 42
0.36962039
  0
VERTEX
  8
0
 10
43.05284449
 20
-17.92848613
  0
VERTEX
  8
0
 10
43.10576115
 20
-14.90165280
 42
0.39265456
  0
VERTEX
  8
0
 10
42.15243467
 20
-16.04465280
  0
VERTEX
  8
0
 10
42.13044152
 20
-16.04465280
  0
SEQEND
  0
POLYLINE
  8
Livello Standard
 66
   1
 39
0.000000
 70
    0
  0
VERTEX
  8
0
 10
71.55895495
 20
-22.66720598
  0
VERTEX
  8
0
 10
71.88703829
 20
-22.85241431
  0
VERTEX
  8
0
 10
71.63832995
 20
-22.94237265
  0
VERTEX
  8
0
 10
71.85528829
 20
-23.07995598
  0
VERTEX
  8
0
 10
71.42137162
 20
-23.22283098
  0
SEQEND
  0
POLYLINE
  8
Livello Standard
 66
   1
 39
0.000000
 70
    0
  0
VERTEX
  8
0
 10
68.34162162
 20
-22.18037265
  0
VERTEX
  8
0
 10
68.66970495
 20
-22.36558098
  0
VERTEX
  8
0
 10
68.42099662
 20
-22.45553931
  0
VERTEX
  8
0
 10
68.63795495
 20
-22.59312265
  0
VERTEX
  8
0
 10
68.20403829
 20
-22.73599765
  0
SEQEND
  0
POLYLINE
  8
Livello Standard
 66
   1
 39
0.000000
 70
    0
  0
VERTEX
  8
0
 10
63.74845495
 20
-24.23082297
  0
VERTEX
  8
0
 10
64.21412162
 20
-24.06678131
  0
VERTEX
  8
0
 10
63.95482995
 20
-23.96094797
  0
VERTEX
  8
0
 10
64.24057995
 20
-23.81807297
  0
VERTEX
  8
0
 10
63.79607995
 20
-23.69636464
  0
SEQEND
  0
POLYLINE
  8
Livello Standard
 66
   1
 39
0.000000
 70
    0
  0
VERTEX
  8
0
 10
63.74316329
 20
-23.49528131
  0
VERTEX
  8
0
 10
63.74316329
 20
-23.15661464
  0
VERTEX
  8
0
 10
63.77491329
 20
-23.15661464
  0
VERTEX
  8
0
 10
64.30937162
 20
-23.40532297
  0
SEQEND
  0
POLYLINE
  8
Livello Standard
 66
   1
 39
0.000000
 70
    0
  0
VERTEX
  8
0
 10
65.99212162
 20
-24.44520598
  0
VERTEX
  8
0
 10
66.45778829
 20
-24.28116431
  0
VERTEX
  8
0
 10
66.19849662
 20
-24.17533098
  0
VERTEX
  8
0
 10
66.48424662
 20
-24.03245598
  0
VERTEX
  8
0
 10
66.03974662
 20
-23.91074765
  0
SEQEND
  0
POLYLINE
  8
Livello Standard
 66
   1
 39
0.000000
 70
    0
  0
VERTEX
  8
0
 10
65.98682995
 20
-23.70966431
  0
VERTEX
  8
0
 10
65.98682995
 20
-23.37099765
  0
VERTEX
  8
0
 10
66.01857995
 20
-23.37099765
  0
VERTEX
  8
0
 10
66.55303829
 20
-23.61970598
  0
SEQEND
  0
POLYLINE
  8
Livello Standard
 66
   1
 39
0.000000
 70
    0
  0
VERTEX
  8
0
 10
55.92682366
 20
-26.06342413
  0
VERTEX
  8
0
 10
56.44011533
 20
-25.86763246
  0
VERTEX
  8
0
 10
56.21786533
 20
-25.73534079
  0
VERTEX
  8
0
 10
56.44540700
 20
-25.54484079
  0
VERTEX
  8
0
 10
55.95328200
 20
-25.43371579
  0
SEQEND
  0
POLYLINE
  8
Livello Standard
 66
   1
 39
0.000000
 70
    0
  0
VERTEX
  8
0
 10
56.03794866
 20
-24.96804913
  0
VERTEX
  8
0
 10
55.98505701
 20
-24.97373238
  0
VERTEX
  8
0
 10
55.93958285
 20
-24.99479350
  0
VERTEX
  8
0
 10
55.86660240
 20
-25.07588308
  0
VERTEX
  8
0
 10
55.85010685
 20
-25.14176209
  0
VERTEX
  8
0
 10
55.87402173
 20
-25.20023367
  0
VERTEX
  8
0
 10
55.92488712
 20
-25.24505143
  0
VERTEX
  8
0
 10
55.98924305
 20
-25.26996901
  0
VERTEX
  8
0
 10
56.10288853
 20
-25.29748885
  0
VERTEX
  8
0
 10
56.16010668
 20
-25.30527732
  0
VERTEX
  8
0
 10
56.21751757
 20
-25.30000367
  0
VERTEX
  8
0
 10
56.34753908
 20
-25.24824391
  0
VERTEX
  8
0
 10
56.40201127
 20
-25.20617453
  0
VERTEX
  8
0
 10
56.44645375
 20
-25.15064817
  0
VERTEX
  8
0
 10
56.46072012
 20
-25.08489225
  0
VERTEX
  8
0
 10
56.43474295
 20
-25.02135242
  0
VERTEX
  8
0
 10
56.38554840
 20
-24.96508917
  0
VERTEX
  8
0
 10
56.33016265
 20
-24.92116299
  0
VERTEX
  8
0
 10
56.27039727
 20
-24.90298588
  0
VERTEX
  8
0
 10
56.20412972
 20
-24.91492439
  0
VERTEX
  8
0
 10
56.14999713
 20
-24.95360228
  0
VERTEX
  8
0
 10
56.12663668
 20
-25.01564329
  0
VERTEX
  8
0
 10
56.12122284
 20
-25.16012791
  0
VERTEX
  8
0
 10
56.13154207
 20
-25.30173517
  0
SEQEND
  0
POLYLINE
  8
Livello Standard
 66
   1
 39
0.000000
 70
    0
  0
VERTEX
  8
0
 10
61.61517357
 20
-25.85017047
  0
VERTEX
  8
0
 10
62.12846524
 20
-25.65437880
  0
VERTEX
  8
0
 10
61.90621524
 20
-25.52208713
  0
VERTEX
  8
0
 10
62.13375691
 20
-25.33158713
  0
VERTEX
  8
0
 10
61.64163191
 20
-25.22046213
  0
SEQEND
  0
POLYLINE
  8
Livello Standard
 66
   1
 39
0.000000
 70
    0
  0
VERTEX
  8
0
 10
61.72629857
 20
-24.75479547
  0
VERTEX
  8
0
 10
61.67340692
 20
-24.76047872
  0
VERTEX
  8
0
 10
61.62793276
 20
-24.78153984
  0
VERTEX
  8
0
 10
61.55495231
 20
-24.86262942
  0
VERTEX
  8
0
 10
61.53845676
 20
-24.92850843
  0
VERTEX
  8
0
 10
61.56237164
 20
-24.98698001
  0
VERTEX
  8
0
 10
61.61323702
 20
-25.03179777
  0
VERTEX
  8
0
 10
61.67759296
 20
-25.05671535
  0
VERTEX
  8
0
 10
61.79123844
 20
-25.08423519
  0
VERTEX
  8
0
 10
61.84845659
 20
-25.09202366
  0
VERTEX
  8
0
 10
61.90586748
 20
-25.08675002
  0
VERTEX
  8
0
 10
62.03588899
 20
-25.03499025
  0
VERTEX
  8
0
 10
62.09036118
 20
-24.99292087
  0
VERTEX
  8
0
 10
62.13480366
 20
-24.93739451
  0
VERTEX
  8
0
 10
62.14907003
 20
-24.87163859
  0
VERTEX
  8
0
 10
62.12309286
 20
-24.80809876
  0
VERTEX
  8
0
 10
62.07389831
 20
-24.75183551
  0
VERTEX
  8
0
 10
62.01851256
 20
-24.70790933
  0
VERTEX
  8
0
 10
61.95874718
 20
-24.68973222
  0
VERTEX
  8
0
 10
61.89247962
 20
-24.70167073
  0
VERTEX
  8
0
 10
61.83834704
 20
-24.74034862
  0
VERTEX
  8
0
 10
61.81498659
 20
-24.80238963
  0
VERTEX
  8
0
 10
61.80957275
 20
-24.94687425
  0
VERTEX
  8
0
 10
61.81989198
 20
-25.08848151
  0
SEQEND
  0
POLYLINE
  8
Livello Standard
 66
   1
 39
0.000000
 70
    0
  0
VERTEX
  8
0
 10
58.68359024
 20
-27.16250380
  0
VERTEX
  8
0
 10
59.15984024
 20
-26.96671213
  0
VERTEX
  8
0
 10
58.95875691
 20
-26.85029547
  0
VERTEX
  8
0
 10
59.17571524
 20
-26.68625380
  0
VERTEX
  8
0
 10
58.70475691
 20
-26.52750380
  0
SEQEND
  0
POLYLINE
  8
Livello Standard
 66
   1
 39
0.000000
 70
    0
  0
VERTEX
  8
0
 10
58.72063191
 20
-26.06183713
  0
VERTEX
  8
0
 10
58.72063191
 20
-26.32642047
  0
VERTEX
  8
0
 10
58.94288191
 20
-26.32112880
  0
VERTEX
  8
0
 10
58.94288191
 20
-26.27879547
  0
VERTEX
  8
0
 10
58.93759024
 20
-26.09358713
  0
VERTEX
  8
0
 10
59.19688191
 20
-26.10946213
  0
VERTEX
  8
0
 10
59.19159024
 20
-26.44812880
  0
VERTEX
  8
0
 10
59.08575691
 20
-26.45871213
  0
SEQEND
  0
POLYLINE
  8
Livello Standard
 66
   1
 39
0.000000
 70
    0
  0
VERTEX
  8
0
 10
53.09559024
 20
-28.00917047
  0
VERTEX
  8
0
 10
53.57184024
 20
-27.81337880
  0
VERTEX
  8
0
 10
53.37075691
 20
-27.69696213
  0
VERTEX
  8
0
 10
53.58771524
 20
-27.53292047
  0
VERTEX
  8
0
 10
53.11675691
 20
-27.37417047
  0
SEQEND
  0
POLYLINE
  8
Livello Standard
 66
   1
 39
0.000000
 70
    0
  0
VERTEX
  8
0
 10
53.49775691
 20
-27.30537880
  0
VERTEX
  8
0
 10
53.60359024
 20
-27.29479547
  0
VERTEX
  8
0
 10
53.60888191
 20
-26.95612880
  0
VERTEX
  8
0
 10
53.34959024
 20
-26.94025380
  0
VERTEX
  8
0
 10
53.35488191
 20
-27.12546213
  0
VERTEX
  8
0
 10
53.35488191
 20
-27.16779547
  0
VERTEX
  8
0
 10
53.13263191
 20
-27.17308713
  0
VERTEX
  8
0
 10
53.13263191
 20
-26.90850380
  0
SEQEND
  0
POLYLINE
  8
Livello Standard
 66
   1
 39
0.000000
 70
    0
  0
VERTEX
  8
0
 10
41.31280739
 20
-36.62707740
  0
VERTEX
  8
0
 10
41.42306083
 20
-36.62707740
  0
VERTEX
  8
0
 10
41.87814417
 20
-36.62707740
  0
VERTEX
  8
0
 10
41.84639417
 20
-37.45257740
 42
0.13633377
  0
VERTEX
  8
0
 10
43.25397750
 20
-37.30441073
  0
VERTEX
  8
0
 10
43.25397750
 20
-36.73291073
  0
VERTEX
  8
0
 10
43.71964417
 20
-36.75407740
  0
VERTEX
  8
0
 10
43.76197750
 20
-37.19857740
 42
0.10687331
  0
VERTEX
  8
0
 10
44.82031083
 20
-36.47891073
  0
VERTEX
  8
0
 10
44.56631083
 20
-35.97091073
  0
VERTEX
  8
0
 10
44.82031083
 20
-35.78041073
  0
VERTEX
  8
0
 10
45.15897750
 20
-36.22491073
 42
0.19588722
  0
VERTEX
  8
0
 10
45.89981083
 20
-34.51041073
  0
VERTEX
  8
0
 10
45.58231083
 20
-34.51041073
  0
VERTEX
  8
0
 10
45.58231083
 20
-34.08707740
  0
VERTEX
  8
0
 10
46.00564417
 20
-34.08707740
  0
VERTEX
  8
0
 10
46.00564417
 20
-32.26674407
  0
VERTEX
  8
0
 10
45.60347750
 20
-32.26674407
  0
VERTEX
  8
0
 10
45.56114417
 20
-31.82224407
  0
VERTEX
  8
0
 10
46.00564417
 20
-31.82224407
 42
0.11728978
  0
VERTEX
  8
0
 10
45.56114417
 20
-29.47274407
  0
VERTEX
  8
0
 10
45.09547750
 20
-29.57857740
  0
VERTEX
  8
0
 10
45.01081083
 20
-29.15524407
  0
VERTEX
  8
0
 10
45.41297750
 20
-29.02824407
 42
0.20029068
  0
VERTEX
  8
0
 10
44.46047750
 20
-27.54657740
  0
VERTEX
  8
0
 10
44.16414417
 20
-27.86407740
  0
VERTEX
  8
0
 10
43.82547750
 20
-27.54657740
  0
VERTEX
  8
0
 10
44.18531083
 20
-27.22907740
 42
0.25659881
  0
VERTEX
  8
0
 10
42.00514417
 20
-26.31891073
  0
VERTEX
  8
0
 10
42.00514417
 20
-27.33491073
  0
VERTEX
  8
0
 10
41.43364417
 20
-27.33491073
  0
VERTEX
  8
0
 10
41.40195758
 20
-27.33491073
  0
VERTEX
  8
0
 10
41.39081999
 20
-27.33491073
  0
SEQEND
  0
POLYLINE
  8
Livello Standard
 66
   1
 39
0.000000
 70
    1
  0
VERTEX
  8
0
 10
113.23555638
 20
-45.22719856
  0
VERTEX
  8
0
 10
115.66972305
 20
-43.40686523
 42
-0.03589889
  0
VERTEX
  8
0
 10
114.68547305
 20
-34.68090689
  0
VERTEX
  8
0
 10
114.44205638
 20
-25.47869856
 42
0.15184928
  0
VERTEX
  8
0
 10
113.59538972
 20
-27.46836523
  0
VERTEX
  8
0
 10
113.59538972
 20
-34.64386523
  0
VERTEX
  8
0
 10
114.06105638
 20
-41.57594856
 42
-0.15936509
  0
VERTEX
  8
0
 10
113.23555638
 20
-45.22719856
  0
SEQEND
  0
POLYLINE
  8
Livello Standard
 66
   1
 39
0.000000
 70
    1
  0
VERTEX
  8
0
 10
82.90303615
 20
-33.76650050
 42
-0.03276528
  0
VERTEX
  8
0
 10
81.68595281
 20
-27.37416717
  0
VERTEX
  8
0
 10
82.17278615
 20
-27.38475050
  0
VERTEX
  8
0
 10
82.19395281
 20
-26.96141717
  0
VERTEX
  8
0
 10
81.63303615
 20
-26.96141717
 42
-0.06306411
  0
VERTEX
  8
0
 10
80.96628615
 20
-16.79083384
  0
VERTEX
  8
0
 10
81.45311948
 20
-16.79083384
  0
VERTEX
  8
0
 10
81.47428615
 20
-16.34633384
  0
VERTEX
  8
0
 10
81.04036948
 20
-16.34633384
 42
-0.09403255
  0
VERTEX
  8
0
 10
82.12516115
 20
-10.65250050
  0
VERTEX
  8
0
 10
82.62257781
 20
-11.05466717
  0
VERTEX
  8
0
 10
83.10411948
 20
-10.65250050
  0
VERTEX
  8
0
 10
83.20995281
 20
-20.63258384
  0
VERTEX
  8
0
 10
82.67020281
 20
-20.62200050
  0
VERTEX
  8
0
 10
82.67020281
 20
-21.08766717
  0
VERTEX
  8
0
 10
83.20995281
 20
-21.08766717
  0
VERTEX
  8
0
 10
83.30520281
 20
-33.76650050
  0
VERTEX
  8
0
 10
82.90303615
 20
-33.76650050
  0
SEQEND
  0
POLYLINE
  8
Livello Standard
 66
   1
 39
0.000000
 70
    1
  0
VERTEX
  8
0
 10
86.30624422
 20
-34.61367896
  0
VERTEX
  8
0
 10
86.70841089
 20
-34.61367896
  0
VERTEX
  8
0
 10
86.61316089
 20
-21.93484563
  0
VERTEX
  8
0
 10
86.07341089
 20
-21.93484563
  0
VERTEX
  8
0
 10
86.07341089
 20
-21.46917896
  0
VERTEX
  8
0
 10
86.61316089
 20
-21.47976230
  0
VERTEX
  8
0
 10
86.50732755
 20
-11.49967896
  0
VERTEX
  8
0
 10
86.02578589
 20
-11.90184563
  0
VERTEX
  8
0
 10
85.52836922
 20
-11.49967896
 42
0.09403255
  0
VERTEX
  8
0
 10
84.44357755
 20
-17.19351230
  0
VERTEX
  8
0
 10
84.87749422
 20
-17.19351230
  0
VERTEX
  8
0
 10
84.85632755
 20
-17.63801230
  0
VERTEX
  8
0
 10
84.36949422
 20
-17.63801230
 42
0.06306411
  0
VERTEX
  8
0
 10
85.03624422
 20
-27.80859563
  0
VERTEX
  8
0
 10
85.59716089
 20
-27.80859563
  0
VERTEX
  8
0
 10
85.57599422
 20
-28.23192896
  0
VERTEX
  8
0
 10
85.08916089
 20
-28.22134563
 42
0.03276528
  0
VERTEX
  8
0
 10
86.30624422
 20
-34.61367896
  0
SEQEND
  0
POLYLINE
  8
Livello Standard
 66
   1
 39
0.000000
 70
    1
  0
VERTEX
  8
0
 10
89.63999422
 20
-32.75630396
 42
-0.02327329
  0
VERTEX
  8
0
 10
88.44407755
 20
-26.82963730
  0
VERTEX
  8
0
 10
88.92032755
 20
-26.81905396
  0
VERTEX
  8
0
 10
88.92032755
 20
-26.37455396
  0
VERTEX
  8
0
 10
88.39116089
 20
-26.37455396
 42
-0.08397329
  0
VERTEX
  8
0
 10
87.85141089
 20
-17.09826230
  0
VERTEX
  8
0
 10
88.34353589
 20
-17.10355396
  0
VERTEX
  8
0
 10
88.35411922
 20
-16.59555396
  0
VERTEX
  8
0
 10
87.85141089
 20
-16.59555396
 42
-0.07896817
  0
VERTEX
  8
0
 10
88.72982755
 20
-11.38855396
  0
VERTEX
  8
0
 10
89.34366089
 20
-11.83305396
  0
VERTEX
  8
0
 10
89.83049422
 20
-11.38855396
  0
VERTEX
  8
0
 10
89.91516089
 20
-20.63838730
  0
VERTEX
  8
0
 10
89.57649422
 20
-20.59605396
  0
VERTEX
  8
0
 10
89.55532755
 20
-21.04055396
  0
VERTEX
  8
0
 10
89.91516089
 20
-21.04055396
  0
VERTEX
  8
0
 10
90.08449422
 20
-32.75630396
  0
VERTEX
  8
0
 10
89.63999422
 20
-32.75630396
  0
SEQEND
  0
POLYLINE
  8
Livello Standard
 66
   1
 39
0.000000
 70
    1
  0
VERTEX
  8
0
 10
78.26291089
 20
-33.50242896
 42
-0.02327329
  0
VERTEX
  8
0
 10
77.06699422
 20
-27.57576230
  0
VERTEX
  8
0
 10
77.54324422
 20
-27.56517896
  0
VERTEX
  8
0
 10
77.54324422
 20
-27.12067896
  0
VERTEX
  8
0
 10
77.01407755
 20
-27.12067896
 42
-0.08397329
  0
VERTEX
  8
0
 10
76.47432755
 20
-17.84438730
  0
VERTEX
  8
0
 10
76.96645255
 20
-17.84967896
  0
VERTEX
  8
0
 10
76.97703589
 20
-17.34167896
  0
VERTEX
  8
0
 10
76.47432755
 20
-17.34167896
 42
-0.07896817
  0
VERTEX
  8
0
 10
77.35274422
 20
-12.13467896
  0
VERTEX
  8
0
 10
77.96657755
 20
-12.57917896
  0
VERTEX
  8
0
 10
78.45341089
 20
-12.13467896
  0
VERTEX
  8
0
 10
78.53807755
 20
-21.38451230
  0
VERTEX
  8
0
 10
78.19941089
 20
-21.34217896
  0
VERTEX
  8
0
 10
78.17824422
 20
-21.78667896
  0
VERTEX
  8
0
 10
78.53807755
 20
-21.78667896
  0
VERTEX
  8
0
 10
78.70741089
 20
-33.50242896
  0
VERTEX
  8
0
 10
78.26291089
 20
-33.50242896
  0
SEQEND
  0
POLYLINE
  8
Livello Standard
 66
   1
 39
0.000000
 70
    1
  0
VERTEX
  8
0
 10
93.85755094
 20
-26.80108625
  0
VERTEX
  8
0
 10
95.80488427
 20
-24.70558625
  0
VERTEX
  8
0
 10
95.78371760
 20
-23.24508625
 42
0.28273480
  0
VERTEX
  8
0
 10
94.09038427
 20
-20.72625292
  0
VERTEX
  8
0
 10
93.97398983
 20
-20.67906774
  0
VERTEX
  8
0
 10
93.90751431
 20
-20.66485341
  0
VERTEX
  8
0
 10
93.87955710
 20
-20.67604717
  0
VERTEX
  8
0
 10
93.87871760
 20
-20.70508625
  0
VERTEX
  8
0
 10
94.53393010
 20
-23.30861410
  0
VERTEX
  8
0
 10
94.52524410
 20
-23.96548004
  0
VERTEX
  8
0
 10
94.49255094
 20
-24.62091959
 42
-0.03110145
  0
VERTEX
  8
0
 10
93.85755094
 20
-26.80108625
  0
SEQEND
  0
POLYLINE
  8
Livello Standard
 66
   1
 39
0.000000
 70
    1
  0
VERTEX
  8
0
 10
96.04844069
 20
-28.24678737
  0
VERTEX
  8
0
 10
97.99577403
 20
-26.15128737
  0
VERTEX
  8
0
 10
97.97460736
 20
-24.69078737
 42
0.28273480
  0
VERTEX
  8
0
 10
96.28127403
 20
-22.17195403
  0
VERTEX
  8
0
 10
96.16487959
 20
-22.12476885
  0
VERTEX
  8
0
 10
96.09840406
 20
-22.11055452
  0
VERTEX
  8
0
 10
96.07044686
 20
-22.12174828
  0
VERTEX
  8
0
 10
96.06960736
 20
-22.15078737
  0
VERTEX
  8
0
 10
96.72481986
 20
-24.75431522
  0
VERTEX
  8
0
 10
96.71613386
 20
-25.41118116
  0
VERTEX
  8
0
 10
96.68344069
 20
-26.06662070
 42
-0.03110145
  0
VERTEX
  8
0
 10
96.04844069
 20
-28.24678737
  0
SEQEND
  0
POLYLINE
  8
Livello Standard
 66
   1
 39
0.000000
 70
    1
  0
VERTEX
  8
0
 10
122.78463672
 20
-135.69634670
 42
-0.11134726
  0
VERTEX
  8
0
 10
120.83730338
 20
-124.60501337
 42
-0.04069830
  0
VERTEX
  8
0
 10
123.14447005
 20
-108.70884670
  0
VERTEX
  8
0
 10
123.56780338
 20
-108.70884670
  0
VERTEX
  8
0
 10
123.74772005
 20
-109.51318004
 42
0.06341033
  0
VERTEX
  8
0
 10
121.93797005
 20
-124.60501337
 42
0.21153007
  0
VERTEX
  8
0
 10
125.28230338
 20
-135.69634670
  0
VERTEX
  8
0
 10
122.78463672
 20
-135.69634670
  0
SEQEND
  0
POLYLINE
  8
Livello Standard
 66
   1
 39
0.000000
 70
    1
  0
VERTEX
  8
0
 10
136.66997005
 20
-143.65501337
  0
VERTEX
  8
0
 10
139.16763672
 20
-143.65501337
 42
-0.21153007
  0
VERTEX
  8
0
 10
135.82330338
 20
-132.56368004
 42
-0.06341033
  0
VERTEX
  8
0
 10
137.63305338
 20
-117.47184670
  0
VERTEX
  8
0
 10
137.45313672
 20
-116.66751337
  0
VERTEX
  8
0
 10
137.02980338
 20
-116.66751337
 42
0.04069830
  0
VERTEX
  8
0
 10
134.72263672
 20
-132.56368004
 42
0.11134726
  0
VERTEX
  8
0
 10
136.66997005
 20
-143.65501337
  0
SEQEND
  0
POLYLINE
  8
Livello Standard
 66
   1
 39
0.000000
 70
    1
  0
VERTEX
  8
0
 10
113.03171801
 20
-23.62955836
  0
VERTEX
  8
0
 10
112.84121801
 20
-7.57464169
  0
VERTEX
  8
0
 10
110.83038468
 20
-6.68564169
 42
-0.15726654
  0
VERTEX
  8
0
 10
111.74055135
 20
-8.78114169
  0
VERTEX
  8
0
 10
111.95221801
 20
-19.57614169
 42
0.13637991
  0
VERTEX
  8
0
 10
113.03171801
 20
-23.62955836
  0
SEQEND
  0
POLYLINE
  8
Livello Standard
 66
   1
 39
0.000000
 70
    1
  0
VERTEX
  8
0
 10
126.27736303
 20
-77.06553404
 42
-0.24398962
  0
VERTEX
  8
0
 10
129.79102970
 20
-70.84253404
  0
VERTEX
  8
0
 10
126.40436303
 20
-71.32936737
  0
VERTEX
  8
0
 10
126.27736303
 20
-77.06553404
  0
SEQEND
  0
POLYLINE
  8
Livello Standard
 66
   1
 39
0.000000
 70
    1
  0
VERTEX
  8
0
 10
114.44802267
 20
-87.63296828
 42
-0.24398962
  0
VERTEX
  8
0
 10
117.96168934
 20
-81.40996828
  0
VERTEX
  8
0
 10
114.57502267
 20
-81.89680162
  0
VERTEX
  8
0
 10
114.44802267
 20
-87.63296828
  0
SEQEND
  0
POLYLINE
  8
Livello Standard
 66
   1
 39
0.000000
 70
    1
  0
VERTEX
  8
0
 10
129.15817212
 20
-78.49966380
  0
VERTEX
  8
0
 10
134.95852267
 20
-78.49955162
 42
-0.07337334
  0
VERTEX
  8
0
 10
135.72052267
 20
-83.85471828
  0
VERTEX
  8
0
 10
128.39617212
 20
-83.85483046
 42
-0.07337334
  0
VERTEX
  8
0
 10
129.15817212
 20
-78.49966380
  0
SEQEND
  0
POLYLINE
  8
Livello Standard
 66
   1
 39
0.000000
 70
    1
  0
VERTEX
  8
0
 10
129.03963376
 20
-85.29416380
  0
VERTEX
  8
0
 10
130.03446710
 20
-85.29416380
  0
VERTEX
  8
0
 10
129.03963376
 20
-85.29416380
  0
SEQEND
  0
POLYLINE
  8
Livello Standard
 66
   1
 39
0.000000
 70
    1
  0
VERTEX
  8
0
 10
126.39110481
 20
-101.20979931
  0
VERTEX
  8
0
 10
124.11883947
 20
-101.20979931
 42
-0.05906258
  0
VERTEX
  8
0
 10
123.48383947
 20
-97.50563264
  0
VERTEX
  8
0
 10
123.48383947
 20
-96.02396598
 42
-0.28909402
  0
VERTEX
  8
0
 10
126.10850614
 20
-93.27229931
  0
VERTEX
  8
0
 10
126.39044415
 20
-93.27227267
  0
VERTEX
  8
0
 10
127.17361082
 20
-93.27227267
 42
-0.28909402
  0
VERTEX
  8
0
 10
129.79827749
 20
-96.02393933
  0
VERTEX
  8
0
 10
129.79827749
 20
-97.50560600
 42
-0.05906258
  0
VERTEX
  8
0
 10
129.16327749
 20
-101.20977267
  0
VERTEX
  8
0
 10
126.43277749
 20
-101.20977267
  0
VERTEX
  8
0
 10
126.39110481
 20
-101.20979931
  0
SEQEND
  0
POLYLINE
  8
Livello Standard
 66
   1
 39
0.000000
 70
    1
  0
VERTEX
  8
0
 10
133.23628688
 20
-110.35702316
  0
VERTEX
  8
0
 10
133.09870355
 20
-109.43627316
  0
VERTEX
  8
0
 10
133.23628688
 20
-108.72718983
 42
-0.26713737
  0
VERTEX
  8
0
 10
134.51687021
 20
-107.09735650
  0
VERTEX
  8
0
 10
135.31835601
 20
-107.09571828
 42
-0.26713737
  0
VERTEX
  8
0
 10
136.59893934
 20
-108.72555162
  0
VERTEX
  8
0
 10
136.73652267
 20
-109.43463495
  0
VERTEX
  8
0
 10
136.59893934
 20
-110.35538495
 42
-0.20645087
  0
VERTEX
  8
0
 10
135.86868934
 20
-111.94288495
  0
VERTEX
  8
0
 10
133.96653688
 20
-111.94452316
 42
-0.20645087
  0
VERTEX
  8
0
 10
133.23628688
 20
-110.35702316
  0
SEQEND
  0
POLYLINE
  8
Livello Standard
 66
   1
 39
0.000000
 70
    1
  0
VERTEX
  8
0
 10
136.54602267
 20
-105.95271828
  0
VERTEX
  8
0
 10
136.22852267
 20
-106.41838495
  0
VERTEX
  8
0
 10
136.54602267
 20
-106.63005162
  0
VERTEX
  8
0
 10
136.86352267
 20
-106.27021828
 42
-0.21521184
  0
VERTEX
  8
0
 10
137.68902267
 20
-107.11688495
  0
VERTEX
  8
0
 10
137.28685601
 20
-107.49788495
  0
VERTEX
  8
0
 10
137.60435601
 20
-107.75188495
  0
VERTEX
  8
0
 10
137.90068934
 20
-107.51905162
 42
-0.16572357
  0
VERTEX
  8
0
 10
138.38752267
 20
-109.40288495
  0
VERTEX
  8
0
 10
137.92185601
 20
-109.40288495
  0
VERTEX
  8
0
 10
137.94302267
 20
-109.88971828
  0
VERTEX
  8
0
 10
138.38752267
 20
-109.82621828
 42
-0.11559615
  0
VERTEX
  8
0
 10
138.38752267
 20
-111.32905162
  0
VERTEX
  8
0
 10
137.77368934
 20
-111.22321828
  0
VERTEX
  8
0
 10
137.77368934
 20
-111.54071828
  0
VERTEX
  8
0
 10
138.19702267
 20
-111.77355162
 42
-0.32130106
  0
VERTEX
  8
0
 10
137.22335601
 20
-112.91655162
  0
VERTEX
  8
0
 10
136.86352267
 20
-112.51438495
  0
VERTEX
  8
0
 10
136.48252267
 20
-112.70488495
  0
VERTEX
  8
0
 10
136.77885601
 20
-113.17055162
 42
-0.11360180
  0
VERTEX
  8
0
 10
135.29718934
 20
-113.65738495
  0
VERTEX
  8
0
 10
135.23368934
 20
-112.87421828
  0
VERTEX
  8
0
 10
134.76802267
 20
-112.87421828
  0
VERTEX
  8
0
 10
134.60154738
 20
-112.87503739
  0
VERTEX
  8
0
 10
134.68622914
 20
-106.27103739
  0
VERTEX
  8
0
 10
135.14902267
 20
-106.27021828
  0
VERTEX
  8
0
 10
135.12785601
 20
-105.59288495
 42
-0.21463469
  0
VERTEX
  8
0
 10
136.54602267
 20
-105.95271828
  0
SEQEND
  0
POLYLINE
  8
Livello Standard
 66
   1
 39
0.000000
 70
    1
  0
VERTEX
  8
0
 10
115.78249396
 20
-5.78128421
  0
VERTEX
  8
0
 10
116.75616063
 20
-5.44261755
  0
VERTEX
  8
0
 10
117.05249396
 20
-24.13278421
  0
VERTEX
  8
0
 10
115.88832729
 20
-23.47661755
  0
VERTEX
  8
0
 10
115.78249396
 20
-5.78128421
  0
SEQEND
  0
POLYLINE
  8
Livello Standard
 66
   1
 39
0.000000
 70
    1
  0
VERTEX
  8
0
 10
95.58930715
 20
-13.17473571
  0
VERTEX
  8
0
 10
97.51547381
 20
-15.79940238
  0
VERTEX
  8
0
 10
97.62130715
 20
-18.36056905
  0
VERTEX
  8
0
 10
95.97030715
 20
-19.14373571
  0
VERTEX
  8
0
 10
96.30897381
 20
-17.53506905
  0
VERTEX
  8
0
 10
96.30897381
 20
-15.82056905
  0
VERTEX
  8
0
 10
95.90680715
 20
-14.19073571
  0
VERTEX
  8
0
 10
95.58930715
 20
-13.17473571
  0
SEQEND
  0
POLYLINE
  8
Livello Standard
 66
   1
 39
0.000000
 70
    1
  0
VERTEX
  8
0
 10
93.93540766
 20
-13.06858487
  0
VERTEX
  8
0
 10
95.86157433
 20
-15.69325153
  0
VERTEX
  8
0
 10
95.96740766
 20
-18.25441820
  0
VERTEX
  8
0
 10
94.31640766
 20
-19.03758487
  0
VERTEX
  8
0
 10
94.65507433
 20
-17.42891820
  0
VERTEX
  8
0
 10
94.65507433
 20
-15.71441820
  0
VERTEX
  8
0
 10
94.25290766
 20
-14.08458487
  0
VERTEX
  8
0
 10
93.93540766
 20
-13.06858487
  0
SEQEND
  0
POLYLINE
  8
Livello Standard
 66
   1
 39
0.000000
 70
    1
  0
VERTEX
  8
0
 10
25.27339870
 20
-89.51529386
 42
0.08406080
  0
VERTEX
  8
0
 10
24.95274695
 20
-87.84102098
  0
VERTEX
  8
0
 10
24.94227790
 20
-87.68167609
  0
VERTEX
  8
0
 10
24.91645490
 20
-87.52704104
  0
VERTEX
  8
0
 10
24.87604868
 20
-87.37788446
  0
VERTEX
  8
0
 10
24.82183000
 20
-87.23497496
  0
VERTEX
  8
0
 10
24.67503815
 20
-86.97097175
  0
VERTEX
  8
0
 10
24.48224526
 20
-86.74118042
  0
VERTEX
  8
0
 10
24.24961725
 20
-86.55174999
  0
VERTEX
  8
0
 10
23.98332000
 20
-86.40882947
  0
VERTEX
  8
0
 10
23.83947226
 20
-86.35673200
  0
VERTEX
  8
0
 10
23.68951943
 20
-86.31856788
  0
VERTEX
  8
0
 10
23.53423225
 20
-86.29510576
  0
VERTEX
  8
0
 10
23.37438144
 20
-86.28711424
  0
VERTEX
  8
0
 10
23.21293787
 20
-86.29526644
  0
VERTEX
  8
0
 10
23.05615787
 20
-86.31919391
  0
VERTEX
  8
0
 10
22.90483515
 20
-86.35810296
  0
VERTEX
  8
0
 10
22.75976339
 20
-86.41119989
  0
VERTEX
  8
0
 10
22.49154753
 20
-86.55678264
  0
VERTEX
  8
0
 10
22.25785984
 20
-86.74959263
  0
VERTEX
  8
0
 10
22.06504985
 20
-86.98328033
  0
VERTEX
  8
0
 10
21.91946709
 20
-87.25149618
  0
VERTEX
  8
0
 10
21.86637016
 20
-87.39656794
  0
VERTEX
  8
0
 10
21.82746111
 20
-87.54789067
  0
VERTEX
  8
0
 10
21.80353364
 20
-87.70467066
  0
VERTEX
  8
0
 10
21.79538144
 20
-87.86611424
  0
VERTEX
  8
0
 10
21.79546739
 20
-87.86951303
 42
0.07687235
  0
VERTEX
  8
0
 10
21.47398203
 20
-89.19779386
  0
VERTEX
  8
0
 10
21.34698203
 20
-92.11879386
  0
VERTEX
  8
0
 10
25.27339870
 20
-92.15054386
  0
VERTEX
  8
0
 10
25.27339870
 20
-89.51529386
  0
SEQEND
  0
POLYLINE
  8
Livello Standard
 66
   1
 39
0.000000
 70
    1
  0
VERTEX
  8
0
 10
58.70873203
 20
-78.67766886
  0
VERTEX
  8
0
 10
58.70973203
 20
-78.67866886
  0
VERTEX
  8
0
 10
58.71073203
 20
-78.67766886
  0
VERTEX
  8
0
 10
58.70973203
 20
-78.67666886
  0
VERTEX
  8
0
 10
58.70873203
 20
-78.67766886
  0
SEQEND
  0
POLYLINE
  8
Livello Standard
 66
   1
 39
0.000000
 70
    1
  0
VERTEX
  8
0
 10
55.60873203
 20
-78.29166886
  0
VERTEX
  8
0
 10
55.62422069
 20
-78.59840143
  0
VERTEX
  8
0
 10
55.66968136
 20
-78.89627350
  0
VERTEX
  8
0
 10
55.74360609
 20
-79.18377709
  0
VERTEX
  8
0
 10
55.84448690
 20
-79.45940425
  0
VERTEX
  8
0
 10
55.97081583
 20
-79.72164700
  0
VERTEX
  8
0
 10
56.12108491
 20
-79.96899739
  0
VERTEX
  8
0
 10
56.29378618
 20
-80.19994744
  0
VERTEX
  8
0
 10
56.48741168
 20
-80.41298920
  0
VERTEX
  8
0
 10
56.70045344
 20
-80.60661470
  0
VERTEX
  8
0
 10
56.93140350
 20
-80.77931598
  0
VERTEX
  8
0
 10
57.17875389
 20
-80.92958506
  0
VERTEX
  8
0
 10
57.44099664
 20
-81.05591399
  0
VERTEX
  8
0
 10
57.71662380
 20
-81.15679480
  0
VERTEX
  8
0
 10
58.00412739
 20
-81.23071952
  0
VERTEX
  8
0
 10
58.30199945
 20
-81.27618020
  0
VERTEX
  8
0
 10
58.60873203
 20
-81.29166886
  0
VERTEX
  8
0
 10
58.91546460
 20
-81.27618020
  0
VERTEX
  8
0
 10
59.21333666
 20
-81.23071952
  0
VERTEX
  8
0
 10
59.50084026
 20
-81.15679480
  0
VERTEX
  8
0
 10
59.77646741
 20
-81.05591399
  0
VERTEX
  8
0
 10
60.03871017
 20
-80.92958506
  0
VERTEX
  8
0
 10
60.28606055
 20
-80.77931598
  0
VERTEX
  8
0
 10
60.51701061
 20
-80.60661470
  0
VERTEX
  8
0
 10
60.73005237
 20
-80.41298920
  0
VERTEX
  8
0
 10
60.92367787
 20
-80.19994744
  0
VERTEX
  8
0
 10
61.09637914
 20
-79.96899739
  0
VERTEX
  8
0
 10
61.24664823
 20
-79.72164700
  0
VERTEX
  8
0
 10
61.37297716
 20
-79.45940425
  0
VERTEX
  8
0
 10
61.47385796
 20
-79.18377709
  0
VERTEX
  8
0
 10
61.54778269
 20
-78.89627350
  0
VERTEX
  8
0
 10
61.59324336
 20
-78.59840143
  0
VERTEX
  8
0
 10
61.60873203
 20
-78.29166886
  0
VERTEX
  8
0
 10
61.59324336
 20
-77.98493629
  0
VERTEX
  8
0
 10
61.54778269
 20
-77.68706422
  0
VERTEX
  8
0
 10
61.47385796
 20
-77.39956063
  0
VERTEX
  8
0
 10
61.37297716
 20
-77.12393347
  0
VERTEX
  8
0
 10
61.24664823
 20
-76.86169072
  0
VERTEX
  8
0
 10
61.09637914
 20
-76.61434033
  0
VERTEX
  8
0
 10
60.92367787
 20
-76.38339028
  0
VERTEX
  8
0
 10
60.73005237
 20
-76.17034852
  0
VERTEX
  8
0
 10
60.51701061
 20
-75.97672302
  0
VERTEX
  8
0
 10
60.28606055
 20
-75.80402174
  0
VERTEX
  8
0
 10
60.03871017
 20
-75.65375266
  0
VERTEX
  8
0
 10
59.77646741
 20
-75.52742373
  0
VERTEX
  8
0
 10
59.50084026
 20
-75.42654292
  0
VERTEX
  8
0
 10
59.21333666
 20
-75.35261820
  0
VERTEX
  8
0
 10
58.91546460
 20
-75.30715752
  0
VERTEX
  8
0
 10
58.60873203
 20
-75.29166886
  0
VERTEX
  8
0
 10
58.30199945
 20
-75.30715752
  0
VERTEX
  8
0
 10
58.00412739
 20
-75.35261820
  0
VERTEX
  8
0
 10
57.71662380
 20
-75.42654292
  0
VERTEX
  8
0
 10
57.44099664
 20
-75.52742373
  0
VERTEX
  8
0
 10
57.17875389
 20
-75.65375266
  0
VERTEX
  8
0
 10
56.93140350
 20
-75.80402174
  0
VERTEX
  8
0
 10
56.70045344
 20
-75.97672302
  0
VERTEX
  8
0
 10
56.48741168
 20
-76.17034852
  0
VERTEX
  8
0
 10
56.29378618
 20
-76.38339028
  0
VERTEX
  8
0
 10
56.12108491
 20
-76.61434033
  0
VERTEX
  8
0
 10
55.97081583
 20
-76.86169072
  0
VERTEX
  8
0
 10
55.84448690
 20
-77.12393347
  0
VERTEX
  8
0
 10
55.74360609
 20
-77.39956063
  0
VERTEX
  8
0
 10
55.66968136
 20
-77.68706422
  0
VERTEX
  8
0
 10
55.62422069
 20
-77.98493629
  0
VERTEX
  8
0
 10
55.60873203
 20
-78.29166886
  0
SEQEND
  0
POLYLINE
  8
Livello Standard
 66
   1
 39
0.000000
 70
    1
  0
VERTEX
  8
0
 10
57.10873203
 20
-78.29166886
  0
VERTEX
  8
0
 10
57.11647636
 20
-78.44503515
  0
VERTEX
  8
0
 10
57.13920670
 20
-78.59397118
  0
VERTEX
  8
0
 10
57.22660946
 20
-78.87553655
  0
VERTEX
  8
0
 10
57.36490847
 20
-79.13033312
  0
VERTEX
  8
0
 10
57.54807185
 20
-79.35232903
  0
VERTEX
  8
0
 10
57.77006776
 20
-79.53549242
  0
VERTEX
  8
0
 10
58.02486433
 20
-79.67379142
  0
VERTEX
  8
0
 10
58.30642971
 20
-79.76119419
  0
VERTEX
  8
0
 10
58.45536574
 20
-79.78392453
  0
VERTEX
  8
0
 10
58.60873203
 20
-79.79166886
  0
VERTEX
  8
0
 10
58.76209831
 20
-79.78392453
  0
VERTEX
  8
0
 10
58.91103435
 20
-79.76119419
  0
VERTEX
  8
0
 10
59.19259972
 20
-79.67379142
  0
VERTEX
  8
0
 10
59.44739629
 20
-79.53549242
  0
VERTEX
  8
0
 10
59.66939220
 20
-79.35232903
  0
VERTEX
  8
0
 10
59.85255558
 20
-79.13033312
  0
VERTEX
  8
0
 10
59.99085459
 20
-78.87553655
  0
VERTEX
  8
0
 10
60.07825736
 20
-78.59397118
  0
VERTEX
  8
0
 10
60.10098770
 20
-78.44503515
  0
VERTEX
  8
0
 10
60.10873203
 20
-78.29166886
  0
VERTEX
  8
0
 10
60.10098770
 20
-78.13830257
  0
VERTEX
  8
0
 10
60.07825736
 20
-77.98936654
  0
VERTEX
  8
0
 10
59.99085459
 20
-77.70780117
  0
VERTEX
  8
0
 10
59.85255558
 20
-77.45300460
  0
VERTEX
  8
0
 10
59.66939220
 20
-77.23100869
  0
VERTEX
  8
0
 10
59.44739629
 20
-77.04784530
  0
VERTEX
  8
0
 10
59.19259972
 20
-76.90954630
  0
VERTEX
  8
0
 10
58.91103435
 20
-76.82214353
  0
VERTEX
  8
0
 10
58.76209831
 20
-76.79941319
  0
VERTEX
  8
0
 10
58.60873203
 20
-76.79166886
  0
VERTEX
  8
0
 10
58.45536574
 20
-76.79941319
  0
VERTEX
  8
0
 10
58.30642971
 20
-76.82214353
  0
VERTEX
  8
0
 10
58.02486433
 20
-76.90954630
  0
VERTEX
  8
0
 10
57.77006776
 20
-77.04784530
  0
VERTEX
  8
0
 10
57.54807185
 20
-77.23100869
  0
VERTEX
  8
0
 10
57.36490847
 20
-77.45300460
  0
VERTEX
  8
0
 10
57.22660946
 20
-77.70780117
  0
VERTEX
  8
0
 10
57.13920670
 20
-77.98936654
  0
VERTEX
  8
0
 10
57.11647636
 20
-78.13830257
  0
VERTEX
  8
0
 10
57.10873203
 20
-78.29166886
  0
SEQEND
  0
POLYLINE
  8
Livello Standard
 66
   1
 39
0.000000
 70
    1
  0
VERTEX
  8
0
 10
45.66606536
 20
-99.15633553
  0
VERTEX
  8
0
 10
45.68155402
 20
-99.46306810
  0
VERTEX
  8
0
 10
45.72701470
 20
-99.76094016
  0
VERTEX
  8
0
 10
45.80093942
 20
-100.04844376
  0
VERTEX
  8
0
 10
45.90182023
 20
-100.32407091
  0
VERTEX
  8
0
 10
46.02814916
 20
-100.58631367
  0
VERTEX
  8
0
 10
46.17841824
 20
-100.83366405
  0
VERTEX
  8
0
 10
46.35111952
 20
-101.06461411
  0
VERTEX
  8
0
 10
46.54474502
 20
-101.27765587
  0
VERTEX
  8
0
 10
46.75778678
 20
-101.47128137
  0
VERTEX
  8
0
 10
46.98873683
 20
-101.64398264
  0
VERTEX
  8
0
 10
47.23608722
 20
-101.79425173
  0
VERTEX
  8
0
 10
47.49832997
 20
-101.92058066
  0
VERTEX
  8
0
 10
47.77395713
 20
-102.02146146
  0
VERTEX
  8
0
 10
48.06146072
 20
-102.09538619
  0
VERTEX
  8
0
 10
48.35933279
 20
-102.14084686
  0
VERTEX
  8
0
 10
48.66606536
 20
-102.15633553
  0
VERTEX
  8
0
 10
48.97279793
 20
-102.14084686
  0
VERTEX
  8
0
 10
49.27067000
 20
-102.09538619
  0
VERTEX
  8
0
 10
49.55817359
 20
-102.02146146
  0
VERTEX
  8
0
 10
49.83380075
 20
-101.92058066
  0
VERTEX
  8
0
 10
50.09604350
 20
-101.79425173
  0
VERTEX
  8
0
 10
50.34339389
 20
-101.64398264
  0
VERTEX
  8
0
 10
50.57434394
 20
-101.47128137
  0
VERTEX
  8
0
 10
50.78738570
 20
-101.27765587
  0
VERTEX
  8
0
 10
50.98101120
 20
-101.06461411
  0
VERTEX
  8
0
 10
51.15371248
 20
-100.83366405
  0
VERTEX
  8
0
 10
51.30398156
 20
-100.58631367
  0
VERTEX
  8
0
 10
51.43031049
 20
-100.32407091
  0
VERTEX
  8
0
 10
51.53119130
 20
-100.04844376
  0
VERTEX
  8
0
 10
51.60511602
 20
-99.76094016
  0
VERTEX
  8
0
 10
51.65057670
 20
-99.46306810
  0
VERTEX
  8
0
 10
51.66606536
 20
-99.15633553
  0
VERTEX
  8
0
 10
51.65057670
 20
-98.84960295
  0
VERTEX
  8
0
 10
51.60511602
 20
-98.55173089
  0
VERTEX
  8
0
 10
51.53119130
 20
-98.26422730
  0
VERTEX
  8
0
 10
51.43031049
 20
-97.98860014
  0
VERTEX
  8
0
 10
51.30398156
 20
-97.72635739
  0
VERTEX
  8
0
 10
51.15371248
 20
-97.47900700
  0
VERTEX
  8
0
 10
50.98101120
 20
-97.24805694
  0
VERTEX
  8
0
 10
50.78738570
 20
-97.03501518
  0
VERTEX
  8
0
 10
50.57434394
 20
-96.84138968
  0
VERTEX
  8
0
 10
50.34339389
 20
-96.66868841
  0
VERTEX
  8
0
 10
50.09604350
 20
-96.51841933
  0
VERTEX
  8
0
 10
49.83380075
 20
-96.39209040
  0
VERTEX
  8
0
 10
49.55817359
 20
-96.29120959
  0
VERTEX
  8
0
 10
49.27067000
 20
-96.21728486
  0
VERTEX
  8
0
 10
48.97279793
 20
-96.17182419
  0
VERTEX
  8
0
 10
48.66606536
 20
-96.15633553
  0
VERTEX
  8
0
 10
48.35933279
 20
-96.17182419
  0
VERTEX
  8
0
 10
48.06146072
 20
-96.21728486
  0
VERTEX
  8
0
 10
47.77395713
 20
-96.29120959
  0
VERTEX
  8
0
 10
47.49832997
 20
-96.39209040
  0
VERTEX
  8
0
 10
47.23608722
 20
-96.51841933
  0
VERTEX
  8
0
 10
46.98873683
 20
-96.66868841
  0
VERTEX
  8
0
 10
46.75778678
 20
-96.84138968
  0
VERTEX
  8
0
 10
46.54474502
 20
-97.03501518
  0
VERTEX
  8
0
 10
46.35111952
 20
-97.24805694
  0
VERTEX
  8
0
 10
46.17841824
 20
-97.47900700
  0
VERTEX
  8
0
 10
46.02814916
 20
-97.72635739
  0
VERTEX
  8
0
 10
45.90182023
 20
-97.98860014
  0
VERTEX
  8
0
 10
45.80093942
 20
-98.26422730
  0
VERTEX
  8
0
 10
45.72701470
 20
-98.55173089
  0
VERTEX
  8
0
 10
45.68155402
 20
-98.84960295
  0
VERTEX
  8
0
 10
45.66606536
 20
-99.15633553
  0
SEQEND
  0
POLYLINE
  8
Livello Standard
 66
   1
 39
0.000000
 70
    1
  0
VERTEX
  8
0
 10
47.16606536
 20
-99.15633553
  0
VERTEX
  8
0
 10
47.17380969
 20
-99.30970181
  0
VERTEX
  8
0
 10
47.19654003
 20
-99.45863785
  0
VERTEX
  8
0
 10
47.28394280
 20
-99.74020322
  0
VERTEX
  8
0
 10
47.42224180
 20
-99.99499979
  0
VERTEX
  8
0
 10
47.60540519
 20
-100.21699570
  0
VERTEX
  8
0
 10
47.82740110
 20
-100.40015908
  0
VERTEX
  8
0
 10
48.08219767
 20
-100.53845809
  0
VERTEX
  8
0
 10
48.36376304
 20
-100.62586086
  0
VERTEX
  8
0
 10
48.51269907
 20
-100.64859120
  0
VERTEX
  8
0
 10
48.66606536
 20
-100.65633553
  0
VERTEX
  8
0
 10
48.81943165
 20
-100.64859120
  0
VERTEX
  8
0
 10
48.96836768
 20
-100.62586086
  0
VERTEX
  8
0
 10
49.24993305
 20
-100.53845809
  0
VERTEX
  8
0
 10
49.50472962
 20
-100.40015908
  0
VERTEX
  8
0
 10
49.72672553
 20
-100.21699570
  0
VERTEX
  8
0
 10
49.90988892
 20
-99.99499979
  0
VERTEX
  8
0
 10
50.04818792
 20
-99.74020322
  0
VERTEX
  8
0
 10
50.13559069
 20
-99.45863785
  0
VERTEX
  8
0
 10
50.15832103
 20
-99.30970181
  0
VERTEX
  8
0
 10
50.16606536
 20
-99.15633553
  0
VERTEX
  8
0
 10
50.15832103
 20
-99.00296924
  0
VERTEX
  8
0
 10
50.13559069
 20
-98.85403321
  0
VERTEX
  8
0
 10
50.04818792
 20
-98.57246783
  0
VERTEX
  8
0
 10
49.90988892
 20
-98.31767126
  0
VERTEX
  8
0
 10
49.72672553
 20
-98.09567535
  0
VERTEX
  8
0
 10
49.50472962
 20
-97.91251197
  0
VERTEX
  8
0
 10
49.24993305
 20
-97.77421296
  0
VERTEX
  8
0
 10
48.96836768
 20
-97.68681020
  0
VERTEX
  8
0
 10
48.81943165
 20
-97.66407986
  0
VERTEX
  8
0
 10
48.66606536
 20
-97.65633553
  0
VERTEX
  8
0
 10
48.51269907
 20
-97.66407986
  0
VERTEX
  8
0
 10
48.36376304
 20
-97.68681020
  0
VERTEX
  8
0
 10
48.08219767
 20
-97.77421296
  0
VERTEX
  8
0
 10
47.82740110
 20
-97.91251197
  0
VERTEX
  8
0
 10
47.60540519
 20
-98.09567535
  0
VERTEX
  8
0
 10
47.42224180
 20
-98.31767126
  0
VERTEX
  8
0
 10
47.28394280
 20
-98.57246783
  0
VERTEX
  8
0
 10
47.19654003
 20
-98.85403321
  0
VERTEX
  8
0
 10
47.17380969
 20
-99.00296924
  0
VERTEX
  8
0
 10
47.16606536
 20
-99.15633553
  0
SEQEND
  0
POLYLINE
  8
Livello Standard
 66
   1
 39
0.000000
 70
    1
  0
VERTEX
  8
0
 10
40.11473203
 20
-93.36233553
  0
VERTEX
  8
0
 10
40.13022069
 20
-93.66906810
  0
VERTEX
  8
0
 10
40.17568136
 20
-93.96694016
  0
VERTEX
  8
0
 10
40.24960609
 20
-94.25444376
  0
VERTEX
  8
0
 10
40.35048690
 20
-94.53007091
  0
VERTEX
  8
0
 10
40.47681583
 20
-94.79231367
  0
VERTEX
  8
0
 10
40.62708491
 20
-95.03966405
  0
VERTEX
  8
0
 10
40.79978618
 20
-95.27061411
  0
VERTEX
  8
0
 10
40.99341168
 20
-95.48365587
  0
VERTEX
  8
0
 10
41.20645344
 20
-95.67728137
  0
VERTEX
  8
0
 10
41.43740350
 20
-95.84998264
  0
VERTEX
  8
0
 10
41.68475389
 20
-96.00025173
  0
VERTEX
  8
0
 10
41.94699664
 20
-96.12658066
  0
VERTEX
  8
0
 10
42.22262380
 20
-96.22746146
  0
VERTEX
  8
0
 10
42.51012739
 20
-96.30138619
  0
VERTEX
  8
0
 10
42.80799945
 20
-96.34684686
  0
VERTEX
  8
0
 10
43.11473203
 20
-96.36233553
  0
VERTEX
  8
0
 10
43.42146460
 20
-96.34684686
  0
VERTEX
  8
0
 10
43.71933666
 20
-96.30138619
  0
VERTEX
  8
0
 10
44.00684026
 20
-96.22746146
  0
VERTEX
  8
0
 10
44.28246741
 20
-96.12658066
  0
VERTEX
  8
0
 10
44.54471017
 20
-96.00025173
  0
VERTEX
  8
0
 10
44.79206055
 20
-95.84998264
  0
VERTEX
  8
0
 10
45.02301061
 20
-95.67728137
  0
VERTEX
  8
0
 10
45.23605237
 20
-95.48365587
  0
VERTEX
  8
0
 10
45.42967787
 20
-95.27061411
  0
VERTEX
  8
0
 10
45.60237914
 20
-95.03966405
  0
VERTEX
  8
0
 10
45.75264823
 20
-94.79231367
  0
VERTEX
  8
0
 10
45.87897716
 20
-94.53007091
  0
VERTEX
  8
0
 10
45.97985796
 20
-94.25444376
  0
VERTEX
  8
0
 10
46.05378269
 20
-93.96694016
  0
VERTEX
  8
0
 10
46.09924336
 20
-93.66906810
  0
VERTEX
  8
0
 10
46.11473203
 20
-93.36233553
  0
VERTEX
  8
0
 10
46.09924336
 20
-93.05560295
  0
VERTEX
  8
0
 10
46.05378269
 20
-92.75773089
  0
VERTEX
  8
0
 10
45.97985796
 20
-92.47022730
  0
VERTEX
  8
0
 10
45.87897716
 20
-92.19460014
  0
VERTEX
  8
0
 10
45.75264823
 20
-91.93235739
  0
VERTEX
  8
0
 10
45.60237914
 20
-91.68500700
  0
VERTEX
  8
0
 10
45.42967787
 20
-91.45405694
  0
VERTEX
  8
0
 10
45.23605237
 20
-91.24101518
  0
VERTEX
  8
0
 10
45.02301061
 20
-91.04738968
  0
VERTEX
  8
0
 10
44.79206055
 20
-90.87468841
  0
VERTEX
  8
0
 10
44.54471017
 20
-90.72441933
  0
VERTEX
  8
0
 10
44.28246741
 20
-90.59809040
  0
VERTEX
  8
0
 10
44.00684026
 20
-90.49720959
  0
VERTEX
  8
0
 10
43.71933666
 20
-90.42328486
  0
VERTEX
  8
0
 10
43.42146460
 20
-90.37782419
  0
VERTEX
  8
0
 10
43.11473203
 20
-90.36233553
  0
VERTEX
  8
0
 10
42.80799945
 20
-90.37782419
  0
VERTEX
  8
0
 10
42.51012739
 20
-90.42328486
  0
VERTEX
  8
0
 10
42.22262380
 20
-90.49720959
  0
VERTEX
  8
0
 10
41.94699664
 20
-90.59809040
  0
VERTEX
  8
0
 10
41.68475389
 20
-90.72441933
  0
VERTEX
  8
0
 10
41.43740350
 20
-90.87468841
  0
VERTEX
  8
0
 10
41.20645344
 20
-91.04738968
  0
VERTEX
  8
0
 10
40.99341168
 20
-91.24101518
  0
VERTEX
  8
0
 10
40.79978618
 20
-91.45405694
  0
VERTEX
  8
0
 10
40.62708491
 20
-91.68500700
  0
VERTEX
  8
0
 10
40.47681583
 20
-91.93235739
  0
VERTEX
  8
0
 10
40.35048690
 20
-92.19460014
  0
VERTEX
  8
0
 10
40.24960609
 20
-92.47022730
  0
VERTEX
  8
0
 10
40.17568136
 20
-92.75773089
  0
VERTEX
  8
0
 10
40.13022069
 20
-93.05560295
  0
VERTEX
  8
0
 10
40.11473203
 20
-93.36233553
  0
SEQEND
  0
POLYLINE
  8
Livello Standard
 66
   1
 39
0.000000
 70
    1
  0
VERTEX
  8
0
 10
41.61473203
 20
-93.36233553
  0
VERTEX
  8
0
 10
41.62247636
 20
-93.51570181
  0
VERTEX
  8
0
 10
41.64520670
 20
-93.66463785
  0
VERTEX
  8
0
 10
41.73260946
 20
-93.94620322
  0
VERTEX
  8
0
 10
41.87090847
 20
-94.20099979
  0
VERTEX
  8
0
 10
42.05407185
 20
-94.42299570
  0
VERTEX
  8
0
 10
42.27606776
 20
-94.60615908
  0
VERTEX
  8
0
 10
42.53086433
 20
-94.74445809
  0
VERTEX
  8
0
 10
42.81242971
 20
-94.83186086
  0
VERTEX
  8
0
 10
42.96136574
 20
-94.85459120
  0
VERTEX
  8
0
 10
43.11473203
 20
-94.86233553
  0
VERTEX
  8
0
 10
43.26809831
 20
-94.85459120
  0
VERTEX
  8
0
 10
43.41703435
 20
-94.83186086
  0
VERTEX
  8
0
 10
43.69859972
 20
-94.74445809
  0
VERTEX
  8
0
 10
43.95339629
 20
-94.60615908
  0
VERTEX
  8
0
 10
44.17539220
 20
-94.42299570
  0
VERTEX
  8
0
 10
44.35855558
 20
-94.20099979
  0
VERTEX
  8
0
 10
44.49685459
 20
-93.94620322
  0
VERTEX
  8
0
 10
44.58425736
 20
-93.66463785
  0
VERTEX
  8
0
 10
44.60698770
 20
-93.51570181
  0
VERTEX
  8
0
 10
44.61473203
 20
-93.36233553
  0
VERTEX
  8
0
 10
44.60698770
 20
-93.20896924
  0
VERTEX
  8
0
 10
44.58425736
 20
-93.06003321
  0
VERTEX
  8
0
 10
44.49685459
 20
-92.77846783
  0
VERTEX
  8
0
 10
44.35855558
 20
-92.52367126
  0
VERTEX
  8
0
 10
44.17539220
 20
-92.30167535
  0
VERTEX
  8
0
 10
43.95339629
 20
-92.11851197
  0
VERTEX
  8
0
 10
43.69859972
 20
-91.98021296
  0
VERTEX
  8
0
 10
43.41703435
 20
-91.89281020
  0
VERTEX
  8
0
 10
43.26809831
 20
-91.87007986
  0
VERTEX
  8
0
 10
43.11473203
 20
-91.86233553
  0
VERTEX
  8
0
 10
42.96136574
 20
-91.87007986
  0
VERTEX
  8
0
 10
42.81242971
 20
-91.89281020
  0
VERTEX
  8
0
 10
42.53086433
 20
-91.98021296
  0
VERTEX
  8
0
 10
42.27606776
 20
-92.11851197
  0
VERTEX
  8
0
 10
42.05407185
 20
-92.30167535
  0
VERTEX
  8
0
 10
41.87090847
 20
-92.52367126
  0
VERTEX
  8
0
 10
41.73260946
 20
-92.77846783
  0
VERTEX
  8
0
 10
41.64520670
 20
-93.06003321
  0
VERTEX
  8
0
 10
41.62247636
 20
-93.20896924
  0
VERTEX
  8
0
 10
41.61473203
 20
-93.36233553
  0
SEQEND
  0
POLYLINE
  8
Livello Standard
 66
   1
 39
0.000000
 70
    1
  0
VERTEX
  8
0
 10
57.35873203
 20
-78.29166886
  0
VERTEX
  8
0
 10
57.38412758
 20
-78.54358746
  0
VERTEX
  8
0
 10
57.45696322
 20
-78.77822527
  0
VERTEX
  8
0
 10
57.57221239
 20
-78.99055575
  0
VERTEX
  8
0
 10
57.72484855
 20
-79.17555234
  0
VERTEX
  8
0
 10
57.90984514
 20
-79.32818849
  0
VERTEX
  8
0
 10
58.12217562
 20
-79.44343766
  0
VERTEX
  8
0
 10
58.35681343
 20
-79.51627330
  0
VERTEX
  8
0
 10
58.60873203
 20
-79.54166886
  0
VERTEX
  8
0
 10
58.86065063
 20
-79.51627330
  0
VERTEX
  8
0
 10
59.09528844
 20
-79.44343766
  0
VERTEX
  8
0
 10
59.30761891
 20
-79.32818849
  0
VERTEX
  8
0
 10
59.49261550
 20
-79.17555234
  0
VERTEX
  8
0
 10
59.64525166
 20
-78.99055575
  0
VERTEX
  8
0
 10
59.76050083
 20
-78.77822527
  0
VERTEX
  8
0
 10
59.83333647
 20
-78.54358746
  0
VERTEX
  8
0
 10
59.85873203
 20
-78.29166886
  0
VERTEX
  8
0
 10
59.83333647
 20
-78.03975026
  0
VERTEX
  8
0
 10
59.76050083
 20
-77.80511245
  0
VERTEX
  8
0
 10
59.64525166
 20
-77.59278197
  0
VERTEX
  8
0
 10
59.49261550
 20
-77.40778538
  0
VERTEX
  8
0
 10
59.30761891
 20
-77.25514923
  0
VERTEX
  8
0
 10
59.09528844
 20
-77.13990006
  0
VERTEX
  8
0
 10
58.86065063
 20
-77.06706442
  0
VERTEX
  8
0
 10
58.60873203
 20
-77.04166886
  0
VERTEX
  8
0
 10
58.35681343
 20
-77.06706442
  0
VERTEX
  8
0
 10
58.12217562
 20
-77.13990006
  0
VERTEX
  8
0
 10
57.90984514
 20
-77.25514923
  0
VERTEX
  8
0
 10
57.72484855
 20
-77.40778538
  0
VERTEX
  8
0
 10
57.57221239
 20
-77.59278197
  0
VERTEX
  8
0
 10
57.45696322
 20
-77.80511245
  0
VERTEX
  8
0
 10
57.38412758
 20
-78.03975026
  0
VERTEX
  8
0
 10
57.35873203
 20
-78.29166886
  0
SEQEND
  0
POLYLINE
  8
Livello Standard
 66
   1
 39
0.000000
 70
    1
  0
VERTEX
  8
0
 10
51.04639869
 20
-85.74166886
  0
VERTEX
  8
0
 10
51.04739869
 20
-85.74266886
  0
VERTEX
  8
0
 10
51.04839869
 20
-85.74166886
  0
VERTEX
  8
0
 10
51.04739869
 20
-85.74066886
  0
VERTEX
  8
0
 10
51.04639869
 20
-85.74166886
  0
SEQEND
  0
POLYLINE
  8
Livello Standard
 66
   1
 39
0.000000
 70
    1
  0
VERTEX
  8
0
 10
47.94639869
 20
-85.35566886
  0
VERTEX
  8
0
 10
47.96188736
 20
-85.66240143
  0
VERTEX
  8
0
 10
48.00734803
 20
-85.96027350
  0
VERTEX
  8
0
 10
48.08127276
 20
-86.24777709
  0
VERTEX
  8
0
 10
48.18215356
 20
-86.52340425
  0
VERTEX
  8
0
 10
48.30848249
 20
-86.78564700
  0
VERTEX
  8
0
 10
48.45875158
 20
-87.03299739
  0
VERTEX
  8
0
 10
48.63145285
 20
-87.26394744
  0
VERTEX
  8
0
 10
48.82507835
 20
-87.47698920
  0
VERTEX
  8
0
 10
49.03812011
 20
-87.67061470
  0
VERTEX
  8
0
 10
49.26907017
 20
-87.84331598
  0
VERTEX
  8
0
 10
49.51642055
 20
-87.99358506
  0
VERTEX
  8
0
 10
49.77866331
 20
-88.11991399
  0
VERTEX
  8
0
 10
50.05429046
 20
-88.22079480
  0
VERTEX
  8
0
 10
50.34179406
 20
-88.29471952
  0
VERTEX
  8
0
 10
50.63966612
 20
-88.34018020
  0
VERTEX
  8
0
 10
50.94639869
 20
-88.35566886
  0
VERTEX
  8
0
 10
51.25313127
 20
-88.34018020
  0
VERTEX
  8
0
 10
51.55100333
 20
-88.29471952
  0
VERTEX
  8
0
 10
51.83850692
 20
-88.22079480
  0
VERTEX
  8
0
 10
52.11413408
 20
-88.11991399
  0
VERTEX
  8
0
 10
52.37637683
 20
-87.99358506
  0
VERTEX
  8
0
 10
52.62372722
 20
-87.84331598
  0
VERTEX
  8
0
 10
52.85467728
 20
-87.67061470
  0
VERTEX
  8
0
 10
53.06771904
 20
-87.47698920
  0
VERTEX
  8
0
 10
53.26134454
 20
-87.26394744
  0
VERTEX
  8
0
 10
53.43404581
 20
-87.03299739
  0
VERTEX
  8
0
 10
53.58431489
 20
-86.78564700
  0
VERTEX
  8
0
 10
53.71064382
 20
-86.52340425
  0
VERTEX
  8
0
 10
53.81152463
 20
-86.24777709
  0
VERTEX
  8
0
 10
53.88544936
 20
-85.96027350
  0
VERTEX
  8
0
 10
53.93091003
 20
-85.66240143
  0
VERTEX
  8
0
 10
53.94639869
 20
-85.35566886
  0
VERTEX
  8
0
 10
53.93091003
 20
-85.04893629
  0
VERTEX
  8
0
 10
53.88544936
 20
-84.75106422
  0
VERTEX
  8
0
 10
53.81152463
 20
-84.46356063
  0
VERTEX
  8
0
 10
53.71064382
 20
-84.18793347
  0
VERTEX
  8
0
 10
53.58431489
 20
-83.92569072
  0
VERTEX
  8
0
 10
53.43404581
 20
-83.67834033
  0
VERTEX
  8
0
 10
53.26134454
 20
-83.44739028
  0
VERTEX
  8
0
 10
53.06771904
 20
-83.23434852
  0
VERTEX
  8
0
 10
52.85467728
 20
-83.04072302
  0
VERTEX
  8
0
 10
52.62372722
 20
-82.86802174
  0
VERTEX
  8
0
 10
52.37637683
 20
-82.71775266
  0
VERTEX
  8
0
 10
52.11413408
 20
-82.59142373
  0
VERTEX
  8
0
 10
51.83850692
 20
-82.49054292
  0
VERTEX
  8
0
 10
51.55100333
 20
-82.41661820
  0
VERTEX
  8
0
 10
51.25313127
 20
-82.37115752
  0
VERTEX
  8
0
 10
50.94639869
 20
-82.35566886
  0
VERTEX
  8
0
 10
50.63966612
 20
-82.37115752
  0
VERTEX
  8
0
 10
50.34179406
 20
-82.41661820
  0
VERTEX
  8
0
 10
50.05429046
 20
-82.49054292
  0
VERTEX
  8
0
 10
49.77866331
 20
-82.59142373
  0
VERTEX
  8
0
 10
49.51642055
 20
-82.71775266
  0
VERTEX
  8
0
 10
49.26907017
 20
-82.86802174
  0
VERTEX
  8
0
 10
49.03812011
 20
-83.04072302
  0
VERTEX
  8
0
 10
48.82507835
 20
-83.23434852
  0
VERTEX
  8
0
 10
48.63145285
 20
-83.44739028
  0
VERTEX
  8
0
 10
48.45875158
 20
-83.67834033
  0
VERTEX
  8
0
 10
48.30848249
 20
-83.92569072
  0
VERTEX
  8
0
 10
48.18215356
 20
-84.18793347
  0
VERTEX
  8
0
 10
48.08127276
 20
-84.46356063
  0
VERTEX
  8
0
 10
48.00734803
 20
-84.75106422
  0
VERTEX
  8
0
 10
47.96188736
 20
-85.04893629
  0
VERTEX
  8
0
 10
47.94639869
 20
-85.35566886
  0
SEQEND
  0
POLYLINE
  8
Livello Standard
 66
   1
 39
0.000000
 70
    1
  0
VERTEX
  8
0
 10
49.44639869
 20
-85.35566886
  0
VERTEX
  8
0
 10
49.45414302
 20
-85.50903515
  0
VERTEX
  8
0
 10
49.47687336
 20
-85.65797118
  0
VERTEX
  8
0
 10
49.56427613
 20
-85.93953655
  0
VERTEX
  8
0
 10
49.70257514
 20
-86.19433312
  0
VERTEX
  8
0
 10
49.88573852
 20
-86.41632903
  0
VERTEX
  8
0
 10
50.10773443
 20
-86.59949242
  0
VERTEX
  8
0
 10
50.36253100
 20
-86.73779142
  0
VERTEX
  8
0
 10
50.64409637
 20
-86.82519419
  0
VERTEX
  8
0
 10
50.79303241
 20
-86.84792453
  0
VERTEX
  8
0
 10
50.94639869
 20
-86.85566886
  0
VERTEX
  8
0
 10
51.09976498
 20
-86.84792453
  0
VERTEX
  8
0
 10
51.24870101
 20
-86.82519419
  0
VERTEX
  8
0
 10
51.53026639
 20
-86.73779142
  0
VERTEX
  8
0
 10
51.78506296
 20
-86.59949242
  0
VERTEX
  8
0
 10
52.00705887
 20
-86.41632903
  0
VERTEX
  8
0
 10
52.19022225
 20
-86.19433312
  0
VERTEX
  8
0
 10
52.32852126
 20
-85.93953655
  0
VERTEX
  8
0
 10
52.41592402
 20
-85.65797118
  0
VERTEX
  8
0
 10
52.43865436
 20
-85.50903515
  0
VERTEX
  8
0
 10
52.44639869
 20
-85.35566886
  0
VERTEX
  8
0
 10
52.43865436
 20
-85.20230257
  0
VERTEX
  8
0
 10
52.41592402
 20
-85.05336654
  0
VERTEX
  8
0
 10
52.32852126
 20
-84.77180117
  0
VERTEX
  8
0
 10
52.19022225
 20
-84.51700460
  0
VERTEX
  8
0
 10
52.00705887
 20
-84.29500869
  0
VERTEX
  8
0
 10
51.78506296
 20
-84.11184530
  0
VERTEX
  8
0
 10
51.53026639
 20
-83.97354630
  0
VERTEX
  8
0
 10
51.24870101
 20
-83.88614353
  0
VERTEX
  8
0
 10
51.09976498
 20
-83.86341319
  0
VERTEX
  8
0
 10
50.94639869
 20
-83.85566886
  0
VERTEX
  8
0
 10
50.79303241
 20
-83.86341319
  0
VERTEX
  8
0
 10
50.64409637
 20
-83.88614353
  0
VERTEX
  8
0
 10
50.36253100
 20
-83.97354630
  0
VERTEX
  8
0
 10
50.10773443
 20
-84.11184530
  0
VERTEX
  8
0
 10
49.88573852
 20
-84.29500869
  0
VERTEX
  8
0
 10
49.70257514
 20
-84.51700460
  0
VERTEX
  8
0
 10
49.56427613
 20
-84.77180117
  0
VERTEX
  8
0
 10
49.47687336
 20
-85.05336654
  0
VERTEX
  8
0
 10
49.45414302
 20
-85.20230257
  0
VERTEX
  8
0
 10
49.44639869
 20
-85.35566886
  0
SEQEND
  0
POLYLINE
  8
Livello Standard
 66
   1
 39
0.000000
 70
    1
  0
VERTEX
  8
0
 10
49.69639869
 20
-85.35566886
  0
VERTEX
  8
0
 10
49.72179425
 20
-85.60758746
  0
VERTEX
  8
0
 10
49.79462989
 20
-85.84222527
  0
VERTEX
  8
0
 10
49.90987906
 20
-86.05455575
  0
VERTEX
  8
0
 10
50.06251522
 20
-86.23955234
  0
VERTEX
  8
0
 10
50.24751181
 20
-86.39218849
  0
VERTEX
  8
0
 10
50.45984228
 20
-86.50743766
  0
VERTEX
  8
0
 10
50.69448009
 20
-86.58027330
  0
VERTEX
  8
0
 10
50.94639869
 20
-86.60566886
  0
VERTEX
  8
0
 10
51.19831729
 20
-86.58027330
  0
VERTEX
  8
0
 10
51.43295510
 20
-86.50743766
  0
VERTEX
  8
0
 10
51.64528558
 20
-86.39218849
  0
VERTEX
  8
0
 10
51.83028217
 20
-86.23955234
  0
VERTEX
  8
0
 10
51.98291833
 20
-86.05455575
  0
VERTEX
  8
0
 10
52.09816750
 20
-85.84222527
  0
VERTEX
  8
0
 10
52.17100314
 20
-85.60758746
  0
VERTEX
  8
0
 10
52.19639869
 20
-85.35566886
  0
VERTEX
  8
0
 10
52.17100314
 20
-85.10375026
  0
VERTEX
  8
0
 10
52.09816750
 20
-84.86911245
  0
VERTEX
  8
0
 10
51.98291833
 20
-84.65678197
  0
VERTEX
  8
0
 10
51.83028217
 20
-84.47178538
  0
VERTEX
  8
0
 10
51.64528558
 20
-84.31914923
  0
VERTEX
  8
0
 10
51.43295510
 20
-84.20390006
  0
VERTEX
  8
0
 10
51.19831729
 20
-84.13106442
  0
VERTEX
  8
0
 10
50.94639869
 20
-84.10566886
  0
VERTEX
  8
0
 10
50.69448009
 20
-84.13106442
  0
VERTEX
  8
0
 10
50.45984228
 20
-84.20390006
  0
VERTEX
  8
0
 10
50.24751181
 20
-84.31914923
  0
VERTEX
  8
0
 10
50.06251522
 20
-84.47178538
  0
VERTEX
  8
0
 10
49.90987906
 20
-84.65678197
  0
VERTEX
  8
0
 10
49.79462989
 20
-84.86911245
  0
VERTEX
  8
0
 10
49.72179425
 20
-85.10375026
  0
VERTEX
  8
0
 10
49.69639869
 20
-85.35566886
  0
SEQEND
  0
POLYLINE
  8
Livello Standard
 66
   1
 39
0.000000
 70
    1
  0
VERTEX
  8
0
 10
51.50025541
 20
-112.01815585
  0
VERTEX
  8
0
 10
51.50773728
 20
-112.31405009
  0
VERTEX
  8
0
 10
51.52994201
 20
-112.60605995
  0
VERTEX
  8
0
 10
51.61707497
 20
-113.17698141
  0
VERTEX
  8
0
 10
51.75876403
 20
-113.72802996
  0
VERTEX
  8
0
 10
51.95211891
 20
-114.25631534
  0
VERTEX
  8
0
 10
52.19424936
 20
-114.75894729
  0
VERTEX
  8
0
 10
52.48226510
 20
-115.23303553
  0
VERTEX
  8
0
 10
52.81327588
 20
-115.67568980
  0
VERTEX
  8
0
 10
53.18439142
 20
-116.08401984
  0
VERTEX
  8
0
 10
53.59272146
 20
-116.45513538
  0
VERTEX
  8
0
 10
54.03537573
 20
-116.78614616
  0
VERTEX
  8
0
 10
54.50946398
 20
-117.07416190
  0
VERTEX
  8
0
 10
55.01209592
 20
-117.31629235
  0
VERTEX
  8
0
 10
55.54038130
 20
-117.50964723
  0
VERTEX
  8
0
 10
56.09142986
 20
-117.65133629
  0
VERTEX
  8
0
 10
56.66235131
 20
-117.73846925
  0
VERTEX
  8
0
 10
56.95436117
 20
-117.76067399
  0
VERTEX
  8
0
 10
57.25025541
 20
-117.76815585
  0
VERTEX
  8
0
 10
57.54614965
 20
-117.76067399
  0
VERTEX
  8
0
 10
57.83815951
 20
-117.73846925
  0
VERTEX
  8
0
 10
58.40908097
 20
-117.65133629
  0
VERTEX
  8
0
 10
58.96012952
 20
-117.50964723
  0
VERTEX
  8
0
 10
59.48841490
 20
-117.31629235
  0
VERTEX
  8
0
 10
59.99104685
 20
-117.07416190
  0
VERTEX
  8
0
 10
60.46513509
 20
-116.78614616
  0
VERTEX
  8
0
 10
60.90778936
 20
-116.45513538
  0
VERTEX
  8
0
 10
61.31611940
 20
-116.08401984
  0
VERTEX
  8
0
 10
61.68723494
 20
-115.67568980
  0
VERTEX
  8
0
 10
62.01824572
 20
-115.23303553
  0
VERTEX
  8
0
 10
62.30626146
 20
-114.75894729
  0
VERTEX
  8
0
 10
62.54839191
 20
-114.25631534
  0
VERTEX
  8
0
 10
62.74174679
 20
-113.72802996
  0
VERTEX
  8
0
 10
62.88343585
 20
-113.17698141
  0
VERTEX
  8
0
 10
62.97056881
 20
-112.60605995
  0
VERTEX
  8
0
 10
62.99277355
 20
-112.31405009
  0
VERTEX
  8
0
 10
63.00025541
 20
-112.01815585
  0
VERTEX
  8
0
 10
62.99277355
 20
-111.72226161
  0
VERTEX
  8
0
 10
62.97056881
 20
-111.43025175
  0
VERTEX
  8
0
 10
62.88343585
 20
-110.85933029
  0
VERTEX
  8
0
 10
62.74174679
 20
-110.30828174
  0
VERTEX
  8
0
 10
62.54839191
 20
-109.77999636
  0
VERTEX
  8
0
 10
62.30626146
 20
-109.27736442
  0
VERTEX
  8
0
 10
62.01824572
 20
-108.80327617
  0
VERTEX
  8
0
 10
61.68723494
 20
-108.36062190
  0
VERTEX
  8
0
 10
61.31611940
 20
-107.95229186
  0
VERTEX
  8
0
 10
60.90778936
 20
-107.58117632
  0
VERTEX
  8
0
 10
60.46513509
 20
-107.25016554
  0
VERTEX
  8
0
 10
59.99104685
 20
-106.96214980
  0
VERTEX
  8
0
 10
59.48841490
 20
-106.72001935
  0
VERTEX
  8
0
 10
58.96012952
 20
-106.52666447
  0
VERTEX
  8
0
 10
58.40908097
 20
-106.38497541
  0
VERTEX
  8
0
 10
57.83815951
 20
-106.29784245
  0
VERTEX
  8
0
 10
57.54614965
 20
-106.27563772
  0
VERTEX
  8
0
 10
57.25025541
 20
-106.26815585
  0
VERTEX
  8
0
 10
56.95436117
 20
-106.27563772
  0
VERTEX
  8
0
 10
56.66235131
 20
-106.29784245
  0
VERTEX
  8
0
 10
56.09142986
 20
-106.38497541
  0
VERTEX
  8
0
 10
55.54038130
 20
-106.52666447
  0
VERTEX
  8
0
 10
55.01209592
 20
-106.72001935
  0
VERTEX
  8
0
 10
54.50946398
 20
-106.96214980
  0
VERTEX
  8
0
 10
54.03537573
 20
-107.25016554
  0
VERTEX
  8
0
 10
53.59272146
 20
-107.58117632
  0
VERTEX
  8
0
 10
53.18439142
 20
-107.95229186
  0
VERTEX
  8
0
 10
52.81327588
 20
-108.36062190
  0
VERTEX
  8
0
 10
52.48226510
 20
-108.80327617
  0
VERTEX
  8
0
 10
52.19424936
 20
-109.27736442
  0
VERTEX
  8
0
 10
51.95211891
 20
-109.77999636
  0
VERTEX
  8
0
 10
51.75876403
 20
-110.30828174
  0
VERTEX
  8
0
 10
51.61707497
 20
-110.85933029
  0
VERTEX
  8
0
 10
51.52994201
 20
-111.43025175
  0
VERTEX
  8
0
 10
51.50773728
 20
-111.72226161
  0
VERTEX
  8
0
 10
51.50025541
 20
-112.01815585
  0
SEQEND
  0
POLYLINE
  8
Livello Standard
 66
   1
 39
0.000000
 70
    1
  0
VERTEX
  8
0
 10
53.45025541
 20
-112.01815585
  0
VERTEX
  8
0
 10
53.46987438
 20
-112.40668378
  0
VERTEX
  8
0
 10
53.52745791
 20
-112.78398839
  0
VERTEX
  8
0
 10
53.62109589
 20
-113.14815961
  0
VERTEX
  8
0
 10
53.74887825
 20
-113.49728734
  0
VERTEX
  8
0
 10
53.90889489
 20
-113.82946150
  0
VERTEX
  8
0
 10
54.09923573
 20
-114.14277199
  0
VERTEX
  8
0
 10
54.31799068
 20
-114.43530872
  0
VERTEX
  8
0
 10
54.56324964
 20
-114.70516162
  0
VERTEX
  8
0
 10
54.83310254
 20
-114.95042059
  0
VERTEX
  8
0
 10
55.12563928
 20
-115.16917553
  0
VERTEX
  8
0
 10
55.43894977
 20
-115.35951637
  0
VERTEX
  8
0
 10
55.77112392
 20
-115.51953301
  0
VERTEX
  8
0
 10
56.12025165
 20
-115.64731537
  0
VERTEX
  8
0
 10
56.48442287
 20
-115.74095336
  0
VERTEX
  8
0
 10
56.86172749
 20
-115.79853688
  0
VERTEX
  8
0
 10
57.25025541
 20
-115.81815585
  0
VERTEX
  8
0
 10
57.63878334
 20
-115.79853688
  0
VERTEX
  8
0
 10
58.01608795
 20
-115.74095336
  0
VERTEX
  8
0
 10
58.38025917
 20
-115.64731537
  0
VERTEX
  8
0
 10
58.72938690
 20
-115.51953301
  0
VERTEX
  8
0
 10
59.06156106
 20
-115.35951637
  0
VERTEX
  8
0
 10
59.37487155
 20
-115.16917553
  0
VERTEX
  8
0
 10
59.66740828
 20
-114.95042059
  0
VERTEX
  8
0
 10
59.93726118
 20
-114.70516162
  0
VERTEX
  8
0
 10
60.18252015
 20
-114.43530872
  0
VERTEX
  8
0
 10
60.40127509
 20
-114.14277199
  0
VERTEX
  8
0
 10
60.59161593
 20
-113.82946150
  0
VERTEX
  8
0
 10
60.75163257
 20
-113.49728734
  0
VERTEX
  8
0
 10
60.87941493
 20
-113.14815961
  0
VERTEX
  8
0
 10
60.97305292
 20
-112.78398839
  0
VERTEX
  8
0
 10
61.03063644
 20
-112.40668378
  0
VERTEX
  8
0
 10
61.05025541
 20
-112.01815585
  0
VERTEX
  8
0
 10
61.03063644
 20
-111.62962793
  0
VERTEX
  8
0
 10
60.97305292
 20
-111.25232331
  0
VERTEX
  8
0
 10
60.87941493
 20
-110.88815209
  0
VERTEX
  8
0
 10
60.75163257
 20
-110.53902436
  0
VERTEX
  8
0
 10
60.59161593
 20
-110.20685021
  0
VERTEX
  8
0
 10
60.40127509
 20
-109.89353972
  0
VERTEX
  8
0
 10
60.18252015
 20
-109.60100298
  0
VERTEX
  8
0
 10
59.93726118
 20
-109.33115008
  0
VERTEX
  8
0
 10
59.66740828
 20
-109.08589112
  0
VERTEX
  8
0
 10
59.37487155
 20
-108.86713617
  0
VERTEX
  8
0
 10
59.06156106
 20
-108.67679533
  0
VERTEX
  8
0
 10
58.72938690
 20
-108.51677869
  0
VERTEX
  8
0
 10
58.38025917
 20
-108.38899633
  0
VERTEX
  8
0
 10
58.01608795
 20
-108.29535835
  0
VERTEX
  8
0
 10
57.63878334
 20
-108.23777482
  0
VERTEX
  8
0
 10
57.25025541
 20
-108.21815585
  0
VERTEX
  8
0
 10
56.86172749
 20
-108.23777482
  0
VERTEX
  8
0
 10
56.48442287
 20
-108.29535835
  0
VERTEX
  8
0
 10
56.12025165
 20
-108.38899633
  0
VERTEX
  8
0
 10
55.77112392
 20
-108.51677869
  0
VERTEX
  8
0
 10
55.43894977
 20
-108.67679533
  0
VERTEX
  8
0
 10
55.12563928
 20
-108.86713617
  0
VERTEX
  8
0
 10
54.83310254
 20
-109.08589112
  0
VERTEX
  8
0
 10
54.56324964
 20
-109.33115008
  0
VERTEX
  8
0
 10
54.31799068
 20
-109.60100298
  0
VERTEX
  8
0
 10
54.09923573
 20
-109.89353972
  0
VERTEX
  8
0
 10
53.90889489
 20
-110.20685021
  0
VERTEX
  8
0
 10
53.74887825
 20
-110.53902436
  0
VERTEX
  8
0
 10
53.62109589
 20
-110.88815209
  0
VERTEX
  8
0
 10
53.52745791
 20
-111.25232331
  0
VERTEX
  8
0
 10
53.46987438
 20
-111.62962793
  0
VERTEX
  8
0
 10
53.45025541
 20
-112.01815585
  0
SEQEND
  0
POLYLINE
  8
Livello Standard
 66
   1
 39
0.000000
 70
    1
  0
VERTEX
  8
0
 10
56.93673203
 20
-96.02366886
  0
VERTEX
  8
0
 10
56.94453919
 20
-96.33242806
  0
VERTEX
  8
0
 10
56.96770935
 20
-96.63713401
  0
VERTEX
  8
0
 10
57.00586552
 20
-96.93740969
  0
VERTEX
  8
0
 10
57.05863070
 20
-97.23287814
  0
VERTEX
  8
0
 10
57.20648015
 20
-97.80788532
  0
VERTEX
  8
0
 10
57.40824177
 20
-98.35913963
  0
VERTEX
  8
0
 10
57.66089963
 20
-98.88362514
  0
VERTEX
  8
0
 10
57.96143779
 20
-99.37832592
  0
VERTEX
  8
0
 10
58.30684034
 20
-99.84022603
  0
VERTEX
  8
0
 10
58.69409134
 20
-100.26630955
  0
VERTEX
  8
0
 10
59.12017486
 20
-100.65356055
  0
VERTEX
  8
0
 10
59.58207497
 20
-100.99896309
  0
VERTEX
  8
0
 10
60.07677575
 20
-101.29950126
  0
VERTEX
  8
0
 10
60.60126125
 20
-101.55215912
  0
VERTEX
  8
0
 10
61.15251557
 20
-101.75392074
  0
VERTEX
  8
0
 10
61.72752275
 20
-101.90177019
  0
VERTEX
  8
0
 10
62.02299119
 20
-101.95453537
  0
VERTEX
  8
0
 10
62.32326688
 20
-101.99269154
  0
VERTEX
  8
0
 10
62.62797282
 20
-102.01586170
  0
VERTEX
  8
0
 10
62.93673203
 20
-102.02366886
  0
VERTEX
  8
0
 10
63.24549123
 20
-102.01586170
  0
VERTEX
  8
0
 10
63.55019717
 20
-101.99269154
  0
VERTEX
  8
0
 10
63.85047286
 20
-101.95453537
  0
VERTEX
  8
0
 10
64.14594130
 20
-101.90177019
  0
VERTEX
  8
0
 10
64.72094849
 20
-101.75392074
  0
VERTEX
  8
0
 10
65.27220280
 20
-101.55215912
  0
VERTEX
  8
0
 10
65.79668831
 20
-101.29950126
  0
VERTEX
  8
0
 10
66.29138908
 20
-100.99896309
  0
VERTEX
  8
0
 10
66.75328919
 20
-100.65356055
  0
VERTEX
  8
0
 10
67.17937271
 20
-100.26630955
  0
VERTEX
  8
0
 10
67.56662371
 20
-99.84022603
  0
VERTEX
  8
0
 10
67.91202626
 20
-99.37832592
  0
VERTEX
  8
0
 10
68.21256443
 20
-98.88362514
  0
VERTEX
  8
0
 10
68.46522228
 20
-98.35913963
  0
VERTEX
  8
0
 10
68.66698390
 20
-97.80788532
  0
VERTEX
  8
0
 10
68.81483335
 20
-97.23287814
  0
VERTEX
  8
0
 10
68.86759854
 20
-96.93740969
  0
VERTEX
  8
0
 10
68.90575470
 20
-96.63713401
  0
VERTEX
  8
0
 10
68.92892486
 20
-96.33242806
  0
VERTEX
  8
0
 10
68.93673203
 20
-96.02366886
  0
VERTEX
  8
0
 10
68.92892486
 20
-95.71490966
  0
VERTEX
  8
0
 10
68.90575470
 20
-95.41020371
  0
VERTEX
  8
0
 10
68.86759854
 20
-95.10992803
  0
VERTEX
  8
0
 10
68.81483335
 20
-94.81445958
  0
VERTEX
  8
0
 10
68.66698390
 20
-94.23945240
  0
VERTEX
  8
0
 10
68.46522228
 20
-93.68819809
  0
VERTEX
  8
0
 10
68.21256443
 20
-93.16371258
  0
VERTEX
  8
0
 10
67.91202626
 20
-92.66901180
  0
VERTEX
  8
0
 10
67.56662371
 20
-92.20711169
  0
VERTEX
  8
0
 10
67.17937271
 20
-91.78102817
  0
VERTEX
  8
0
 10
66.75328919
 20
-91.39377717
  0
VERTEX
  8
0
 10
66.29138908
 20
-91.04837463
  0
VERTEX
  8
0
 10
65.79668831
 20
-90.74783646
  0
VERTEX
  8
0
 10
65.27220280
 20
-90.49517860
  0
VERTEX
  8
0
 10
64.72094849
 20
-90.29341698
  0
VERTEX
  8
0
 10
64.14594130
 20
-90.14556753
  0
VERTEX
  8
0
 10
63.85047286
 20
-90.09280235
  0
VERTEX
  8
0
 10
63.55019717
 20
-90.05464618
  0
VERTEX
  8
0
 10
63.24549123
 20
-90.03147602
  0
VERTEX
  8
0
 10
62.93673203
 20
-90.02366886
  0
VERTEX
  8
0
 10
62.62797282
 20
-90.03147602
  0
VERTEX
  8
0
 10
62.32326688
 20
-90.05464618
  0
VERTEX
  8
0
 10
62.02299119
 20
-90.09280235
  0
VERTEX
  8
0
 10
61.72752275
 20
-90.14556753
  0
VERTEX
  8
0
 10
61.15251557
 20
-90.29341698
  0
VERTEX
  8
0
 10
60.60126125
 20
-90.49517860
  0
VERTEX
  8
0
 10
60.07677575
 20
-90.74783646
  0
VERTEX
  8
0
 10
59.58207497
 20
-91.04837463
  0
VERTEX
  8
0
 10
59.12017486
 20
-91.39377717
  0
VERTEX
  8
0
 10
58.69409134
 20
-91.78102817
  0
VERTEX
  8
0
 10
58.30684034
 20
-92.20711169
  0
VERTEX
  8
0
 10
57.96143779
 20
-92.66901180
  0
VERTEX
  8
0
 10
57.66089963
 20
-93.16371258
  0
VERTEX
  8
0
 10
57.40824177
 20
-93.68819809
  0
VERTEX
  8
0
 10
57.20648015
 20
-94.23945240
  0
VERTEX
  8
0
 10
57.05863070
 20
-94.81445958
  0
VERTEX
  8
0
 10
57.00586552
 20
-95.10992803
  0
VERTEX
  8
0
 10
56.96770935
 20
-95.41020371
  0
VERTEX
  8
0
 10
56.94453919
 20
-95.71490966
  0
VERTEX
  8
0
 10
56.93673203
 20
-96.02366886
  0
SEQEND
  0
POLYLINE
  8
Livello Standard
 66
   1
 39
0.000000
 70
    1
  0
VERTEX
  8
0
 10
59.13673203
 20
-96.02366886
  0
VERTEX
  8
0
 10
59.15635100
 20
-96.41219679
  0
VERTEX
  8
0
 10
59.21393452
 20
-96.78950140
  0
VERTEX
  8
0
 10
59.30757251
 20
-97.15367262
  0
VERTEX
  8
0
 10
59.43535486
 20
-97.50280035
  0
VERTEX
  8
0
 10
59.59537151
 20
-97.83497450
  0
VERTEX
  8
0
 10
59.78571235
 20
-98.14828499
  0
VERTEX
  8
0
 10
60.00446729
 20
-98.44082173
  0
VERTEX
  8
0
 10
60.24972626
 20
-98.71067463
  0
VERTEX
  8
0
 10
60.51957915
 20
-98.95593359
  0
VERTEX
  8
0
 10
60.81211589
 20
-99.17468854
  0
VERTEX
  8
0
 10
61.12542638
 20
-99.36502938
  0
VERTEX
  8
0
 10
61.45760054
 20
-99.52504602
  0
VERTEX
  8
0
 10
61.80672827
 20
-99.65282838
  0
VERTEX
  8
0
 10
62.17089949
 20
-99.74646637
  0
VERTEX
  8
0
 10
62.54820410
 20
-99.80404989
  0
VERTEX
  8
0
 10
62.93673203
 20
-99.82366886
  0
VERTEX
  8
0
 10
63.32525995
 20
-99.80404989
  0
VERTEX
  8
0
 10
63.70256457
 20
-99.74646637
  0
VERTEX
  8
0
 10
64.06673579
 20
-99.65282838
  0
VERTEX
  8
0
 10
64.41586352
 20
-99.52504602
  0
VERTEX
  8
0
 10
64.74803767
 20
-99.36502938
  0
VERTEX
  8
0
 10
65.06134816
 20
-99.17468854
  0
VERTEX
  8
0
 10
65.35388490
 20
-98.95593359
  0
VERTEX
  8
0
 10
65.62373780
 20
-98.71067463
  0
VERTEX
  8
0
 10
65.86899676
 20
-98.44082173
  0
VERTEX
  8
0
 10
66.08775171
 20
-98.14828499
  0
VERTEX
  8
0
 10
66.27809255
 20
-97.83497450
  0
VERTEX
  8
0
 10
66.43810919
 20
-97.50280035
  0
VERTEX
  8
0
 10
66.56589155
 20
-97.15367262
  0
VERTEX
  8
0
 10
66.65952953
 20
-96.78950140
  0
VERTEX
  8
0
 10
66.71711306
 20
-96.41219679
  0
VERTEX
  8
0
 10
66.73673203
 20
-96.02366886
  0
VERTEX
  8
0
 10
66.71711306
 20
-95.63514093
  0
VERTEX
  8
0
 10
66.65952953
 20
-95.25783632
  0
VERTEX
  8
0
 10
66.56589155
 20
-94.89366510
  0
VERTEX
  8
0
 10
66.43810919
 20
-94.54453737
  0
VERTEX
  8
0
 10
66.27809255
 20
-94.21236322
  0
VERTEX
  8
0
 10
66.08775171
 20
-93.89905273
  0
VERTEX
  8
0
 10
65.86899676
 20
-93.60651599
  0
VERTEX
  8
0
 10
65.62373780
 20
-93.33666309
  0
VERTEX
  8
0
 10
65.35388490
 20
-93.09140413
  0
VERTEX
  8
0
 10
65.06134816
 20
-92.87264918
  0
VERTEX
  8
0
 10
64.74803767
 20
-92.68230834
  0
VERTEX
  8
0
 10
64.41586352
 20
-92.52229170
  0
VERTEX
  8
0
 10
64.06673579
 20
-92.39450934
  0
VERTEX
  8
0
 10
63.70256457
 20
-92.30087135
  0
VERTEX
  8
0
 10
63.32525995
 20
-92.24328783
  0
VERTEX
  8
0
 10
62.93673203
 20
-92.22366886
  0
VERTEX
  8
0
 10
62.54820410
 20
-92.24328783
  0
VERTEX
  8
0
 10
62.17089949
 20
-92.30087135
  0
VERTEX
  8
0
 10
61.80672827
 20
-92.39450934
  0
VERTEX
  8
0
 10
61.45760054
 20
-92.52229170
  0
VERTEX
  8
0
 10
61.12542638
 20
-92.68230834
  0
VERTEX
  8
0
 10
60.81211589
 20
-92.87264918
  0
VERTEX
  8
0
 10
60.51957915
 20
-93.09140413
  0
VERTEX
  8
0
 10
60.24972626
 20
-93.33666309
  0
VERTEX
  8
0
 10
60.00446729
 20
-93.60651599
  0
VERTEX
  8
0
 10
59.78571235
 20
-93.89905273
  0
VERTEX
  8
0
 10
59.59537151
 20
-94.21236322
  0
VERTEX
  8
0
 10
59.43535486
 20
-94.54453737
  0
VERTEX
  8
0
 10
59.30757251
 20
-94.89366510
  0
VERTEX
  8
0
 10
59.21393452
 20
-95.25783632
  0
VERTEX
  8
0
 10
59.15635100
 20
-95.63514093
  0
VERTEX
  8
0
 10
59.13673203
 20
-96.02366886
  0
SEQEND
  0
POLYLINE
  8
Livello Standard
 66
   1
 39
0.000000
 70
    1
  0
VERTEX
  8
0
 10
38.62598131
 20
-111.58558481
  0
VERTEX
  8
0
 10
38.63411377
 20
-111.90720898
  0
VERTEX
  8
0
 10
38.65824936
 20
-112.22461100
  0
VERTEX
  8
0
 10
38.69799536
 20
-112.53739818
  0
VERTEX
  8
0
 10
38.75295910
 20
-112.84517781
  0
VERTEX
  8
0
 10
38.82274786
 20
-113.14755719
  0
VERTEX
  8
0
 10
38.90696894
 20
-113.44414363
  0
VERTEX
  8
0
 10
39.00522965
 20
-113.73454442
  0
VERTEX
  8
0
 10
39.11713729
 20
-114.01836687
  0
VERTEX
  8
0
 10
39.38032256
 20
-114.56470594
  0
VERTEX
  8
0
 10
39.69338315
 20
-115.08001924
  0
VERTEX
  8
0
 10
40.05317747
 20
-115.56116519
  0
VERTEX
  8
0
 10
40.45656393
 20
-116.00500219
  0
VERTEX
  8
0
 10
40.90040093
 20
-116.40838865
  0
VERTEX
  8
0
 10
41.38154688
 20
-116.76818297
  0
VERTEX
  8
0
 10
41.89686019
 20
-117.08124356
  0
VERTEX
  8
0
 10
42.44319926
 20
-117.34442883
  0
VERTEX
  8
0
 10
42.72702170
 20
-117.45633647
  0
VERTEX
  8
0
 10
43.01742250
 20
-117.55459718
  0
VERTEX
  8
0
 10
43.31400893
 20
-117.63881827
  0
VERTEX
  8
0
 10
43.61638832
 20
-117.70860702
  0
VERTEX
  8
0
 10
43.92416794
 20
-117.76357076
  0
VERTEX
  8
0
 10
44.23695512
 20
-117.80331677
  0
VERTEX
  8
0
 10
44.55435714
 20
-117.82745235
  0
VERTEX
  8
0
 10
44.87598131
 20
-117.83558481
  0
VERTEX
  8
0
 10
45.19760548
 20
-117.82745235
  0
VERTEX
  8
0
 10
45.51500750
 20
-117.80331677
  0
VERTEX
  8
0
 10
45.82779468
 20
-117.76357076
  0
VERTEX
  8
0
 10
46.13557431
 20
-117.70860702
  0
VERTEX
  8
0
 10
46.43795369
 20
-117.63881827
  0
VERTEX
  8
0
 10
46.73454013
 20
-117.55459718
  0
VERTEX
  8
0
 10
47.02494092
 20
-117.45633647
  0
VERTEX
  8
0
 10
47.30876337
 20
-117.34442883
  0
VERTEX
  8
0
 10
47.85510244
 20
-117.08124356
  0
VERTEX
  8
0
 10
48.37041574
 20
-116.76818297
  0
VERTEX
  8
0
 10
48.85156169
 20
-116.40838865
  0
VERTEX
  8
0
 10
49.29539869
 20
-116.00500219
  0
VERTEX
  8
0
 10
49.69878515
 20
-115.56116519
  0
VERTEX
  8
0
 10
50.05857947
 20
-115.08001924
  0
VERTEX
  8
0
 10
50.37164006
 20
-114.56470594
  0
VERTEX
  8
0
 10
50.63482533
 20
-114.01836687
  0
VERTEX
  8
0
 10
50.74673297
 20
-113.73454442
  0
VERTEX
  8
0
 10
50.84499368
 20
-113.44414363
  0
VERTEX
  8
0
 10
50.92921477
 20
-113.14755719
  0
VERTEX
  8
0
 10
50.99900352
 20
-112.84517781
  0
VERTEX
  8
0
 10
51.05396726
 20
-112.53739818
  0
VERTEX
  8
0
 10
51.09371327
 20
-112.22461100
  0
VERTEX
  8
0
 10
51.11784885
 20
-111.90720898
  0
VERTEX
  8
0
 10
51.12598131
 20
-111.58558481
  0
VERTEX
  8
0
 10
51.11784885
 20
-111.26396064
  0
VERTEX
  8
0
 10
51.09371327
 20
-110.94655862
  0
VERTEX
  8
0
 10
51.05396726
 20
-110.63377144
  0
VERTEX
  8
0
 10
50.99900352
 20
-110.32599182
  0
VERTEX
  8
0
 10
50.92921477
 20
-110.02361243
  0
VERTEX
  8
0
 10
50.84499368
 20
-109.72702600
  0
VERTEX
  8
0
 10
50.74673297
 20
-109.43662520
  0
VERTEX
  8
0
 10
50.63482533
 20
-109.15280276
  0
VERTEX
  8
0
 10
50.37164006
 20
-108.60646369
  0
VERTEX
  8
0
 10
50.05857947
 20
-108.09115038
  0
VERTEX
  8
0
 10
49.69878515
 20
-107.61000443
  0
VERTEX
  8
0
 10
49.29539869
 20
-107.16616743
  0
VERTEX
  8
0
 10
48.85156169
 20
-106.76278097
  0
VERTEX
  8
0
 10
48.37041574
 20
-106.40298665
  0
VERTEX
  8
0
 10
47.85510244
 20
-106.08992606
  0
VERTEX
  8
0
 10
47.30876337
 20
-105.82674079
  0
VERTEX
  8
0
 10
47.02494092
 20
-105.71483315
  0
VERTEX
  8
0
 10
46.73454013
 20
-105.61657244
  0
VERTEX
  8
0
 10
46.43795369
 20
-105.53235136
  0
VERTEX
  8
0
 10
46.13557431
 20
-105.46256260
  0
VERTEX
  8
0
 10
45.82779468
 20
-105.40759886
  0
VERTEX
  8
0
 10
45.51500750
 20
-105.36785286
  0
VERTEX
  8
0
 10
45.19760548
 20
-105.34371727
  0
VERTEX
  8
0
 10
44.87598131
 20
-105.33558481
  0
VERTEX
  8
0
 10
44.55435714
 20
-105.34371727
  0
VERTEX
  8
0
 10
44.23695512
 20
-105.36785286
  0
VERTEX
  8
0
 10
43.92416794
 20
-105.40759886
  0
VERTEX
  8
0
 10
43.61638832
 20
-105.46256260
  0
VERTEX
  8
0
 10
43.31400893
 20
-105.53235136
  0
VERTEX
  8
0
 10
43.01742250
 20
-105.61657244
  0
VERTEX
  8
0
 10
42.72702170
 20
-105.71483315
  0
VERTEX
  8
0
 10
42.44319926
 20
-105.82674079
  0
VERTEX
  8
0
 10
41.89686019
 20
-106.08992606
  0
VERTEX
  8
0
 10
41.38154688
 20
-106.40298665
  0
VERTEX
  8
0
 10
40.90040093
 20
-106.76278097
  0
VERTEX
  8
0
 10
40.45656393
 20
-107.16616743
  0
VERTEX
  8
0
 10
40.05317747
 20
-107.61000443
  0
VERTEX
  8
0
 10
39.69338315
 20
-108.09115038
  0
VERTEX
  8
0
 10
39.38032256
 20
-108.60646369
  0
VERTEX
  8
0
 10
39.11713729
 20
-109.15280276
  0
VERTEX
  8
0
 10
39.00522965
 20
-109.43662520
  0
VERTEX
  8
0
 10
38.90696894
 20
-109.72702600
  0
VERTEX
  8
0
 10
38.82274786
 20
-110.02361243
  0
VERTEX
  8
0
 10
38.75295910
 20
-110.32599182
  0
VERTEX
  8
0
 10
38.69799536
 20
-110.63377144
  0
VERTEX
  8
0
 10
38.65824936
 20
-110.94655862
  0
VERTEX
  8
0
 10
38.63411377
 20
-111.26396064
  0
VERTEX
  8
0
 10
38.62598131
 20
-111.58558481
  0
SEQEND
  0
POLYLINE
  8
Livello Standard
 66
   1
 39
0.000000
 70
    1
  0
VERTEX
  8
0
 10
43.62714798
 20
-109.96633481
  0
VERTEX
  8
0
 10
43.62714798
 20
-113.20483481
  0
VERTEX
  8
0
 10
46.06131464
 20
-112.88733481
  0
VERTEX
  8
0
 10
46.12481464
 20
-110.43200148
  0
VERTEX
  8
0
 10
43.62714798
 20
-109.96633481
  0
SEQEND
  0
POLYLINE
  8
Livello Standard
 66
   1
 39
0.000000
 70
    1
  0
VERTEX
  8
0
 10
31.23273203
 20
-100.25700219
  0
VERTEX
  8
0
 10
31.23273203
 20
-92.25700219
  0
VERTEX
  8
0
 10
34.73273203
 20
-92.25700219
  0
VERTEX
  8
0
 10
34.73273203
 20
-100.25700219
  0
VERTEX
  8
0
 10
31.23273203
 20
-100.25700219
  0
SEQEND
  0
POLYLINE
  8
Livello Standard
 66
   1
 39
0.000000
 70
    1
  0
VERTEX
  8
0
 10
48.42006536
 20
-77.07900219
  0
VERTEX
  8
0
 10
48.42006536
 20
-69.07900219
  0
VERTEX
  8
0
 10
51.92006536
 20
-69.07900219
  0
VERTEX
  8
0
 10
51.92006536
 20
-77.07900219
  0
VERTEX
  8
0
 10
48.42006536
 20
-77.07900219
  0
SEQEND
  0
POLYLINE
  8
Livello Standard
 66
   1
 39
0.000000
 70
    1
  0
VERTEX
  8
0
 10
64.32806536
 20
-84.03900219
  0
VERTEX
  8
0
 10
64.34431852
 20
-84.20023010
  0
VERTEX
  8
0
 10
64.39093333
 20
-84.35039830
  0
VERTEX
  8
0
 10
64.46469280
 20
-84.48628980
  0
VERTEX
  8
0
 10
64.56237994
 20
-84.60468762
  0
VERTEX
  8
0
 10
64.68077775
 20
-84.70237476
  0
VERTEX
  8
0
 10
64.81666926
 20
-84.77613423
  0
VERTEX
  8
0
 10
64.96683746
 20
-84.82274904
  0
VERTEX
  8
0
 10
65.12806536
 20
-84.83900219
  0
VERTEX
  8
0
 10
65.28929326
 20
-84.82274904
  0
VERTEX
  8
0
 10
65.43946146
 20
-84.77613423
  0
VERTEX
  8
0
 10
65.57535297
 20
-84.70237476
  0
VERTEX
  8
0
 10
65.69375078
 20
-84.60468762
  0
VERTEX
  8
0
 10
65.79143792
 20
-84.48628980
  0
VERTEX
  8
0
 10
65.86519739
 20
-84.35039830
  0
VERTEX
  8
0
 10
65.91181220
 20
-84.20023010
  0
VERTEX
  8
0
 10
65.92806536
 20
-84.03900219
  0
VERTEX
  8
0
 10
65.91181220
 20
-83.87777429
  0
VERTEX
  8
0
 10
65.86519739
 20
-83.72760609
  0
VERTEX
  8
0
 10
65.79143792
 20
-83.59171459
  0
VERTEX
  8
0
 10
65.69375078
 20
-83.47331677
  0
VERTEX
  8
0
 10
65.57535297
 20
-83.37562963
  0
VERTEX
  8
0
 10
65.43946146
 20
-83.30187016
  0
VERTEX
  8
0
 10
65.28929326
 20
-83.25525535
  0
VERTEX
  8
0
 10
65.12806536
 20
-83.23900219
  0
VERTEX
  8
0
 10
64.96683746
 20
-83.25525535
  0
VERTEX
  8
0
 10
64.81666926
 20
-83.30187016
  0
VERTEX
  8
0
 10
64.68077775
 20
-83.37562963
  0
VERTEX
  8
0
 10
64.56237994
 20
-83.47331677
  0
VERTEX
  8
0
 10
64.46469280
 20
-83.59171459
  0
VERTEX
  8
0
 10
64.39093333
 20
-83.72760609
  0
VERTEX
  8
0
 10
64.34431852
 20
-83.87777429
  0
VERTEX
  8
0
 10
64.32806536
 20
-84.03900219
  0
SEQEND
  0
POLYLINE
  8
Livello Standard
 66
   1
 39
0.000000
 70
    1
  0
VERTEX
  8
0
 10
65.00539869
 20
-79.63633553
  0
VERTEX
  8
0
 10
65.02165185
 20
-79.79756343
  0
VERTEX
  8
0
 10
65.06826666
 20
-79.94773163
  0
VERTEX
  8
0
 10
65.14202613
 20
-80.08362313
  0
VERTEX
  8
0
 10
65.23971327
 20
-80.20202095
  0
VERTEX
  8
0
 10
65.35811109
 20
-80.29970809
  0
VERTEX
  8
0
 10
65.49400259
 20
-80.37346756
  0
VERTEX
  8
0
 10
65.64417079
 20
-80.42008237
  0
VERTEX
  8
0
 10
65.80539869
 20
-80.43633553
  0
VERTEX
  8
0
 10
65.96662660
 20
-80.42008237
  0
VERTEX
  8
0
 10
66.11679480
 20
-80.37346756
  0
VERTEX
  8
0
 10
66.25268630
 20
-80.29970809
  0
VERTEX
  8
0
 10
66.37108412
 20
-80.20202095
  0
VERTEX
  8
0
 10
66.46877126
 20
-80.08362313
  0
VERTEX
  8
0
 10
66.54253073
 20
-79.94773163
  0
VERTEX
  8
0
 10
66.58914554
 20
-79.79756343
  0
VERTEX
  8
0
 10
66.60539869
 20
-79.63633553
  0
VERTEX
  8
0
 10
66.58914554
 20
-79.47510762
  0
VERTEX
  8
0
 10
66.54253073
 20
-79.32493942
  0
VERTEX
  8
0
 10
66.46877126
 20
-79.18904792
  0
VERTEX
  8
0
 10
66.37108412
 20
-79.07065010
  0
VERTEX
  8
0
 10
66.25268630
 20
-78.97296296
  0
VERTEX
  8
0
 10
66.11679480
 20
-78.89920349
  0
VERTEX
  8
0
 10
65.96662660
 20
-78.85258868
  0
VERTEX
  8
0
 10
65.80539869
 20
-78.83633553
  0
VERTEX
  8
0
 10
65.64417079
 20
-78.85258868
  0
VERTEX
  8
0
 10
65.49400259
 20
-78.89920349
  0
VERTEX
  8
0
 10
65.35811109
 20
-78.97296296
  0
VERTEX
  8
0
 10
65.23971327
 20
-79.07065010
  0
VERTEX
  8
0
 10
65.14202613
 20
-79.18904792
  0
VERTEX
  8
0
 10
65.06826666
 20
-79.32493942
  0
VERTEX
  8
0
 10
65.02165185
 20
-79.47510762
  0
VERTEX
  8
0
 10
65.00539869
 20
-79.63633553
  0
SEQEND
  0
POLYLINE
  8
Livello Standard
 66
   1
 39
0.000000
 70
    1
  0
VERTEX
  8
0
 10
69.06271457
 20
-107.90661115
  0
VERTEX
  8
0
 10
69.07167412
 20
-107.99548804
  0
VERTEX
  8
0
 10
69.09737053
 20
-108.07826826
  0
VERTEX
  8
0
 10
69.13803044
 20
-108.15317845
  0
VERTEX
  8
0
 10
69.19188048
 20
-108.21844524
  0
VERTEX
  8
0
 10
69.25714727
 20
-108.27229528
  0
VERTEX
  8
0
 10
69.33205747
 20
-108.31295519
  0
VERTEX
  8
0
 10
69.41483769
 20
-108.33865160
  0
VERTEX
  8
0
 10
69.50371457
 20
-108.34761115
  0
VERTEX
  8
0
 10
69.59259145
 20
-108.33865160
  0
VERTEX
  8
0
 10
69.67537167
 20
-108.31295519
  0
VERTEX
  8
0
 10
69.75028186
 20
-108.27229528
  0
VERTEX
  8
0
 10
69.81554866
 20
-108.21844524
  0
VERTEX
  8
0
 10
69.86939869
 20
-108.15317845
  0
VERTEX
  8
0
 10
69.91005860
 20
-108.07826826
  0
VERTEX
  8
0
 10
69.93575501
 20
-107.99548804
  0
VERTEX
  8
0
 10
69.94471457
 20
-107.90661115
  0
VERTEX
  8
0
 10
69.93575501
 20
-107.81773427
  0
VERTEX
  8
0
 10
69.91005860
 20
-107.73495405
  0
VERTEX
  8
0
 10
69.86939869
 20
-107.66004386
  0
VERTEX
  8
0
 10
69.81554866
 20
-107.59477706
  0
VERTEX
  8
0
 10
69.75028186
 20
-107.54092703
  0
VERTEX
  8
0
 10
69.67537167
 20
-107.50026712
  0
VERTEX
  8
0
 10
69.59259145
 20
-107.47457071
  0
VERTEX
  8
0
 10
69.50371457
 20
-107.46561115
  0
VERTEX
  8
0
 10
69.41483769
 20
-107.47457071
  0
VERTEX
  8
0
 10
69.33205747
 20
-107.50026712
  0
VERTEX
  8
0
 10
69.25714727
 20
-107.54092703
  0
VERTEX
  8
0
 10
69.19188048
 20
-107.59477706
  0
VERTEX
  8
0
 10
69.13803044
 20
-107.66004386
  0
VERTEX
  8
0
 10
69.09737053
 20
-107.73495405
  0
VERTEX
  8
0
 10
69.07167412
 20
-107.81773427
  0
VERTEX
  8
0
 10
69.06271457
 20
-107.90661115
  0
SEQEND
  0
POLYLINE
  8
Livello Standard
 66
   1
 39
0.000000
 70
    1
  0
VERTEX
  8
0
 10
68.20252369
 20
-106.62816886
  0
VERTEX
  8
0
 10
67.83739869
 20
-109.15229386
  0
VERTEX
  8
0
 10
71.05473203
 20
-109.14700219
  0
VERTEX
  8
0
 10
70.72135703
 20
-106.62816886
  0
VERTEX
  8
0
 10
68.20252369
 20
-106.62816886
  0
SEQEND
  0
POLYLINE
  8
Livello Standard
 66
   1
 39
0.000000
 70
    1
  0
VERTEX
  8
0
 10
77.70673203
 20
-106.94566886
  0
VERTEX
  8
0
 10
77.70673203
 20
-98.44566886
  0
VERTEX
  8
0
 10
80.70673203
 20
-98.44566886
  0
VERTEX
  8
0
 10
80.70673203
 20
-106.94566886
  0
VERTEX
  8
0
 10
77.70673203
 20
-106.94566886
  0
SEQEND
  0
POLYLINE
  8
Livello Standard
 66
   1
 39
0.000000
 70
    1
  0
VERTEX
  8
0
 10
73.61873203
 20
-94.69916886
  0
VERTEX
  8
0
 10
73.61873203
 20
-87.69916886
  0
VERTEX
  8
0
 10
76.61873203
 20
-87.69916886
  0
VERTEX
  8
0
 10
76.61873203
 20
-94.69916886
  0
VERTEX
  8
0
 10
73.61873203
 20
-94.69916886
  0
SEQEND
  0
POLYLINE
  8
Livello Standard
 66
   1
 39
0.000000
 70
    1
  0
VERTEX
  8
0
 10
32.25289869
 20
-118.93416886
  0
VERTEX
  8
0
 10
32.26528962
 20
-119.17955492
  0
VERTEX
  8
0
 10
32.30165816
 20
-119.41785257
  0
VERTEX
  8
0
 10
32.36079794
 20
-119.64785544
  0
VERTEX
  8
0
 10
32.44150259
 20
-119.86835717
  0
VERTEX
  8
0
 10
32.54256573
 20
-120.07815137
  0
VERTEX
  8
0
 10
32.66278100
 20
-120.27603168
  0
VERTEX
  8
0
 10
32.80094202
 20
-120.46079173
  0
VERTEX
  8
0
 10
32.95584242
 20
-120.63122513
  0
VERTEX
  8
0
 10
33.12627583
 20
-120.78612553
  0
VERTEX
  8
0
 10
33.31103587
 20
-120.92428655
  0
VERTEX
  8
0
 10
33.50891618
 20
-121.04450182
  0
VERTEX
  8
0
 10
33.71871038
 20
-121.14556496
  0
VERTEX
  8
0
 10
33.93921211
 20
-121.22626961
  0
VERTEX
  8
0
 10
34.16921498
 20
-121.28540939
  0
VERTEX
  8
0
 10
34.40751264
 20
-121.32177793
  0
VERTEX
  8
0
 10
34.65289869
 20
-121.33416886
  0
VERTEX
  8
0
 10
34.89828475
 20
-121.32177793
  0
VERTEX
  8
0
 10
35.13658240
 20
-121.28540939
  0
VERTEX
  8
0
 10
35.36658528
 20
-121.22626961
  0
VERTEX
  8
0
 10
35.58708700
 20
-121.14556496
  0
VERTEX
  8
0
 10
35.79688121
 20
-121.04450182
  0
VERTEX
  8
0
 10
35.99476152
 20
-120.92428655
  0
VERTEX
  8
0
 10
36.17952156
 20
-120.78612553
  0
VERTEX
  8
0
 10
36.34995497
 20
-120.63122513
  0
VERTEX
  8
0
 10
36.50485537
 20
-120.46079173
  0
VERTEX
  8
0
 10
36.64301639
 20
-120.27603168
  0
VERTEX
  8
0
 10
36.76323165
 20
-120.07815137
  0
VERTEX
  8
0
 10
36.86429480
 20
-119.86835717
  0
VERTEX
  8
0
 10
36.94499944
 20
-119.64785544
  0
VERTEX
  8
0
 10
37.00413922
 20
-119.41785257
  0
VERTEX
  8
0
 10
37.04050776
 20
-119.17955492
  0
VERTEX
  8
0
 10
37.05289869
 20
-118.93416886
  0
VERTEX
  8
0
 10
37.04050776
 20
-118.68878280
  0
VERTEX
  8
0
 10
37.00413922
 20
-118.45048515
  0
VERTEX
  8
0
 10
36.94499944
 20
-118.22048228
  0
VERTEX
  8
0
 10
36.86429480
 20
-117.99998055
  0
VERTEX
  8
0
 10
36.76323165
 20
-117.79018635
  0
VERTEX
  8
0
 10
36.64301639
 20
-117.59230604
  0
VERTEX
  8
0
 10
36.50485537
 20
-117.40754599
  0
VERTEX
  8
0
 10
36.34995497
 20
-117.23711259
  0
VERTEX
  8
0
 10
36.17952156
 20
-117.08221219
  0
VERTEX
  8
0
 10
35.99476152
 20
-116.94405117
  0
VERTEX
  8
0
 10
35.79688121
 20
-116.82383590
  0
VERTEX
  8
0
 10
35.58708700
 20
-116.72277276
  0
VERTEX
  8
0
 10
35.36658528
 20
-116.64206811
  0
VERTEX
  8
0
 10
35.13658240
 20
-116.58292833
  0
VERTEX
  8
0
 10
34.89828475
 20
-116.54655979
  0
VERTEX
  8
0
 10
34.65289869
 20
-116.53416886
  0
VERTEX
  8
0
 10
34.40751264
 20
-116.54655979
  0
VERTEX
  8
0
 10
34.16921498
 20
-116.58292833
  0
VERTEX
  8
0
 10
33.93921211
 20
-116.64206811
  0
VERTEX
  8
0
 10
33.71871038
 20
-116.72277276
  0
VERTEX
  8
0
 10
33.50891618
 20
-116.82383590
  0
VERTEX
  8
0
 10
33.31103587
 20
-116.94405117
  0
VERTEX
  8
0
 10
33.12627583
 20
-117.08221219
  0
VERTEX
  8
0
 10
32.95584242
 20
-117.23711259
  0
VERTEX
  8
0
 10
32.80094202
 20
-117.40754599
  0
VERTEX
  8
0
 10
32.66278100
 20
-117.59230604
  0
VERTEX
  8
0
 10
32.54256573
 20
-117.79018635
  0
VERTEX
  8
0
 10
32.44150259
 20
-117.99998055
  0
VERTEX
  8
0
 10
32.36079794
 20
-118.22048228
  0
VERTEX
  8
0
 10
32.30165816
 20
-118.45048515
  0
VERTEX
  8
0
 10
32.26528962
 20
-118.68878280
  0
VERTEX
  8
0
 10
32.25289869
 20
-118.93416886
  0
SEQEND
  0
POLYLINE
  8
Livello Standard
 66
   1
 39
0.000000
 70
    1
  0
VERTEX
  8
0
 10
32.41549447
 20
-113.64342513
  0
VERTEX
  8
0
 10
32.42788540
 20
-113.88881119
  0
VERTEX
  8
0
 10
32.46425394
 20
-114.12710884
  0
VERTEX
  8
0
 10
32.52339372
 20
-114.35711171
  0
VERTEX
  8
0
 10
32.60409837
 20
-114.57761344
  0
VERTEX
  8
0
 10
32.70516151
 20
-114.78740764
  0
VERTEX
  8
0
 10
32.82537678
 20
-114.98528795
  0
VERTEX
  8
0
 10
32.96353779
 20
-115.17004800
  0
VERTEX
  8
0
 10
33.11843819
 20
-115.34048140
  0
VERTEX
  8
0
 10
33.28887160
 20
-115.49538180
  0
VERTEX
  8
0
 10
33.47363165
 20
-115.63354282
  0
VERTEX
  8
0
 10
33.67151196
 20
-115.75375809
  0
VERTEX
  8
0
 10
33.88130616
 20
-115.85482123
  0
VERTEX
  8
0
 10
34.10180788
 20
-115.93552588
  0
VERTEX
  8
0
 10
34.33181076
 20
-115.99466566
  0
VERTEX
  8
0
 10
34.57010841
 20
-116.03103420
  0
VERTEX
  8
0
 10
34.81549447
 20
-116.04342513
  0
VERTEX
  8
0
 10
35.06088053
 20
-116.03103420
  0
VERTEX
  8
0
 10
35.29917818
 20
-115.99466566
  0
VERTEX
  8
0
 10
35.52918105
 20
-115.93552588
  0
VERTEX
  8
0
 10
35.74968278
 20
-115.85482123
  0
VERTEX
  8
0
 10
35.95947698
 20
-115.75375809
  0
VERTEX
  8
0
 10
36.15735729
 20
-115.63354282
  0
VERTEX
  8
0
 10
36.34211734
 20
-115.49538180
  0
VERTEX
  8
0
 10
36.51255074
 20
-115.34048140
  0
VERTEX
  8
0
 10
36.66745114
 20
-115.17004800
  0
VERTEX
  8
0
 10
36.80561216
 20
-114.98528795
  0
VERTEX
  8
0
 10
36.92582743
 20
-114.78740764
  0
VERTEX
  8
0
 10
37.02689057
 20
-114.57761344
  0
VERTEX
  8
0
 10
37.10759522
 20
-114.35711171
  0
VERTEX
  8
0
 10
37.16673500
 20
-114.12710884
  0
VERTEX
  8
0
 10
37.20310354
 20
-113.88881119
  0
VERTEX
  8
0
 10
37.21549447
 20
-113.64342513
  0
VERTEX
  8
0
 10
37.20310354
 20
-113.39803907
  0
VERTEX
  8
0
 10
37.16673500
 20
-113.15974142
  0
VERTEX
  8
0
 10
37.10759522
 20
-112.92973854
  0
VERTEX
  8
0
 10
37.02689057
 20
-112.70923682
  0
VERTEX
  8
0
 10
36.92582743
 20
-112.49944262
  0
VERTEX
  8
0
 10
36.80561216
 20
-112.30156231
  0
VERTEX
  8
0
 10
36.66745114
 20
-112.11680226
  0
VERTEX
  8
0
 10
36.51255074
 20
-111.94636885
  0
VERTEX
  8
0
 10
36.34211734
 20
-111.79146845
  0
VERTEX
  8
0
 10
36.15735729
 20
-111.65330744
  0
VERTEX
  8
0
 10
35.95947698
 20
-111.53309217
  0
VERTEX
  8
0
 10
35.74968278
 20
-111.43202903
  0
VERTEX
  8
0
 10
35.52918105
 20
-111.35132438
  0
VERTEX
  8
0
 10
35.29917818
 20
-111.29218460
  0
VERTEX
  8
0
 10
35.06088053
 20
-111.25581606
  0
VERTEX
  8
0
 10
34.81549447
 20
-111.24342513
  0
VERTEX
  8
0
 10
34.57010841
 20
-111.25581606
  0
VERTEX
  8
0
 10
34.33181076
 20
-111.29218460
  0
VERTEX
  8
0
 10
34.10180788
 20
-111.35132438
  0
VERTEX
  8
0
 10
33.88130616
 20
-111.43202903
  0
VERTEX
  8
0
 10
33.67151196
 20
-111.53309217
  0
VERTEX
  8
0
 10
33.47363165
 20
-111.65330744
  0
VERTEX
  8
0
 10
33.28887160
 20
-111.79146845
  0
VERTEX
  8
0
 10
33.11843819
 20
-111.94636885
  0
VERTEX
  8
0
 10
32.96353779
 20
-112.11680226
  0
VERTEX
  8
0
 10
32.82537678
 20
-112.30156231
  0
VERTEX
  8
0
 10
32.70516151
 20
-112.49944262
  0
VERTEX
  8
0
 10
32.60409837
 20
-112.70923682
  0
VERTEX
  8
0
 10
32.52339372
 20
-112.92973854
  0
VERTEX
  8
0
 10
32.46425394
 20
-113.15974142
  0
VERTEX
  8
0
 10
32.42788540
 20
-113.39803907
  0
VERTEX
  8
0
 10
32.41549447
 20
-113.64342513
  0
SEQEND
  0
POLYLINE
  8
Livello Standard
 66
   1
 39
0.000000
 70
    1
  0
VERTEX
  8
0
 10
29.80066953
 20
-107.19437719
  0
VERTEX
  8
0
 10
29.81306046
 20
-107.43976325
  0
VERTEX
  8
0
 10
29.84942900
 20
-107.67806090
  0
VERTEX
  8
0
 10
29.90856878
 20
-107.90806378
  0
VERTEX
  8
0
 10
29.98927342
 20
-108.12856550
  0
VERTEX
  8
0
 10
30.09033657
 20
-108.33835971
  0
VERTEX
  8
0
 10
30.21055183
 20
-108.53624002
  0
VERTEX
  8
0
 10
30.34871285
 20
-108.72100006
  0
VERTEX
  8
0
 10
30.50361325
 20
-108.89143347
  0
VERTEX
  8
0
 10
30.67404666
 20
-109.04633387
  0
VERTEX
  8
0
 10
30.85880670
 20
-109.18449489
  0
VERTEX
  8
0
 10
31.05668701
 20
-109.30471015
  0
VERTEX
  8
0
 10
31.26648122
 20
-109.40577330
  0
VERTEX
  8
0
 10
31.48698294
 20
-109.48647794
  0
VERTEX
  8
0
 10
31.71698582
 20
-109.54561772
  0
VERTEX
  8
0
 10
31.95528347
 20
-109.58198626
  0
VERTEX
  8
0
 10
32.20066953
 20
-109.59437719
  0
VERTEX
  8
0
 10
32.44605558
 20
-109.58198626
  0
VERTEX
  8
0
 10
32.68435324
 20
-109.54561772
  0
VERTEX
  8
0
 10
32.91435611
 20
-109.48647794
  0
VERTEX
  8
0
 10
33.13485784
 20
-109.40577330
  0
VERTEX
  8
0
 10
33.34465204
 20
-109.30471015
  0
VERTEX
  8
0
 10
33.54253235
 20
-109.18449489
  0
VERTEX
  8
0
 10
33.72729239
 20
-109.04633387
  0
VERTEX
  8
0
 10
33.89772580
 20
-108.89143347
  0
VERTEX
  8
0
 10
34.05262620
 20
-108.72100006
  0
VERTEX
  8
0
 10
34.19078722
 20
-108.53624002
  0
VERTEX
  8
0
 10
34.31100249
 20
-108.33835971
  0
VERTEX
  8
0
 10
34.41206563
 20
-108.12856550
  0
VERTEX
  8
0
 10
34.49277028
 20
-107.90806378
  0
VERTEX
  8
0
 10
34.55191006
 20
-107.67806090
  0
VERTEX
  8
0
 10
34.58827860
 20
-107.43976325
  0
VERTEX
  8
0
 10
34.60066953
 20
-107.19437719
  0
VERTEX
  8
0
 10
34.58827860
 20
-106.94899114
  0
VERTEX
  8
0
 10
34.55191006
 20
-106.71069348
  0
VERTEX
  8
0
 10
34.49277028
 20
-106.48069061
  0
VERTEX
  8
0
 10
34.41206563
 20
-106.26018888
  0
VERTEX
  8
0
 10
34.31100249
 20
-106.05039468
  0
VERTEX
  8
0
 10
34.19078722
 20
-105.85251437
  0
VERTEX
  8
0
 10
34.05262620
 20
-105.66775433
  0
VERTEX
  8
0
 10
33.89772580
 20
-105.49732092
  0
VERTEX
  8
0
 10
33.72729239
 20
-105.34242052
  0
VERTEX
  8
0
 10
33.54253235
 20
-105.20425950
  0
VERTEX
  8
0
 10
33.34465204
 20
-105.08404423
  0
VERTEX
  8
0
 10
33.13485784
 20
-104.98298109
  0
VERTEX
  8
0
 10
32.91435611
 20
-104.90227644
  0
VERTEX
  8
0
 10
32.68435324
 20
-104.84313666
  0
VERTEX
  8
0
 10
32.44605558
 20
-104.80676812
  0
VERTEX
  8
0
 10
32.20066953
 20
-104.79437719
  0
VERTEX
  8
0
 10
31.95528347
 20
-104.80676812
  0
VERTEX
  8
0
 10
31.71698582
 20
-104.84313666
  0
VERTEX
  8
0
 10
31.48698294
 20
-104.90227644
  0
VERTEX
  8
0
 10
31.26648122
 20
-104.98298109
  0
VERTEX
  8
0
 10
31.05668701
 20
-105.08404423
  0
VERTEX
  8
0
 10
30.85880670
 20
-105.20425950
  0
VERTEX
  8
0
 10
30.67404666
 20
-105.34242052
  0
VERTEX
  8
0
 10
30.50361325
 20
-105.49732092
  0
VERTEX
  8
0
 10
30.34871285
 20
-105.66775433
  0
VERTEX
  8
0
 10
30.21055183
 20
-105.85251437
  0
VERTEX
  8
0
 10
30.09033657
 20
-106.05039468
  0
VERTEX
  8
0
 10
29.98927342
 20
-106.26018888
  0
VERTEX
  8
0
 10
29.90856878
 20
-106.48069061
  0
VERTEX
  8
0
 10
29.84942900
 20
-106.71069348
  0
VERTEX
  8
0
 10
29.81306046
 20
-106.94899114
  0
VERTEX
  8
0
 10
29.80066953
 20
-107.19437719
  0
SEQEND
  0
POLYLINE
  8
Livello Standard
 66
   1
 39
0.000000
 70
    1
  0
VERTEX
  8
0
 10
32.38806536
 20
-124.55633553
  0
VERTEX
  8
0
 10
32.40045629
 20
-124.80172158
  0
VERTEX
  8
0
 10
32.43682483
 20
-125.04001924
  0
VERTEX
  8
0
 10
32.49596461
 20
-125.27002211
  0
VERTEX
  8
0
 10
32.57666926
 20
-125.49052384
  0
VERTEX
  8
0
 10
32.67773240
 20
-125.70031804
  0
VERTEX
  8
0
 10
32.79794767
 20
-125.89819835
  0
VERTEX
  8
0
 10
32.93610869
 20
-126.08295839
  0
VERTEX
  8
0
 10
33.09100909
 20
-126.25339180
  0
VERTEX
  8
0
 10
33.26144249
 20
-126.40829220
  0
VERTEX
  8
0
 10
33.44620254
 20
-126.54645322
  0
VERTEX
  8
0
 10
33.64408285
 20
-126.66666849
  0
VERTEX
  8
0
 10
33.85387705
 20
-126.76773163
  0
VERTEX
  8
0
 10
34.07437878
 20
-126.84843628
  0
VERTEX
  8
0
 10
34.30438165
 20
-126.90757606
  0
VERTEX
  8
0
 10
34.54267930
 20
-126.94394460
  0
VERTEX
  8
0
 10
34.78806536
 20
-126.95633553
  0
VERTEX
  8
0
 10
35.03345142
 20
-126.94394460
  0
VERTEX
  8
0
 10
35.27174907
 20
-126.90757606
  0
VERTEX
  8
0
 10
35.50175194
 20
-126.84843628
  0
VERTEX
  8
0
 10
35.72225367
 20
-126.76773163
  0
VERTEX
  8
0
 10
35.93204787
 20
-126.66666849
  0
VERTEX
  8
0
 10
36.12992818
 20
-126.54645322
  0
VERTEX
  8
0
 10
36.31468823
 20
-126.40829220
  0
VERTEX
  8
0
 10
36.48512163
 20
-126.25339180
  0
VERTEX
  8
0
 10
36.64002203
 20
-126.08295839
  0
VERTEX
  8
0
 10
36.77818305
 20
-125.89819835
  0
VERTEX
  8
0
 10
36.89839832
 20
-125.70031804
  0
VERTEX
  8
0
 10
36.99946146
 20
-125.49052384
  0
VERTEX
  8
0
 10
37.08016611
 20
-125.27002211
  0
VERTEX
  8
0
 10
37.13930589
 20
-125.04001924
  0
VERTEX
  8
0
 10
37.17567443
 20
-124.80172158
  0
VERTEX
  8
0
 10
37.18806536
 20
-124.55633553
  0
VERTEX
  8
0
 10
37.17567443
 20
-124.31094947
  0
VERTEX
  8
0
 10
37.13930589
 20
-124.07265182
  0
VERTEX
  8
0
 10
37.08016611
 20
-123.84264894
  0
VERTEX
  8
0
 10
36.99946146
 20
-123.62214722
  0
VERTEX
  8
0
 10
36.89839832
 20
-123.41235301
  0
VERTEX
  8
0
 10
36.77818305
 20
-123.21447270
  0
VERTEX
  8
0
 10
36.64002203
 20
-123.02971266
  0
VERTEX
  8
0
 10
36.48512163
 20
-122.85927925
  0
VERTEX
  8
0
 10
36.31468823
 20
-122.70437885
  0
VERTEX
  8
0
 10
36.12992818
 20
-122.56621783
  0
VERTEX
  8
0
 10
35.93204787
 20
-122.44600257
  0
VERTEX
  8
0
 10
35.72225367
 20
-122.34493942
  0
VERTEX
  8
0
 10
35.50175194
 20
-122.26423478
  0
VERTEX
  8
0
 10
35.27174907
 20
-122.20509500
  0
VERTEX
  8
0
 10
35.03345142
 20
-122.16872646
  0
VERTEX
  8
0
 10
34.78806536
 20
-122.15633553
  0
VERTEX
  8
0
 10
34.54267930
 20
-122.16872646
  0
VERTEX
  8
0
 10
34.30438165
 20
-122.20509500
  0
VERTEX
  8
0
 10
34.07437878
 20
-122.26423478
  0
VERTEX
  8
0
 10
33.85387705
 20
-122.34493942
  0
VERTEX
  8
0
 10
33.64408285
 20
-122.44600257
  0
VERTEX
  8
0
 10
33.44620254
 20
-122.56621783
  0
VERTEX
  8
0
 10
33.26144249
 20
-122.70437885
  0
VERTEX
  8
0
 10
33.09100909
 20
-122.85927925
  0
VERTEX
  8
0
 10
32.93610869
 20
-123.02971266
  0
VERTEX
  8
0
 10
32.79794767
 20
-123.21447270
  0
VERTEX
  8
0
 10
32.67773240
 20
-123.41235301
  0
VERTEX
  8
0
 10
32.57666926
 20
-123.62214722
  0
VERTEX
  8
0
 10
32.49596461
 20
-123.84264894
  0
VERTEX
  8
0
 10
32.43682483
 20
-124.07265182
  0
VERTEX
  8
0
 10
32.40045629
 20
-124.31094947
  0
VERTEX
  8
0
 10
32.38806536
 20
-124.55633553
  0
SEQEND
  0
POLYLINE
  8
Livello Standard
 66
   1
 39
0.000000
 70
    1
  0
VERTEX
  8
0
 10
32.24582338
 20
-106.39416013
  0
VERTEX
  8
0
 10
32.15694650
 20
-106.40311968
  0
VERTEX
  8
0
 10
32.07416628
 20
-106.42881610
  0
VERTEX
  8
0
 10
31.99925609
 20
-106.46947600
  0
VERTEX
  8
0
 10
31.93398929
 20
-106.52332604
  0
VERTEX
  8
0
 10
31.88013925
 20
-106.58859284
  0
VERTEX
  8
0
 10
31.83947935
 20
-106.66350303
  0
VERTEX
  8
0
 10
31.81378293
 20
-106.74628325
  0
VERTEX
  8
0
 10
31.80482338
 20
-106.83516013
  0
VERTEX
  8
0
 10
31.81378293
 20
-106.92403701
  0
VERTEX
  8
0
 10
31.83947935
 20
-107.00681723
  0
VERTEX
  8
0
 10
31.88013925
 20
-107.08172742
  0
VERTEX
  8
0
 10
31.93398929
 20
-107.14699422
  0
VERTEX
  8
0
 10
31.99925609
 20
-107.20084426
  0
VERTEX
  8
0
 10
32.07416628
 20
-107.24150416
  0
VERTEX
  8
0
 10
32.15694650
 20
-107.26720058
  0
VERTEX
  8
0
 10
32.24582338
 20
-107.27616013
  0
VERTEX
  8
0
 10
32.33470026
 20
-107.26720058
  0
VERTEX
  8
0
 10
32.41748048
 20
-107.24150416
  0
VERTEX
  8
0
 10
32.49239067
 20
-107.20084426
  0
VERTEX
  8
0
 10
32.55765747
 20
-107.14699422
  0
VERTEX
  8
0
 10
32.61150751
 20
-107.08172742
  0
VERTEX
  8
0
 10
32.65216741
 20
-107.00681723
  0
VERTEX
  8
0
 10
32.67786383
 20
-106.92403701
  0
VERTEX
  8
0
 10
32.68682338
 20
-106.83516013
  0
VERTEX
  8
0
 10
32.67786383
 20
-106.74628325
  0
VERTEX
  8
0
 10
32.65216741
 20
-106.66350303
  0
VERTEX
  8
0
 10
32.61150751
 20
-106.58859284
  0
VERTEX
  8
0
 10
32.55765747
 20
-106.52332604
  0
VERTEX
  8
0
 10
32.49239067
 20
-106.46947600
  0
VERTEX
  8
0
 10
32.41748048
 20
-106.42881610
  0
VERTEX
  8
0
 10
32.33470026
 20
-106.40311968
  0
VERTEX
  8
0
 10
32.24582338
 20
-106.39416013
  0
SEQEND
  0
POLYLINE
  8
Livello Standard
 66
   1
 39
0.000000
 70
    1
  0
VERTEX
  8
0
 10
33.46273203
 20
-105.95083553
  0
VERTEX
  8
0
 10
30.93860703
 20
-105.58571053
  0
VERTEX
  8
0
 10
30.94389869
 20
-108.80304386
  0
VERTEX
  8
0
 10
33.46273203
 20
-108.46966886
  0
VERTEX
  8
0
 10
33.46273203
 20
-105.95083553
  0
SEQEND
  0
POLYLINE
  8
Livello Standard
 66
   1
 39
0.000000
 70
    1
  0
VERTEX
  8
0
 10
33.89406536
 20
-123.84466886
  0
VERTEX
  8
0
 10
33.90422358
 20
-123.94543630
  0
VERTEX
  8
0
 10
33.93335784
 20
-124.03929142
  0
VERTEX
  8
0
 10
33.97945751
 20
-124.12422361
  0
VERTEX
  8
0
 10
34.04051197
 20
-124.19822225
  0
VERTEX
  8
0
 10
34.11451061
 20
-124.25927671
  0
VERTEX
  8
0
 10
34.19944280
 20
-124.30537638
  0
VERTEX
  8
0
 10
34.29329792
 20
-124.33451064
  0
VERTEX
  8
0
 10
34.39406536
 20
-124.34466886
  0
VERTEX
  8
0
 10
34.49483280
 20
-124.33451064
  0
VERTEX
  8
0
 10
34.58868792
 20
-124.30537638
  0
VERTEX
  8
0
 10
34.67362011
 20
-124.25927671
  0
VERTEX
  8
0
 10
34.74761875
 20
-124.19822225
  0
VERTEX
  8
0
 10
34.80867321
 20
-124.12422361
  0
VERTEX
  8
0
 10
34.85477288
 20
-124.03929142
  0
VERTEX
  8
0
 10
34.88390714
 20
-123.94543630
  0
VERTEX
  8
0
 10
34.89406536
 20
-123.84466886
  0
VERTEX
  8
0
 10
34.88390714
 20
-123.74390142
  0
VERTEX
  8
0
 10
34.85477288
 20
-123.65004630
  0
VERTEX
  8
0
 10
34.80867321
 20
-123.56511411
  0
VERTEX
  8
0
 10
34.74761875
 20
-123.49111547
  0
VERTEX
  8
0
 10
34.67362011
 20
-123.43006101
  0
VERTEX
  8
0
 10
34.58868792
 20
-123.38396134
  0
VERTEX
  8
0
 10
34.49483280
 20
-123.35482708
  0
VERTEX
  8
0
 10
34.39406536
 20
-123.34466886
  0
VERTEX
  8
0
 10
34.29329792
 20
-123.35482708
  0
VERTEX
  8
0
 10
34.19944280
 20
-123.38396134
  0
VERTEX
  8
0
 10
34.11451061
 20
-123.43006101
  0
VERTEX
  8
0
 10
34.04051197
 20
-123.49111547
  0
VERTEX
  8
0
 10
33.97945751
 20
-123.56511411
  0
VERTEX
  8
0
 10
33.93335784
 20
-123.65004630
  0
VERTEX
  8
0
 10
33.90422358
 20
-123.74390142
  0
VERTEX
  8
0
 10
33.89406536
 20
-123.84466886
  0
SEQEND
  0
POLYLINE
  8
Livello Standard
 66
   1
 39
0.000000
 70
    1
  0
VERTEX
  8
0
 10
32.88739869
 20
-135.39366886
  0
VERTEX
  8
0
 10
32.89565931
 20
-135.55725957
  0
VERTEX
  8
0
 10
32.91990501
 20
-135.71612467
  0
VERTEX
  8
0
 10
32.95933153
 20
-135.86945992
  0
VERTEX
  8
0
 10
33.01313462
 20
-136.01646107
  0
VERTEX
  8
0
 10
33.08051005
 20
-136.15632387
  0
VERTEX
  8
0
 10
33.16065356
 20
-136.28824407
  0
VERTEX
  8
0
 10
33.35602784
 20
-136.52503971
  0
VERTEX
  8
0
 10
33.59282348
 20
-136.72041399
  0
VERTEX
  8
0
 10
33.72474369
 20
-136.80055750
  0
VERTEX
  8
0
 10
33.86460649
 20
-136.86793293
  0
VERTEX
  8
0
 10
34.01160764
 20
-136.92173603
  0
VERTEX
  8
0
 10
34.16494289
 20
-136.96116255
  0
VERTEX
  8
0
 10
34.32380799
 20
-136.98540824
  0
VERTEX
  8
0
 10
34.48739869
 20
-136.99366886
  0
VERTEX
  8
0
 10
34.65098940
 20
-136.98540824
  0
VERTEX
  8
0
 10
34.80985450
 20
-136.96116255
  0
VERTEX
  8
0
 10
34.96318975
 20
-136.92173603
  0
VERTEX
  8
0
 10
35.11019090
 20
-136.86793293
  0
VERTEX
  8
0
 10
35.25005370
 20
-136.80055750
  0
VERTEX
  8
0
 10
35.38197391
 20
-136.72041399
  0
VERTEX
  8
0
 10
35.61876954
 20
-136.52503971
  0
VERTEX
  8
0
 10
35.81414382
 20
-136.28824407
  0
VERTEX
  8
0
 10
35.89428733
 20
-136.15632387
  0
VERTEX
  8
0
 10
35.96166276
 20
-136.01646107
  0
VERTEX
  8
0
 10
36.01546586
 20
-135.86945992
  0
VERTEX
  8
0
 10
36.05489238
 20
-135.71612467
  0
VERTEX
  8
0
 10
36.07913807
 20
-135.55725957
  0
VERTEX
  8
0
 10
36.08739869
 20
-135.39366886
  0
VERTEX
  8
0
 10
36.07913807
 20
-135.23007815
  0
VERTEX
  8
0
 10
36.05489238
 20
-135.07121305
  0
VERTEX
  8
0
 10
36.01546586
 20
-134.91787780
  0
VERTEX
  8
0
 10
35.96166276
 20
-134.77087665
  0
VERTEX
  8
0
 10
35.89428733
 20
-134.63101385
  0
VERTEX
  8
0
 10
35.81414382
 20
-134.49909365
  0
VERTEX
  8
0
 10
35.61876954
 20
-134.26229801
  0
VERTEX
  8
0
 10
35.38197391
 20
-134.06692373
  0
VERTEX
  8
0
 10
35.25005370
 20
-133.98678022
  0
VERTEX
  8
0
 10
35.11019090
 20
-133.91940479
  0
VERTEX
  8
0
 10
34.96318975
 20
-133.86560169
  0
VERTEX
  8
0
 10
34.80985450
 20
-133.82617517
  0
VERTEX
  8
0
 10
34.65098940
 20
-133.80192948
  0
VERTEX
  8
0
 10
34.48739869
 20
-133.79366886
  0
VERTEX
  8
0
 10
34.32380799
 20
-133.80192948
  0
VERTEX
  8
0
 10
34.16494289
 20
-133.82617517
  0
VERTEX
  8
0
 10
34.01160764
 20
-133.86560169
  0
VERTEX
  8
0
 10
33.86460649
 20
-133.91940479
  0
VERTEX
  8
0
 10
33.72474369
 20
-133.98678022
  0
VERTEX
  8
0
 10
33.59282348
 20
-134.06692373
  0
VERTEX
  8
0
 10
33.35602784
 20
-134.26229801
  0
VERTEX
  8
0
 10
33.16065356
 20
-134.49909365
  0
VERTEX
  8
0
 10
33.08051005
 20
-134.63101385
  0
VERTEX
  8
0
 10
33.01313462
 20
-134.77087665
  0
VERTEX
  8
0
 10
32.95933153
 20
-134.91787780
  0
VERTEX
  8
0
 10
32.91990501
 20
-135.07121305
  0
VERTEX
  8
0
 10
32.89565931
 20
-135.23007815
  0
VERTEX
  8
0
 10
32.88739869
 20
-135.39366886
  0
SEQEND
  0
POLYLINE
  8
Livello Standard
 66
   1
 39
0.000000
 70
    1
  0
VERTEX
  8
0
 10
32.45619529
 20
-130.89323178
  0
VERTEX
  8
0
 10
32.46626292
 20
-131.09260795
  0
VERTEX
  8
0
 10
32.49581236
 20
-131.28622479
  0
VERTEX
  8
0
 10
32.54386343
 20
-131.47310213
  0
VERTEX
  8
0
 10
32.60943596
 20
-131.65225978
  0
VERTEX
  8
0
 10
32.69154976
 20
-131.82271757
  0
VERTEX
  8
0
 10
32.78922467
 20
-131.98349532
  0
VERTEX
  8
0
 10
32.90148049
 20
-132.13361286
  0
VERTEX
  8
0
 10
33.02733707
 20
-132.27209000
  0
VERTEX
  8
0
 10
33.16581421
 20
-132.39794657
  0
VERTEX
  8
0
 10
33.31593175
 20
-132.51020240
  0
VERTEX
  8
0
 10
33.47670950
 20
-132.60787731
  0
VERTEX
  8
0
 10
33.64716729
 20
-132.68999111
  0
VERTEX
  8
0
 10
33.82632494
 20
-132.75556364
  0
VERTEX
  8
0
 10
34.01320228
 20
-132.80361471
  0
VERTEX
  8
0
 10
34.20681912
 20
-132.83316415
  0
VERTEX
  8
0
 10
34.40619529
 20
-132.84323178
  0
VERTEX
  8
0
 10
34.60557146
 20
-132.83316415
  0
VERTEX
  8
0
 10
34.79918831
 20
-132.80361471
  0
VERTEX
  8
0
 10
34.98606564
 20
-132.75556364
  0
VERTEX
  8
0
 10
35.16522329
 20
-132.68999111
  0
VERTEX
  8
0
 10
35.33568108
 20
-132.60787731
  0
VERTEX
  8
0
 10
35.49645884
 20
-132.51020240
  0
VERTEX
  8
0
 10
35.64657637
 20
-132.39794657
  0
VERTEX
  8
0
 10
35.78505352
 20
-132.27209000
  0
VERTEX
  8
0
 10
35.91091009
 20
-132.13361286
  0
VERTEX
  8
0
 10
36.02316592
 20
-131.98349532
  0
VERTEX
  8
0
 10
36.12084082
 20
-131.82271757
  0
VERTEX
  8
0
 10
36.20295463
 20
-131.65225978
  0
VERTEX
  8
0
 10
36.26852715
 20
-131.47310213
  0
VERTEX
  8
0
 10
36.31657822
 20
-131.28622479
  0
VERTEX
  8
0
 10
36.34612766
 20
-131.09260795
  0
VERTEX
  8
0
 10
36.35619529
 20
-130.89323178
  0
VERTEX
  8
0
 10
36.34612766
 20
-130.69385560
  0
VERTEX
  8
0
 10
36.31657822
 20
-130.50023876
  0
VERTEX
  8
0
 10
36.26852715
 20
-130.31336143
  0
VERTEX
  8
0
 10
36.20295463
 20
-130.13420378
  0
VERTEX
  8
0
 10
36.12084082
 20
-129.96374599
  0
VERTEX
  8
0
 10
36.02316592
 20
-129.80296823
  0
VERTEX
  8
0
 10
35.91091009
 20
-129.65285070
  0
VERTEX
  8
0
 10
35.78505352
 20
-129.51437355
  0
VERTEX
  8
0
 10
35.64657637
 20
-129.38851698
  0
VERTEX
  8
0
 10
35.49645884
 20
-129.27626115
  0
VERTEX
  8
0
 10
35.33568108
 20
-129.17858625
  0
VERTEX
  8
0
 10
35.16522329
 20
-129.09647244
  0
VERTEX
  8
0
 10
34.98606564
 20
-129.03089992
  0
VERTEX
  8
0
 10
34.79918831
 20
-128.98284885
  0
VERTEX
  8
0
 10
34.60557146
 20
-128.95329941
  0
VERTEX
  8
0
 10
34.40619529
 20
-128.94323178
  0
VERTEX
  8
0
 10
34.20681912
 20
-128.95329941
  0
VERTEX
  8
0
 10
34.01320228
 20
-128.98284885
  0
VERTEX
  8
0
 10
33.82632494
 20
-129.03089992
  0
VERTEX
  8
0
 10
33.64716729
 20
-129.09647244
  0
VERTEX
  8
0
 10
33.47670950
 20
-129.17858625
  0
VERTEX
  8
0
 10
33.31593175
 20
-129.27626115
  0
VERTEX
  8
0
 10
33.16581421
 20
-129.38851698
  0
VERTEX
  8
0
 10
33.02733707
 20
-129.51437355
  0
VERTEX
  8
0
 10
32.90148049
 20
-129.65285070
  0
VERTEX
  8
0
 10
32.78922467
 20
-129.80296823
  0
VERTEX
  8
0
 10
32.69154976
 20
-129.96374599
  0
VERTEX
  8
0
 10
32.60943596
 20
-130.13420378
  0
VERTEX
  8
0
 10
32.54386343
 20
-130.31336143
  0
VERTEX
  8
0
 10
32.49581236
 20
-130.50023876
  0
VERTEX
  8
0
 10
32.46626292
 20
-130.69385560
  0
VERTEX
  8
0
 10
32.45619529
 20
-130.89323178
  0
SEQEND
  0
POLYLINE
  8
Livello Standard
 66
   1
 39
0.000000
 70
    1
  0
VERTEX
  8
0
 10
47.38139869
 20
-121.16966886
  0
VERTEX
  8
0
 10
47.39224076
 20
-121.38438166
  0
VERTEX
  8
0
 10
47.42406323
 20
-121.59289211
  0
VERTEX
  8
0
 10
47.47581054
 20
-121.79414462
  0
VERTEX
  8
0
 10
47.54642710
 20
-121.98708363
  0
VERTEX
  8
0
 10
47.63485735
 20
-122.17065356
  0
VERTEX
  8
0
 10
47.74004571
 20
-122.34379883
  0
VERTEX
  8
0
 10
47.86093660
 20
-122.50546387
  0
VERTEX
  8
0
 10
47.99647445
 20
-122.65459310
  0
VERTEX
  8
0
 10
48.14560368
 20
-122.79013095
  0
VERTEX
  8
0
 10
48.30726872
 20
-122.91102184
  0
VERTEX
  8
0
 10
48.48041400
 20
-123.01621020
  0
VERTEX
  8
0
 10
48.66398392
 20
-123.10464045
  0
VERTEX
  8
0
 10
48.85692293
 20
-123.17525702
  0
VERTEX
  8
0
 10
49.05817545
 20
-123.22700432
  0
VERTEX
  8
0
 10
49.26668589
 20
-123.25882680
  0
VERTEX
  8
0
 10
49.48139869
 20
-123.26966886
  0
VERTEX
  8
0
 10
49.69611149
 20
-123.25882680
  0
VERTEX
  8
0
 10
49.90462194
 20
-123.22700432
  0
VERTEX
  8
0
 10
50.10587445
 20
-123.17525702
  0
VERTEX
  8
0
 10
50.29881346
 20
-123.10464045
  0
VERTEX
  8
0
 10
50.48238339
 20
-123.01621020
  0
VERTEX
  8
0
 10
50.65552866
 20
-122.91102184
  0
VERTEX
  8
0
 10
50.81719370
 20
-122.79013095
  0
VERTEX
  8
0
 10
50.96632293
 20
-122.65459310
  0
VERTEX
  8
0
 10
51.10186078
 20
-122.50546387
  0
VERTEX
  8
0
 10
51.22275167
 20
-122.34379883
  0
VERTEX
  8
0
 10
51.32794003
 20
-122.17065356
  0
VERTEX
  8
0
 10
51.41637028
 20
-121.98708363
  0
VERTEX
  8
0
 10
51.48698685
 20
-121.79414462
  0
VERTEX
  8
0
 10
51.53873416
 20
-121.59289211
  0
VERTEX
  8
0
 10
51.57055663
 20
-121.38438166
  0
VERTEX
  8
0
 10
51.58139869
 20
-121.16966886
  0
VERTEX
  8
0
 10
51.57055663
 20
-120.95495606
  0
VERTEX
  8
0
 10
51.53873416
 20
-120.74644561
  0
VERTEX
  8
0
 10
51.48698685
 20
-120.54519310
  0
VERTEX
  8
0
 10
51.41637028
 20
-120.35225409
  0
VERTEX
  8
0
 10
51.32794003
 20
-120.16868416
  0
VERTEX
  8
0
 10
51.22275167
 20
-119.99553889
  0
VERTEX
  8
0
 10
51.10186078
 20
-119.83387385
  0
VERTEX
  8
0
 10
50.96632293
 20
-119.68474462
  0
VERTEX
  8
0
 10
50.81719370
 20
-119.54920677
  0
VERTEX
  8
0
 10
50.65552866
 20
-119.42831588
  0
VERTEX
  8
0
 10
50.48238339
 20
-119.32312752
  0
VERTEX
  8
0
 10
50.29881346
 20
-119.23469727
  0
VERTEX
  8
0
 10
50.10587445
 20
-119.16408070
  0
VERTEX
  8
0
 10
49.90462194
 20
-119.11233340
  0
VERTEX
  8
0
 10
49.69611149
 20
-119.08051092
  0
VERTEX
  8
0
 10
49.48139869
 20
-119.06966886
  0
VERTEX
  8
0
 10
49.26668589
 20
-119.08051092
  0
VERTEX
  8
0
 10
49.05817545
 20
-119.11233340
  0
VERTEX
  8
0
 10
48.85692293
 20
-119.16408070
  0
VERTEX
  8
0
 10
48.66398392
 20
-119.23469727
  0
VERTEX
  8
0
 10
48.48041400
 20
-119.32312752
  0
VERTEX
  8
0
 10
48.30726872
 20
-119.42831588
  0
VERTEX
  8
0
 10
48.14560368
 20
-119.54920677
  0
VERTEX
  8
0
 10
47.99647445
 20
-119.68474462
  0
VERTEX
  8
0
 10
47.86093660
 20
-119.83387385
  0
VERTEX
  8
0
 10
47.74004571
 20
-119.99553889
  0
VERTEX
  8
0
 10
47.63485735
 20
-120.16868416
  0
VERTEX
  8
0
 10
47.54642710
 20
-120.35225409
  0
VERTEX
  8
0
 10
47.47581054
 20
-120.54519310
  0
VERTEX
  8
0
 10
47.42406323
 20
-120.74644561
  0
VERTEX
  8
0
 10
47.39224076
 20
-120.95495606
  0
VERTEX
  8
0
 10
47.38139869
 20
-121.16966886
  0
SEQEND
  0
POLYLINE
  8
Livello Standard
 66
   1
 39
0.000000
 70
    1
  0
VERTEX
  8
0
 10
49.84639869
 20
-121.12700219
  0
VERTEX
  8
0
 10
49.85802927
 20
-121.18461047
  0
VERTEX
  8
0
 10
49.88974689
 20
-121.23165400
  0
VERTEX
  8
0
 10
49.93679041
 20
-121.26337162
  0
VERTEX
  8
0
 10
49.99439869
 20
-121.27500219
  0
VERTEX
  8
0
 10
50.05200697
 20
-121.26337162
  0
VERTEX
  8
0
 10
50.09905050
 20
-121.23165400
  0
VERTEX
  8
0
 10
50.13076812
 20
-121.18461047
  0
VERTEX
  8
0
 10
50.14239869
 20
-121.12700219
  0
VERTEX
  8
0
 10
50.13076812
 20
-121.06939391
  0
VERTEX
  8
0
 10
50.09905050
 20
-121.02235039
  0
VERTEX
  8
0
 10
50.05200697
 20
-120.99063277
  0
VERTEX
  8
0
 10
49.99439869
 20
-120.97900219
  0
VERTEX
  8
0
 10
49.93679041
 20
-120.99063277
  0
VERTEX
  8
0
 10
49.88974689
 20
-121.02235039
  0
VERTEX
  8
0
 10
49.85802927
 20
-121.06939391
  0
VERTEX
  8
0
 10
49.84639869
 20
-121.12700219
  0
SEQEND
  0
POLYLINE
  8
Livello Standard
 66
   1
 39
0.000000
 70
    1
  0
VERTEX
  8
0
 10
50.12039869
 20
-121.13800219
  0
VERTEX
  8
0
 10
50.13210785
 20
-121.19599972
  0
VERTEX
  8
0
 10
50.16403978
 20
-121.24336110
  0
VERTEX
  8
0
 10
50.21140117
 20
-121.27529303
  0
VERTEX
  8
0
 10
50.26939869
 20
-121.28700219
  0
VERTEX
  8
0
 10
50.32739622
 20
-121.27529303
  0
VERTEX
  8
0
 10
50.37475760
 20
-121.24336110
  0
VERTEX
  8
0
 10
50.40668953
 20
-121.19599972
  0
VERTEX
  8
0
 10
50.41839869
 20
-121.13800219
  0
VERTEX
  8
0
 10
50.40668953
 20
-121.08000467
  0
VERTEX
  8
0
 10
50.37475760
 20
-121.03264328
  0
VERTEX
  8
0
 10
50.32739622
 20
-121.00071135
  0
VERTEX
  8
0
 10
50.26939869
 20
-120.98900219
  0
VERTEX
  8
0
 10
50.21140117
 20
-121.00071135
  0
VERTEX
  8
0
 10
50.16403978
 20
-121.03264328
  0
VERTEX
  8
0
 10
50.13210785
 20
-121.08000467
  0
VERTEX
  8
0
 10
50.12039869
 20
-121.13800219
  0
SEQEND
  0
POLYLINE
  8
Livello Standard
 66
   1
 39
0.000000
 70
    1
  0
VERTEX
  8
0
 10
61.37473203
 20
-123.70966886
  0
VERTEX
  8
0
 10
61.38660667
 20
-123.94483050
  0
VERTEX
  8
0
 10
61.42145985
 20
-124.17319908
  0
VERTEX
  8
0
 10
61.47813547
 20
-124.39361850
  0
VERTEX
  8
0
 10
61.55547743
 20
-124.60493266
  0
VERTEX
  8
0
 10
61.65232961
 20
-124.80598543
  0
VERTEX
  8
0
 10
61.76753590
 20
-124.99562073
  0
VERTEX
  8
0
 10
61.89994021
 20
-125.17268244
  0
VERTEX
  8
0
 10
62.04838643
 20
-125.33601446
  0
VERTEX
  8
0
 10
62.21171845
 20
-125.48446067
  0
VERTEX
  8
0
 10
62.38878016
 20
-125.61686498
  0
VERTEX
  8
0
 10
62.57841545
 20
-125.73207128
  0
VERTEX
  8
0
 10
62.77946823
 20
-125.82892346
  0
VERTEX
  8
0
 10
62.99078238
 20
-125.90626541
  0
VERTEX
  8
0
 10
63.21120180
 20
-125.96294103
  0
VERTEX
  8
0
 10
63.43957039
 20
-125.99779422
  0
VERTEX
  8
0
 10
63.67473203
 20
-126.00966886
  0
VERTEX
  8
0
 10
63.90989367
 20
-125.99779422
  0
VERTEX
  8
0
 10
64.13826225
 20
-125.96294103
  0
VERTEX
  8
0
 10
64.35868167
 20
-125.90626541
  0
VERTEX
  8
0
 10
64.56999582
 20
-125.82892346
  0
VERTEX
  8
0
 10
64.77104860
 20
-125.73207128
  0
VERTEX
  8
0
 10
64.96068390
 20
-125.61686498
  0
VERTEX
  8
0
 10
65.13774561
 20
-125.48446067
  0
VERTEX
  8
0
 10
65.30107762
 20
-125.33601446
  0
VERTEX
  8
0
 10
65.44952384
 20
-125.17268244
  0
VERTEX
  8
0
 10
65.58192815
 20
-124.99562073
  0
VERTEX
  8
0
 10
65.69713445
 20
-124.80598543
  0
VERTEX
  8
0
 10
65.79398663
 20
-124.60493266
  0
VERTEX
  8
0
 10
65.87132858
 20
-124.39361850
  0
VERTEX
  8
0
 10
65.92800420
 20
-124.17319908
  0
VERTEX
  8
0
 10
65.96285739
 20
-123.94483050
  0
VERTEX
  8
0
 10
65.97473203
 20
-123.70966886
  0
VERTEX
  8
0
 10
65.96285739
 20
-123.47450722
  0
VERTEX
  8
0
 10
65.92800420
 20
-123.24613864
  0
VERTEX
  8
0
 10
65.87132858
 20
-123.02571922
  0
VERTEX
  8
0
 10
65.79398663
 20
-122.81440506
  0
VERTEX
  8
0
 10
65.69713445
 20
-122.61335229
  0
VERTEX
  8
0
 10
65.58192815
 20
-122.42371699
  0
VERTEX
  8
0
 10
65.44952384
 20
-122.24665528
  0
VERTEX
  8
0
 10
65.30107762
 20
-122.08332326
  0
VERTEX
  8
0
 10
65.13774561
 20
-121.93487705
  0
VERTEX
  8
0
 10
64.96068390
 20
-121.80247274
  0
VERTEX
  8
0
 10
64.77104860
 20
-121.68726644
  0
VERTEX
  8
0
 10
64.56999582
 20
-121.59041426
  0
VERTEX
  8
0
 10
64.35868167
 20
-121.51307231
  0
VERTEX
  8
0
 10
64.13826225
 20
-121.45639669
  0
VERTEX
  8
0
 10
63.90989367
 20
-121.42154350
  0
VERTEX
  8
0
 10
63.67473203
 20
-121.40966886
  0
VERTEX
  8
0
 10
63.43957039
 20
-121.42154350
  0
VERTEX
  8
0
 10
63.21120180
 20
-121.45639669
  0
VERTEX
  8
0
 10
62.99078238
 20
-121.51307231
  0
VERTEX
  8
0
 10
62.77946823
 20
-121.59041426
  0
VERTEX
  8
0
 10
62.57841545
 20
-121.68726644
  0
VERTEX
  8
0
 10
62.38878016
 20
-121.80247274
  0
VERTEX
  8
0
 10
62.21171845
 20
-121.93487705
  0
VERTEX
  8
0
 10
62.04838643
 20
-122.08332326
  0
VERTEX
  8
0
 10
61.89994021
 20
-122.24665528
  0
VERTEX
  8
0
 10
61.76753590
 20
-122.42371699
  0
VERTEX
  8
0
 10
61.65232961
 20
-122.61335229
  0
VERTEX
  8
0
 10
61.55547743
 20
-122.81440506
  0
VERTEX
  8
0
 10
61.47813547
 20
-123.02571922
  0
VERTEX
  8
0
 10
61.42145985
 20
-123.24613864
  0
VERTEX
  8
0
 10
61.38660667
 20
-123.47450722
  0
VERTEX
  8
0
 10
61.37473203
 20
-123.70966886
  0
SEQEND
  0
POLYLINE
  8
Livello Standard
 66
   1
 39
0.000000
 70
    1
  0
VERTEX
  8
0
 10
35.47673203
 20
-81.87129386
  0
VERTEX
  8
0
 10
35.47673203
 20
-80.37129386
  0
VERTEX
  8
0
 10
38.77673203
 20
-80.37129386
  0
VERTEX
  8
0
 10
38.77673203
 20
-81.87129386
  0
VERTEX
  8
0
 10
35.47673203
 20
-81.87129386
  0
SEQEND
  0
POLYLINE
  8
Livello Standard
 66
   1
 39
0.000000
 70
    1
  0
VERTEX
  8
0
 10
49.46689870
 20
-137.57421052
  0
VERTEX
  8
0
 10
49.46689870
 20
-137.00271052
 42
-0.18948915
  0
VERTEX
  8
0
 10
50.75806536
 20
-133.73246052
  0
VERTEX
  8
0
 10
51.72114870
 20
-133.73246052
 42
-0.20434797
  0
VERTEX
  8
0
 10
53.04406536
 20
-136.92862719
  0
VERTEX
  8
0
 10
53.04406536
 20
-137.57421052
  0
VERTEX
  8
0
 10
49.46689870
 20
-137.57421052
  0
SEQEND
  0
POLYLINE
  8
Livello Standard
 66
   1
 39
0.000000
 70
    1
  0
VERTEX
  8
0
 10
39.40935733
 20
-13.70107761
  0
VERTEX
  8
0
 10
39.14228090
 20
-13.85301039
  0
VERTEX
  8
0
 10
38.88681904
 20
-14.02200389
  0
VERTEX
  8
0
 10
38.64374669
 20
-14.20728255
  0
VERTEX
  8
0
 10
38.41383877
 20
-14.40807084
  0
VERTEX
  8
0
 10
38.19787022
 20
-14.62359323
  0
VERTEX
  8
0
 10
37.99661597
 20
-14.85307417
  0
VERTEX
  8
0
 10
37.81085095
 20
-15.09573814
  0
VERTEX
  8
0
 10
37.64135008
 20
-15.35080959
  0
VERTEX
  8
0
 10
37.48888831
 20
-15.61751298
  0
VERTEX
  8
0
 10
37.35424055
 20
-15.89507279
  0
VERTEX
  8
0
 10
37.23818174
 20
-16.18271346
  0
VERTEX
  8
0
 10
37.14148681
 20
-16.47965948
  0
VERTEX
  8
0
 10
37.06493069
 20
-16.78513529
  0
VERTEX
  8
0
 10
37.00928831
 20
-17.09836536
  0
VERTEX
  8
0
 10
36.97533460
 20
-17.41857415
  0
VERTEX
  8
0
 10
36.96384449
 20
-17.74498613
  0
VERTEX
  8
0
 10
36.97334484
 20
-18.03626113
  0
VERTEX
  8
0
 10
37.00032019
 20
-18.32642683
  0
VERTEX
  8
0
 10
37.08063007
 20
-18.77595829
  0
VERTEX
  8
0
 10
37.20299655
 20
-19.20687216
  0
VERTEX
  8
0
 10
37.36706853
 20
-19.62366566
  0
VERTEX
  8
0
 10
37.56738521
 20
-20.01510185
  0
VERTEX
  8
0
 10
37.80449077
 20
-20.38528545
  0
VERTEX
  8
0
 10
38.07591937
 20
-20.73112042
  0
VERTEX
  8
0
 10
38.37920515
 20
-21.04951072
  0
VERTEX
  8
0
 10
38.71231844
 20
-21.33779112
  0
VERTEX
  8
0
 10
39.07147842
 20
-21.59270360
  0
VERTEX
  8
0
 10
39.45342936
 20
-21.81201459
  0
VERTEX
  8
0
 10
39.85491550
 20
-21.99349054
  0
VERTEX
  8
0
 10
40.28173220
 20
-22.13730890
  0
VERTEX
  8
0
 10
40.72068173
 20
-22.23913235
  0
VERTEX
  8
0
 10
41.01377430
 20
-22.28069322
  0
VERTEX
  8
0
 10
41.30894275
 20
-22.30355613
  0
VERTEX
  8
0
 10
41.34236173
 20
-22.30453331
  0
VERTEX
  8
0
 10
41.34236173
 20
-24.07449472
  0
VERTEX
  8
0
 10
41.20258527
 20
-24.07092869
  0
VERTEX
  8
0
 10
40.65363136
 20
-24.01935502
  0
VERTEX
  8
0
 10
40.11134790
 20
-23.92002279
  0
VERTEX
  8
0
 10
39.57979061
 20
-23.77380354
  0
VERTEX
  8
0
 10
39.06301519
 20
-23.58156884
  0
VERTEX
  8
0
 10
38.64815781
 20
-23.38750838
  0
VERTEX
  8
0
 10
38.24825801
 20
-23.16427794
  0
VERTEX
  8
0
 10
38.11869936
 20
-23.08348773
  0
VERTEX
  8
0
 10
37.86558985
 20
-22.91269191
  0
VERTEX
  8
0
 10
37.44329061
 20
-22.58536648
  0
VERTEX
  8
0
 10
37.04961948
 20
-22.22415320
  0
VERTEX
  8
0
 10
36.66002346
 20
-21.79653554
  0
VERTEX
  8
0
 10
36.47915929
 20
-21.57088340
  0
VERTEX
  8
0
 10
36.30998213
 20
-21.33596017
  0
VERTEX
  8
0
 10
36.00350217
 20
-20.84534836
  0
VERTEX
  8
0
 10
35.90035494
 20
-20.64437443
  0
VERTEX
  8
0
 10
35.74381459
 20
-20.32835973
  0
VERTEX
  8
0
 10
35.67981783
 20
-20.17663956
  0
VERTEX
  8
0
 10
35.57885562
 20
-19.92309262
  0
VERTEX
  8
0
 10
35.41333739
 20
-19.40103587
  0
VERTEX
  8
0
 10
35.29302033
 20
-18.86654830
  0
VERTEX
  8
0
 10
35.21992671
 20
-18.30803927
  0
VERTEX
  8
0
 10
35.19452840
 20
-17.74524427
  0
VERTEX
  8
0
 10
35.19622752
 20
-17.62147383
  0
VERTEX
  8
0
 10
35.20583891
 20
-17.36770921
  0
VERTEX
  8
0
 10
35.23646523
 20
-17.01351872
  0
VERTEX
  8
0
 10
35.32018524
 20
-16.48420655
  0
VERTEX
  8
0
 10
35.44803542
 20
-15.96357234
  0
VERTEX
  8
0
 10
35.61735016
 20
-15.46709932
  0
VERTEX
  8
0
 10
35.82585577
 20
-14.98565796
  0
VERTEX
  8
0
 10
36.34702840
 20
-15.24624427
  0
VERTEX
  8
0
 10
36.55869506
 20
-14.80174427
  0
VERTEX
  8
0
 10
36.07133004
 20
-14.52881986
  0
VERTEX
  8
0
 10
36.39287528
 20
-14.03772084
  0
VERTEX
  8
0
 10
36.75731128
 20
-13.57964131
  0
VERTEX
  8
0
 10
37.16184732
 20
-13.15738734
  0
VERTEX
  8
0
 10
37.60369264
 20
-12.77376497
  0
VERTEX
  8
0
 10
37.91336173
 20
-13.17191094
  0
VERTEX
  8
0
 10
38.59069506
 20
-12.66391094
  0
VERTEX
  8
0
 10
38.38220019
 20
-12.24692120
  0
VERTEX
  8
0
 10
38.73649684
 20
-12.05835454
  0
VERTEX
  8
0
 10
39.10372891
 20
-11.89203191
  0
VERTEX
  8
0
 10
39.48299931
 20
-11.74884657
  0
VERTEX
  8
0
 10
39.87341097
 20
-11.62969183
  0
VERTEX
  8
0
 10
40.27406679
 20
-11.53546094
  0
VERTEX
  8
0
 10
40.68406969
 20
-11.46704720
  0
VERTEX
  8
0
 10
41.10252259
 20
-11.42534389
  0
VERTEX
  8
0
 10
41.52852840
 20
-11.41124427
  0
VERTEX
  8
0
 10
41.93268473
 20
-11.42448569
  0
VERTEX
  8
0
 10
42.33529767
 20
-11.46175937
  0
VERTEX
  8
0
 10
42.72572485
 20
-11.52444815
  0
VERTEX
  8
0
 10
43.11152977
 20
-11.61051537
  0
VERTEX
  8
0
 10
43.50002030
 20
-11.72408232
  0
VERTEX
  8
0
 10
43.88033177
 20
-11.86228693
  0
VERTEX
  8
0
 10
44.25099428
 20
-12.02456730
  0
VERTEX
  8
0
 10
44.61053793
 20
-12.21036155
  0
VERTEX
  8
0
 10
44.61059316
 20
-12.21039342
  0
VERTEX
  8
0
 10
44.32686173
 20
-12.57924427
  0
VERTEX
  8
0
 10
44.96186173
 20
-13.08724427
  0
VERTEX
  8
0
 10
45.34300174
 20
-12.68953296
  0
VERTEX
  8
0
 10
45.39272185
 20
-12.72681610
  0
VERTEX
  8
0
 10
45.78734964
 20
-13.05672175
  0
VERTEX
  8
0
 10
46.09426308
 20
-13.35573162
  0
VERTEX
  8
0
 10
46.38137308
 20
-13.67379178
  0
VERTEX
  8
0
 10
46.68696694
 20
-14.06940725
  0
VERTEX
  8
0
 10
46.96133622
 20
-14.48717602
  0
VERTEX
  8
0
 10
47.04596755
 20
-14.63423232
  0
VERTEX
  8
0
 10
46.61286173
 20
-14.92874427
  0
VERTEX
  8
0
 10
46.82452840
 20
-15.30974427
  0
VERTEX
  8
0
 10
47.26132911
 20
-15.05089940
  0
VERTEX
  8
0
 10
47.28143018
 20
-15.09230129
  0
VERTEX
  8
0
 10
47.38812903
 20
-15.33634625
  0
VERTEX
  8
0
 10
47.53967101
 20
-15.74465306
  0
VERTEX
  8
0
 10
47.66326156
 20
-16.16224180
  0
VERTEX
  8
0
 10
47.74932681
 20
-16.54804618
  0
VERTEX
  8
0
 10
47.81201129
 20
-16.93847526
  0
VERTEX
  8
0
 10
47.84779078
 20
-17.31730225
  0
VERTEX
  8
0
 10
47.84832142
 20
-17.33271079
  0
VERTEX
  8
0
 10
47.29019506
 20
-17.32057761
  0
VERTEX
  8
0
 10
47.26902840
 20
-17.87091094
  0
VERTEX
  8
0
 10
47.85932143
 20
-17.87091094
  0
VERTEX
  8
0
 10
47.85421045
 20
-18.07118729
  0
VERTEX
  8
0
 10
47.80783764
 20
-18.58191259
  0
VERTEX
  8
0
 10
47.72005612
 20
-19.08704485
  0
VERTEX
  8
0
 10
47.59155820
 20
-19.58337788
  0
VERTEX
  8
0
 10
47.42303619
 20
-20.06770548
  0
VERTEX
  8
0
 10
47.37403800
 20
-20.18621478
  0
VERTEX
  8
0
 10
46.82452840
 20
-19.96641094
  0
VERTEX
  8
0
 10
46.63402840
 20
-20.24157761
  0
VERTEX
  8
0
 10
47.12361132
 20
-20.71076124
  0
VERTEX
  8
0
 10
47.01603801
 20
-20.91074358
  0
VERTEX
  8
0
 10
46.72898192
 20
-21.36246728
  0
VERTEX
  8
0
 10
46.53015820
 20
-21.63164038
  0
VERTEX
  8
0
 10
46.31810545
 20
-21.89049686
  0
VERTEX
  8
0
 10
45.95279376
 20
-22.27828591
  0
VERTEX
  8
0
 10
45.70822117
 20
-22.50422836
  0
VERTEX
  8
0
 10
45.45247905
 20
-22.71739653
  0
VERTEX
  8
0
 10
45.38775631
 20
-22.76536211
  0
VERTEX
  8
0
 10
45.02536173
 20
-22.33707761
  0
VERTEX
  8
0
 10
44.64436173
 20
-22.52757761
  0
VERTEX
  8
0
 10
44.94614007
 20
-23.07455084
  0
VERTEX
  8
0
 10
44.87018402
 20
-23.12342851
  0
VERTEX
  8
0
 10
44.68127574
 20
-23.23998361
  0
VERTEX
  8
0
 10
44.23505042
 20
-23.47347340
  0
VERTEX
  8
0
 10
43.77165750
 20
-23.67053421
  0
VERTEX
  8
0
 10
43.29401787
 20
-23.82996639
  0
VERTEX
  8
0
 10
42.80505243
 20
-23.95057025
  0
VERTEX
  8
0
 10
42.27742416
 20
-24.03542783
  0
VERTEX
  8
0
 10
41.74453847
 20
-24.07549011
  0
VERTEX
  8
0
 10
41.74452840
 20
-24.07549028
  0
VERTEX
  8
0
 10
41.74452840
 20
-22.30388581
  0
VERTEX
  8
0
 10
41.80254503
 20
-22.30181406
  0
VERTEX
  8
0
 10
42.12717840
 20
-22.27096270
  0
VERTEX
  8
0
 10
42.44885694
 20
-22.21726974
  0
VERTEX
  8
0
 10
42.70590585
 20
-22.15696799
  0
VERTEX
  8
0
 10
42.95884840
 20
-22.08161618
  0
VERTEX
  8
0
 10
43.20691748
 20
-21.99162506
  0
VERTEX
  8
0
 10
43.44934598
 20
-21.88740540
  0
VERTEX
  8
0
 10
43.68536678
 20
-21.76936798
  0
VERTEX
  8
0
 10
43.91421279
 20
-21.63792357
  0
VERTEX
  8
0
 10
44.13511687
 20
-21.49348292
  0
VERTEX
  8
0
 10
44.34731193
 20
-21.33645683
  0
VERTEX
  8
0
 10
44.73823892
 20
-20.99131946
  0
VERTEX
  8
0
 10
45.08754524
 20
-20.60424331
  0
VERTEX
  8
0
 10
45.39083690
 20
-20.18018940
  0
VERTEX
  8
0
 10
45.52385412
 20
-19.95584611
  0
VERTEX
  8
0
 10
45.64371993
 20
-19.72411877
  0
VERTEX
  8
0
 10
45.83662763
 20
-19.25926075
  0
VERTEX
  8
0
 10
45.97703064
 20
-18.77595170
  0
VERTEX
  8
0
 10
46.03235189
 20
-18.49529524
  0
VERTEX
  8
0
 10
46.07054162
 20
-18.21175900
  0
VERTEX
  8
0
 10
46.09384449
 20
-17.74498613
  0
VERTEX
  8
0
 10
46.08235365
 20
-17.41856395
  0
VERTEX
  8
0
 10
46.04839777
 20
-17.09834548
  0
VERTEX
  8
0
 10
45.99275181
 20
-16.78510644
  0
VERTEX
  8
0
 10
45.91619074
 20
-16.47962253
  0
VERTEX
  8
0
 10
45.81948950
 20
-16.18266949
  0
VERTEX
  8
0
 10
45.70342307
 20
-15.89502302
  0
VERTEX
  8
0
 10
45.56876640
 20
-15.61745884
  0
VERTEX
  8
0
 10
45.41629445
 20
-15.35075267
  0
VERTEX
  8
0
 10
45.24678218
 20
-15.09568023
  0
VERTEX
  8
0
 10
45.06100455
 20
-14.85301723
  0
VERTEX
  8
0
 10
44.85973652
 20
-14.62353938
  0
VERTEX
  8
0
 10
44.64375305
 20
-14.40802241
  0
VERTEX
  8
0
 10
44.41382911
 20
-14.20724203
  0
VERTEX
  8
0
 10
44.17073965
 20
-14.02197396
  0
VERTEX
  8
0
 10
43.91525963
 20
-13.85299391
  0
VERTEX
  8
0
 10
43.64816401
 20
-13.70107761
  0
VERTEX
  8
0
 10
41.38469506
 20
-13.70107761
  0
VERTEX
  8
0
 10
39.40935733
 20
-13.70107761
  0
SEQEND
  0
POLYLINE
  8
Livello Standard
 66
   1
 39
0.000000
 70
    1
  0
VERTEX
  8
0
 10
29.59491682
 20
-37.75115583
  0
VERTEX
  8
0
 10
29.60827626
 20
-37.81732750
  0
VERTEX
  8
0
 10
29.64470866
 20
-37.87136398
  0
VERTEX
  8
0
 10
29.69874514
 20
-37.90779638
  0
VERTEX
  8
0
 10
29.76491682
 20
-37.92115583
  0
VERTEX
  8
0
 10
29.83108849
 20
-37.90779638
  0
VERTEX
  8
0
 10
29.88512497
 20
-37.87136398
  0
VERTEX
  8
0
 10
29.92155737
 20
-37.81732750
  0
VERTEX
  8
0
 10
29.93491682
 20
-37.75115583
  0
VERTEX
  8
0
 10
29.92155737
 20
-37.68498415
  0
VERTEX
  8
0
 10
29.88512497
 20
-37.63094767
  0
VERTEX
  8
0
 10
29.83108849
 20
-37.59451527
  0
VERTEX
  8
0
 10
29.76491682
 20
-37.58115583
  0
VERTEX
  8
0
 10
29.69874514
 20
-37.59451527
  0
VERTEX
  8
0
 10
29.64470866
 20
-37.63094767
  0
VERTEX
  8
0
 10
29.60827626
 20
-37.68498415
  0
VERTEX
  8
0
 10
29.59491682
 20
-37.75115583
  0
SEQEND
  0
POLYLINE
  8
Livello Standard
 66
   1
 39
0.000000
 70
    1
  0
VERTEX
  8
0
 10
29.59491682
 20
-22.25192458
  0
VERTEX
  8
0
 10
29.60827626
 20
-22.31809626
  0
VERTEX
  8
0
 10
29.64470867
 20
-22.37213274
  0
VERTEX
  8
0
 10
29.69874515
 20
-22.40856514
  0
VERTEX
  8
0
 10
29.76491682
 20
-22.42192458
  0
VERTEX
  8
0
 10
29.83108849
 20
-22.40856514
  0
VERTEX
  8
0
 10
29.88512497
 20
-22.37213274
  0
VERTEX
  8
0
 10
29.92155738
 20
-22.31809626
  0
VERTEX
  8
0
 10
29.93491682
 20
-22.25192458
  0
VERTEX
  8
0
 10
29.92155738
 20
-22.18575291
  0
VERTEX
  8
0
 10
29.88512497
 20
-22.13171643
  0
VERTEX
  8
0
 10
29.83108849
 20
-22.09528403
  0
VERTEX
  8
0
 10
29.76491682
 20
-22.08192458
  0
VERTEX
  8
0
 10
29.69874515
 20
-22.09528403
  0
VERTEX
  8
0
 10
29.64470867
 20
-22.13171643
  0
VERTEX
  8
0
 10
29.60827626
 20
-22.18575291
  0
VERTEX
  8
0
 10
29.59491682
 20
-22.25192458
  0
SEQEND
  0
POLYLINE
  8
Livello Standard
 66
   1
 39
0.000000
 70
    1
  0
VERTEX
  8
0
 10
40.97817782
 20
-20.97081947
  0
VERTEX
  8
0
 10
40.97817782
 20
-18.90781947
  0
VERTEX
  8
0
 10
42.71417782
 20
-18.90781947
  0
VERTEX
  8
0
 10
42.71417782
 20
-20.97081947
  0
VERTEX
  8
0
 10
40.97817782
 20
-20.97081947
  0
SEQEND
  0
POLYLINE
  8
Livello Standard
 66
   1
 39
0.000000
 70
    1
  0
VERTEX
  8
0
 10
39.77151115
 20
-16.39881947
  0
VERTEX
  8
0
 10
39.77151115
 20
-14.33581947
  0
VERTEX
  8
0
 10
41.50751115
 20
-14.33581947
  0
VERTEX
  8
0
 10
41.50751115
 20
-16.39881947
  0
VERTEX
  8
0
 10
39.77151115
 20
-16.39881947
  0
SEQEND
  0
POLYLINE
  8
Livello Standard
 66
   1
 39
0.000000
 70
    1
  0
VERTEX
  8
0
 10
71.46074662
 20
-22.34441431
  0
VERTEX
  8
0
 10
71.47261295
 20
-22.40319033
  0
VERTEX
  8
0
 10
71.50497350
 20
-22.45118744
  0
VERTEX
  8
0
 10
71.55297061
 20
-22.48354798
  0
VERTEX
  8
0
 10
71.61174662
 20
-22.49541431
  0
VERTEX
  8
0
 10
71.67052264
 20
-22.48354798
  0
VERTEX
  8
0
 10
71.71851974
 20
-22.45118744
  0
VERTEX
  8
0
 10
71.75088029
 20
-22.40319033
  0
VERTEX
  8
0
 10
71.76274662
 20
-22.34441431
  0
VERTEX
  8
0
 10
71.75088029
 20
-22.28563830
  0
VERTEX
  8
0
 10
71.71851974
 20
-22.23764119
  0
VERTEX
  8
0
 10
71.67052264
 20
-22.20528064
  0
VERTEX
  8
0
 10
71.61174662
 20
-22.19341431
  0
VERTEX
  8
0
 10
71.55297061
 20
-22.20528064
  0
VERTEX
  8
0
 10
71.50497350
 20
-22.23764119
  0
VERTEX
  8
0
 10
71.47261295
 20
-22.28563830
  0
VERTEX
  8
0
 10
71.46074662
 20
-22.34441431
  0
SEQEND
  0
POLYLINE
  8
Livello Standard
 66
   1
 39
0.000000
 70
    1
  0
VERTEX
  8
0
 10
71.72074662
 20
-22.36541431
  0
VERTEX
  8
0
 10
71.73339880
 20
-22.42808278
  0
VERTEX
  8
0
 10
71.76790243
 20
-22.47925850
  0
VERTEX
  8
0
 10
71.81907815
 20
-22.51376213
  0
VERTEX
  8
0
 10
71.88174662
 20
-22.52641431
  0
VERTEX
  8
0
 10
71.94441509
 20
-22.51376213
  0
VERTEX
  8
0
 10
71.99559081
 20
-22.47925850
  0
VERTEX
  8
0
 10
72.03009444
 20
-22.42808278
  0
VERTEX
  8
0
 10
72.04274662
 20
-22.36541431
  0
VERTEX
  8
0
 10
72.03009444
 20
-22.30274585
  0
VERTEX
  8
0
 10
71.99559081
 20
-22.25157012
  0
VERTEX
  8
0
 10
71.94441509
 20
-22.21706649
  0
VERTEX
  8
0
 10
71.88174662
 20
-22.20441431
  0
VERTEX
  8
0
 10
71.81907815
 20
-22.21706649
  0
VERTEX
  8
0
 10
71.76790243
 20
-22.25157012
  0
VERTEX
  8
0
 10
71.73339880
 20
-22.30274585
  0
VERTEX
  8
0
 10
71.72074662
 20
-22.36541431
  0
SEQEND
  0
POLYLINE
  8
Livello Standard
 66
   1
 39
0.000000
 70
    1
  0
VERTEX
  8
0
 10
68.24341329
 20
-21.85758098
  0
VERTEX
  8
0
 10
68.25527962
 20
-21.91635699
  0
VERTEX
  8
0
 10
68.28764016
 20
-21.96435410
  0
VERTEX
  8
0
 10
68.33563727
 20
-21.99671465
  0
VERTEX
  8
0
 10
68.39441329
 20
-22.00858098
  0
VERTEX
  8
0
 10
68.45318930
 20
-21.99671465
  0
VERTEX
  8
0
 10
68.50118641
 20
-21.96435410
  0
VERTEX
  8
0
 10
68.53354696
 20
-21.91635699
  0
VERTEX
  8
0
 10
68.54541329
 20
-21.85758098
  0
VERTEX
  8
0
 10
68.53354696
 20
-21.79880496
  0
VERTEX
  8
0
 10
68.50118641
 20
-21.75080786
  0
VERTEX
  8
0
 10
68.45318930
 20
-21.71844731
  0
VERTEX
  8
0
 10
68.39441329
 20
-21.70658098
  0
VERTEX
  8
0
 10
68.33563727
 20
-21.71844731
  0
VERTEX
  8
0
 10
68.28764016
 20
-21.75080786
  0
VERTEX
  8
0
 10
68.25527962
 20
-21.79880496
  0
VERTEX
  8
0
 10
68.24341329
 20
-21.85758098
  0
SEQEND
  0
POLYLINE
  8
Livello Standard
 66
   1
 39
0.000000
 70
    1
  0
VERTEX
  8
0
 10
68.50341329
 20
-21.87858098
  0
VERTEX
  8
0
 10
68.51606547
 20
-21.81591251
  0
VERTEX
  8
0
 10
68.55056910
 20
-21.76473679
  0
VERTEX
  8
0
 10
68.60174482
 20
-21.73023316
  0
VERTEX
  8
0
 10
68.66441329
 20
-21.71758098
  0
VERTEX
  8
0
 10
68.72708175
 20
-21.73023316
  0
VERTEX
  8
0
 10
68.77825748
 20
-21.76473679
  0
VERTEX
  8
0
 10
68.81276111
 20
-21.81591251
  0
VERTEX
  8
0
 10
68.82541329
 20
-21.87858098
  0
VERTEX
  8
0
 10
68.81276111
 20
-21.94124944
  0
VERTEX
  8
0
 10
68.77825748
 20
-21.99242517
  0
VERTEX
  8
0
 10
68.72708175
 20
-22.02692880
  0
VERTEX
  8
0
 10
68.66441329
 20
-22.03958098
  0
VERTEX
  8
0
 10
68.60174482
 20
-22.02692880
  0
VERTEX
  8
0
 10
68.55056910
 20
-21.99242517
  0
VERTEX
  8
0
 10
68.51606547
 20
-21.94124944
  0
VERTEX
  8
0
 10
68.50341329
 20
-21.87858098
  0
SEQEND
  0
POLYLINE
  8
Livello Standard
 66
   1
 39
0.000000
 70
    1
  0
VERTEX
  8
0
 10
68.30457995
 20
-14.49158098
 42
0.07895209
  0
VERTEX
  8
0
 10
67.69074662
 20
-18.08991431
  0
VERTEX
  8
0
 10
68.16699662
 20
-18.08991431
  0
VERTEX
  8
0
 10
68.17757995
 20
-18.53441431
  0
VERTEX
  8
0
 10
67.69074662
 20
-18.54499765
 42
0.04368102
  0
VERTEX
  8
0
 10
68.02941329
 20
-24.50341431
  0
VERTEX
  8
0
 10
68.57974662
 20
-24.50341431
  0
VERTEX
  8
0
 10
68.57974662
 20
-24.99024765
  0
VERTEX
  8
0
 10
68.11407995
 20
-24.96908098
 42
0.01500913
  0
VERTEX
  8
0
 10
68.74907995
 20
-28.99074765
  0
VERTEX
  8
0
 10
69.13007995
 20
-28.96958098
  0
VERTEX
  8
0
 10
69.13007995
 20
-21.13791431
  0
VERTEX
  8
0
 10
68.70674662
 20
-21.11674765
  0
VERTEX
  8
0
 10
68.68557995
 20
-20.65108098
  0
VERTEX
  8
0
 10
69.13007995
 20
-20.69341431
  0
VERTEX
  8
0
 10
69.13007995
 20
-14.42808098
  0
VERTEX
  8
0
 10
68.69616329
 20
-14.84083098
  0
VERTEX
  8
0
 10
68.30457995
 20
-14.49158098
  0
SEQEND
  0
POLYLINE
  8
Livello Standard
 66
   1
 39
0.000000
 70
    1
  0
VERTEX
  8
0
 10
71.52191329
 20
-14.97841431
 42
0.07895209
  0
VERTEX
  8
0
 10
70.90807995
 20
-18.57674765
  0
VERTEX
  8
0
 10
71.38432995
 20
-18.57674765
  0
VERTEX
  8
0
 10
71.39491329
 20
-19.02124765
  0
VERTEX
  8
0
 10
70.90807995
 20
-19.03183098
 42
0.04368102
  0
VERTEX
  8
0
 10
71.24674662
 20
-24.99024765
  0
VERTEX
  8
0
 10
71.79707995
 20
-24.99024765
  0
VERTEX
  8
0
 10
71.79707995
 20
-25.47708098
  0
VERTEX
  8
0
 10
71.33141329
 20
-25.45591431
 42
0.01500913
  0
VERTEX
  8
0
 10
71.96641329
 20
-29.47758098
  0
VERTEX
  8
0
 10
72.34741329
 20
-29.45641431
  0
VERTEX
  8
0
 10
72.34741329
 20
-21.62474765
  0
VERTEX
  8
0
 10
71.92407995
 20
-21.60358098
  0
VERTEX
  8
0
 10
71.90291329
 20
-21.13791431
  0
VERTEX
  8
0
 10
72.34741329
 20
-21.18024765
  0
VERTEX
  8
0
 10
72.34741329
 20
-14.91491431
  0
VERTEX
  8
0
 10
71.91349662
 20
-15.32766431
  0
VERTEX
  8
0
 10
71.52191329
 20
-14.97841431
  0
SEQEND
  0
POLYLINE
  8
Livello Standard
 66
   1
 39
0.000000
 70
    1
  0
VERTEX
  8
0
 10
64.68507995
 20
-14.31953131
  0
VERTEX
  8
0
 10
64.26174662
 20
-14.60528131
  0
VERTEX
  8
0
 10
63.83047579
 20
-14.18459381
 42
0.05869132
  0
VERTEX
  8
0
 10
63.07112162
 20
-18.47348964
  0
VERTEX
  8
0
 10
63.51032995
 20
-18.47348964
  0
VERTEX
  8
0
 10
63.50503829
 20
-18.84390631
  0
VERTEX
  8
0
 10
63.05524662
 20
-18.84390631
 42
0.06488602
  0
VERTEX
  8
0
 10
63.38862162
 20
-25.53257297
  0
VERTEX
  8
0
 10
63.94953829
 20
-25.53257297
  0
VERTEX
  8
0
 10
63.95482995
 20
-25.88182297
  0
VERTEX
  8
0
 10
63.94953829
 20
-25.96648964
  0
VERTEX
  8
0
 10
63.45212162
 20
-25.96648964
 42
0.02097121
  0
VERTEX
  8
0
 10
64.23528829
 20
-30.53319797
  0
VERTEX
  8
0
 10
64.68507995
 20
-30.53848964
  0
VERTEX
  8
0
 10
64.68507995
 20
-21.74903131
  0
VERTEX
  8
0
 10
64.20882995
 20
-21.74903131
  0
VERTEX
  8
0
 10
64.21941329
 20
-21.28336464
  0
VERTEX
  8
0
 10
64.68507995
 20
-21.28336464
  0
VERTEX
  8
0
 10
64.68507995
 20
-14.31953131
  0
SEQEND
  0
POLYLINE
  8
Livello Standard
 66
   1
 39
0.000000
 70
    1
  0
VERTEX
  8
0
 10
66.92874662
 20
-14.53391431
  0
VERTEX
  8
0
 10
66.50541329
 20
-14.81966431
  0
VERTEX
  8
0
 10
66.07414245
 20
-14.39897681
 42
0.05869132
  0
VERTEX
  8
0
 10
65.31478829
 20
-18.68787265
  0
VERTEX
  8
0
 10
65.75399662
 20
-18.68787265
  0
VERTEX
  8
0
 10
65.74870495
 20
-19.05828931
  0
VERTEX
  8
0
 10
65.29891329
 20
-19.05828931
 42
0.06488602
  0
VERTEX
  8
0
 10
65.63228829
 20
-25.74695598
  0
VERTEX
  8
0
 10
66.19320495
 20
-25.74695598
  0
VERTEX
  8
0
 10
66.19849662
 20
-26.09620598
  0
VERTEX
  8
0
 10
66.19320495
 20
-26.18087265
  0
VERTEX
  8
0
 10
65.69578829
 20
-26.18087265
 42
0.02097121
  0
VERTEX
  8
0
 10
66.47895495
 20
-30.74758098
  0
VERTEX
  8
0
 10
66.92874662
 20
-30.75287265
  0
VERTEX
  8
0
 10
66.92874662
 20
-21.96341431
  0
VERTEX
  8
0
 10
66.45249662
 20
-21.96341431
  0
VERTEX
  8
0
 10
66.46307995
 20
-21.49774765
  0
VERTEX
  8
0
 10
66.92874662
 20
-21.49774765
  0
VERTEX
  8
0
 10
66.92874662
 20
-14.53391431
  0
SEQEND
  0
POLYLINE
  8
Livello Standard
 66
   1
 39
0.000000
 70
    1
  0
VERTEX
  8
0
 10
56.91107366
 20
-14.09896579
  0
VERTEX
  8
0
 10
56.36074033
 20
-14.62813246
  0
VERTEX
  8
0
 10
55.87390700
 20
-14.20479913
 42
0.06019949
  0
VERTEX
  8
0
 10
55.13307366
 20
-18.58629913
  0
VERTEX
  8
0
 10
55.55640700
 20
-18.58629913
  0
VERTEX
  8
0
 10
55.55640700
 20
-19.05196579
  0
VERTEX
  8
0
 10
55.08015700
 20
-19.05196579
 42
0.06068326
  0
VERTEX
  8
0
 10
55.48761533
 20
-26.79896579
  0
VERTEX
  8
0
 10
56.05911533
 20
-26.79896579
  0
VERTEX
  8
0
 10
56.06440700
 20
-27.25934079
  0
VERTEX
  8
0
 10
55.50878200
 20
-27.24346579
 42
0.04680886
  0
VERTEX
  8
0
 10
56.29724033
 20
-32.30229913
  0
VERTEX
  8
0
 10
56.78407366
 20
-32.32346579
  0
VERTEX
  8
0
 10
56.85132565
 20
-22.67280538
  0
VERTEX
  8
0
 10
56.31840700
 20
-22.71379913
  0
VERTEX
  8
0
 10
56.31840700
 20
-22.20579913
  0
VERTEX
  8
0
 10
56.85458005
 20
-22.20579913
  0
VERTEX
  8
0
 10
56.91107366
 20
-14.09896579
  0
SEQEND
  0
POLYLINE
  8
Livello Standard
 66
   1
 39
0.000000
 70
    1
  0
VERTEX
  8
0
 10
62.59942357
 20
-13.88571213
  0
VERTEX
  8
0
 10
62.04909024
 20
-14.41487880
  0
VERTEX
  8
0
 10
61.56225691
 20
-13.99154547
 42
0.06019949
  0
VERTEX
  8
0
 10
60.82142357
 20
-18.37304547
  0
VERTEX
  8
0
 10
61.24475691
 20
-18.37304547
  0
VERTEX
  8
0
 10
61.24475691
 20
-18.83871213
  0
VERTEX
  8
0
 10
60.76850691
 20
-18.83871213
 42
0.06068326
  0
VERTEX
  8
0
 10
61.17596524
 20
-26.58571213
  0
VERTEX
  8
0
 10
61.74746524
 20
-26.58571213
  0
VERTEX
  8
0
 10
61.75275691
 20
-27.04608713
  0
VERTEX
  8
0
 10
61.19713191
 20
-27.03021213
 42
0.04680886
  0
VERTEX
  8
0
 10
61.98559024
 20
-32.08904547
  0
VERTEX
  8
0
 10
62.47242357
 20
-32.11021213
  0
VERTEX
  8
0
 10
62.53967556
 20
-22.45955172
  0
VERTEX
  8
0
 10
62.00675691
 20
-22.50054547
  0
VERTEX
  8
0
 10
62.00675691
 20
-21.99254547
  0
VERTEX
  8
0
 10
62.54292996
 20
-21.99254547
  0
VERTEX
  8
0
 10
62.59942357
 20
-13.88571213
  0
SEQEND
  0
POLYLINE
  8
Livello Standard
 66
   1
 39
0.000000
 70
    1
  0
VERTEX
  8
0
 10
59.61492357
 20
-13.56292047
  0
VERTEX
  8
0
 10
59.61492357
 20
-22.24125380
  0
VERTEX
  8
0
 10
59.25509024
 20
-22.19892047
  0
VERTEX
  8
0
 10
59.23392357
 20
-22.66458713
  0
VERTEX
  8
0
 10
59.61492357
 20
-22.66458713
  0
VERTEX
  8
0
 10
59.61492357
 20
-33.34317047
  0
VERTEX
  8
0
 10
59.15984024
 20
-33.34317047
  0
VERTEX
  8
0
 10
58.28142357
 20
-28.01975380
  0
VERTEX
  8
0
 10
58.83175691
 20
-27.97742047
  0
VERTEX
  8
0
 10
58.83175691
 20
-27.57525380
  0
VERTEX
  8
0
 10
58.28142357
 20
-27.57525380
 42
-0.02732815
  0
VERTEX
  8
0
 10
57.66759024
 20
-18.91808713
  0
VERTEX
  8
0
 10
58.21792357
 20
-18.91808713
  0
VERTEX
  8
0
 10
58.23909024
 20
-18.45242047
  0
VERTEX
  8
0
 10
57.65700691
 20
-18.45242047
 42
-0.09419800
  0
VERTEX
  8
0
 10
58.53542357
 20
-13.66875380
  0
VERTEX
  8
0
 10
59.04342357
 20
-14.15558713
  0
VERTEX
  8
0
 10
59.61492357
 20
-13.56292047
  0
SEQEND
  0
POLYLINE
  8
Livello Standard
 66
   1
 39
0.000000
 70
    1
  0
VERTEX
  8
0
 10
54.02692357
 20
-14.40958713
  0
VERTEX
  8
0
 10
54.02692357
 20
-23.08792047
  0
VERTEX
  8
0
 10
53.66709024
 20
-23.04558713
  0
VERTEX
  8
0
 10
53.64592357
 20
-23.51125380
  0
VERTEX
  8
0
 10
54.02692357
 20
-23.51125380
  0
VERTEX
  8
0
 10
54.02692357
 20
-34.18983713
  0
VERTEX
  8
0
 10
53.57184024
 20
-34.18983713
  0
VERTEX
  8
0
 10
52.69342357
 20
-28.86642047
  0
VERTEX
  8
0
 10
53.24375691
 20
-28.82408713
  0
VERTEX
  8
0
 10
53.24375691
 20
-28.42192047
  0
VERTEX
  8
0
 10
52.69342357
 20
-28.42192047
 42
-0.02732815
  0
VERTEX
  8
0
 10
52.07959024
 20
-19.76475380
  0
VERTEX
  8
0
 10
52.62992357
 20
-19.76475380
  0
VERTEX
  8
0
 10
52.65109024
 20
-19.29908713
  0
VERTEX
  8
0
 10
52.06900691
 20
-19.29908713
 42
-0.09419800
  0
VERTEX
  8
0
 10
52.94742357
 20
-14.51542047
  0
VERTEX
  8
0
 10
53.45542357
 20
-15.00225380
  0
VERTEX
  8
0
 10
54.02692357
 20
-14.40958713
  0
SEQEND
  0
POLYLINE
  8
Livello Standard
 66
   1
 39
0.000000
 70
    1
  0
VERTEX
  8
0
 10
26.40417816
 20
-21.47456194
  0
VERTEX
  8
0
 10
26.52566767
 20
-21.07192693
  0
VERTEX
  8
0
 10
26.69550644
 20
-20.69311359
  0
VERTEX
  8
0
 10
26.91005834
 20
-20.34194454
  0
VERTEX
  8
0
 10
27.16568725
 20
-20.02224238
  0
VERTEX
  8
0
 10
27.45875701
 20
-19.73782971
  0
VERTEX
  8
0
 10
27.78563151
 20
-19.49252914
  0
VERTEX
  8
0
 10
28.14267460
 20
-19.29016327
  0
VERTEX
  8
0
 10
28.52625015
 20
-19.13455471
  0
VERTEX
  8
0
 10
28.52625015
 20
-18.02942458
  0
VERTEX
  8
0
 10
29.11891682
 20
-17.71192458
  0
VERTEX
  8
0
 10
29.10833349
 20
-10.57875792
  0
VERTEX
  8
0
 10
30.82283349
 20
-10.58934125
  0
VERTEX
  8
0
 10
30.74879097
 20
-19.14654042
  0
VERTEX
  8
0
 10
30.97890619
 20
-19.24135603
  0
VERTEX
  8
0
 10
31.19981546
 20
-19.35283027
  0
VERTEX
  8
0
 10
31.41074053
 20
-19.48017769
  0
VERTEX
  8
0
 10
31.61090316
 20
-19.62261282
  0
VERTEX
  8
0
 10
31.79952509
 20
-19.77935020
  0
VERTEX
  8
0
 10
31.97582809
 20
-19.94960437
  0
VERTEX
  8
0
 10
32.13903390
 20
-20.13258987
  0
VERTEX
  8
0
 10
32.28836428
 20
-20.32752123
  0
VERTEX
  8
0
 10
32.42304099
 20
-20.53361299
  0
VERTEX
  8
0
 10
32.54228579
 20
-20.75007969
  0
VERTEX
  8
0
 10
32.64532041
 20
-20.97613586
  0
VERTEX
  8
0
 10
32.73136663
 20
-21.21099605
  0
VERTEX
  8
0
 10
32.79964618
 20
-21.45387478
  0
VERTEX
  8
0
 10
32.84938084
 20
-21.70398661
  0
VERTEX
  8
0
 10
32.87979234
 20
-21.96054606
  0
VERTEX
  8
0
 10
32.89010246
 20
-22.22276768
  0
VERTEX
  8
0
 10
32.87301470
 20
-22.55557303
  0
VERTEX
  8
0
 10
32.82360965
 20
-22.88506756
  0
VERTEX
  8
0
 10
32.78333686
 20
-23.08037695
 42
-0.29470844
  0
VERTEX
  8
0
 10
26.40417816
 20
-21.47456194
  0
SEQEND
  0
POLYLINE
  8
Livello Standard
 66
   1
 39
0.000000
 70
    1
  0
VERTEX
  8
0
 10
26.40417816
 20
-36.97379318
  0
VERTEX
  8
0
 10
26.52566766
 20
-36.57115817
  0
VERTEX
  8
0
 10
26.69550644
 20
-36.19234483
  0
VERTEX
  8
0
 10
26.91005834
 20
-35.84117578
  0
VERTEX
  8
0
 10
27.16568724
 20
-35.52147362
  0
VERTEX
  8
0
 10
27.45875701
 20
-35.23706095
  0
VERTEX
  8
0
 10
27.78563151
 20
-34.99176038
  0
VERTEX
  8
0
 10
28.14267460
 20
-34.78939451
  0
VERTEX
  8
0
 10
28.52625015
 20
-34.63378595
  0
VERTEX
  8
0
 10
28.52625015
 20
-33.52865583
  0
VERTEX
  8
0
 10
29.11891682
 20
-33.21115583
  0
VERTEX
  8
0
 10
29.10833348
 20
-26.07798916
  0
VERTEX
  8
0
 10
30.82283348
 20
-26.08857249
  0
VERTEX
  8
0
 10
30.74879097
 20
-34.64577166
  0
VERTEX
  8
0
 10
30.97890619
 20
-34.74058727
  0
VERTEX
  8
0
 10
31.19981546
 20
-34.85206151
  0
VERTEX
  8
0
 10
31.41074053
 20
-34.97940893
  0
VERTEX
  8
0
 10
31.61090315
 20
-35.12184406
  0
VERTEX
  8
0
 10
31.79952509
 20
-35.27858145
  0
VERTEX
  8
0
 10
31.97582808
 20
-35.44883562
  0
VERTEX
  8
0
 10
32.13903390
 20
-35.63182111
  0
VERTEX
  8
0
 10
32.28836428
 20
-35.82675247
  0
VERTEX
  8
0
 10
32.42304099
 20
-36.03284423
  0
VERTEX
  8
0
 10
32.54228578
 20
-36.24931093
  0
VERTEX
  8
0
 10
32.64532041
 20
-36.47536710
  0
VERTEX
  8
0
 10
32.73136662
 20
-36.71022729
  0
VERTEX
  8
0
 10
32.79964618
 20
-36.95310603
  0
VERTEX
  8
0
 10
32.84938084
 20
-37.20321785
  0
VERTEX
  8
0
 10
32.87979234
 20
-37.45977730
  0
VERTEX
  8
0
 10
32.89010245
 20
-37.72199892
  0
VERTEX
  8
0
 10
32.87301469
 20
-38.05480427
  0
VERTEX
  8
0
 10
32.82360965
 20
-38.38429880
  0
VERTEX
  8
0
 10
32.78333686
 20
-38.57960819
 42
-0.29470844
  0
VERTEX
  8
0
 10
26.40417816
 20
-36.97379318
  0
SEQEND
  0
POLYLINE
  8
Livello Standard
 66
   1
 39
0.000000
 70
    1
  0
VERTEX
  8
0
 10
22.77560037
 20
-49.53015200
  0
VERTEX
  8
0
 10
124.41260037
 20
-49.53015200
  0
VERTEX
  8
0
 10
124.41260037
 20
-0.97715200
  0
VERTEX
  8
0
 10
22.77560037
 20
-0.97715200
  0
VERTEX
  8
0
 10
22.77560037
 20
-49.53015200
  0
SEQEND
  0
POLYLINE
  8
Livello Standard
 66
   1
 39
0.000000
 70
    0
  0
VERTEX
  8
0
 10
50.94328458
 20
-44.98146457
  0
VERTEX
  8
0
 10
51.21458822
 20
-44.97684225
  0
VERTEX
  8
0
 10
51.47027441
 20
-44.92077240
  0
VERTEX
  8
0
 10
51.71125756
 20
-44.82162629
  0
VERTEX
  8
0
 10
51.93845204
 20
-44.68777521
  0
VERTEX
  8
0
 10
52.15277226
 20
-44.52759042
  0
VERTEX
  8
0
 10
52.35513259
 20
-44.34944322
  0
VERTEX
  8
0
 10
52.72763118
 20
-43.97274664
  0
VERTEX
  8
0
 10
52.65906742
 20
-44.55260512
  0
VERTEX
  8
0
 10
52.58112611
 20
-45.14139830
  0
VERTEX
  8
0
 10
52.52867840
 20
-45.43371336
  0
VERTEX
  8
0
 10
52.46193376
 20
-45.72174366
  0
VERTEX
  8
0
 10
52.37690799
 20
-46.00331636
  0
VERTEX
  8
0
 10
52.26961691
 20
-46.27625866
  0
SEQEND
  0
POLYLINE
  8
Livello Standard
 66
   1
 39
0.000000
 70
    0
  0
VERTEX
  8
0
 10
53.18871861
 20
-45.99228400
  0
VERTEX
  8
0
 10
53.11494959
 20
-46.18226565
  0
VERTEX
  8
0
 10
53.03277617
 20
-46.36705851
  0
VERTEX
  8
0
 10
52.98041391
 20
-46.45094147
  0
VERTEX
  8
0
 10
52.91620184
 20
-46.52564601
  0
VERTEX
  8
0
 10
52.83689043
 20
-46.58854506
  0
VERTEX
  8
0
 10
52.73923009
 20
-46.63701155
  0
SEQEND
  0
POLYLINE
  8
Livello Standard
 66
   1
 39
0.000000
 70
    0
  0
VERTEX
  8
0
 10
55.71483190
 20
-43.99872346
  0
VERTEX
  8
0
 10
54.50164507
 20
-44.00049100
  0
VERTEX
  8
0
 10
54.52012224
 20
-44.12323060
  0
VERTEX
  8
0
 10
54.51787607
 20
-44.25751729
  0
VERTEX
  8
0
 10
54.49462786
 20
-44.53787808
  0
VERTEX
  8
0
 10
54.49533292
 20
-44.67252527
  0
VERTEX
  8
0
 10
54.51872882
 20
-44.79586571
  0
VERTEX
  8
0
 10
54.57566912
 20
-44.90218593
  0
VERTEX
  8
0
 10
54.67700735
 20
-44.98577248
  0
VERTEX
  8
0
 10
54.82763216
 20
-44.97120929
  0
VERTEX
  8
0
 10
54.96984601
 20
-44.97665212
  0
VERTEX
  8
0
 10
55.10386160
 20
-45.00150884
  0
VERTEX
  8
0
 10
55.22989158
 20
-45.04518728
  0
VERTEX
  8
0
 10
55.34814864
 20
-45.10709529
  0
VERTEX
  8
0
 10
55.45884544
 20
-45.18664073
  0
VERTEX
  8
0
 10
55.56219466
 20
-45.28323145
  0
VERTEX
  8
0
 10
55.65840898
 20
-45.39627529
  0
VERTEX
  8
0
 10
55.73654896
 20
-45.54241221
  0
VERTEX
  8
0
 10
55.76262003
 20
-45.69762805
  0
VERTEX
  8
0
 10
55.74246981
 20
-45.85286670
  0
VERTEX
  8
0
 10
55.68194591
 20
-45.99907205
  0
VERTEX
  8
0
 10
55.58689596
 20
-46.12718798
  0
VERTEX
  8
0
 10
55.46316757
 20
-46.22815838
  0
VERTEX
  8
0
 10
55.31660836
 20
-46.29292714
  0
VERTEX
  8
0
 10
55.15306596
 20
-46.31243814
  0
VERTEX
  8
0
 10
54.78310580
 20
-46.32344277
  0
VERTEX
  8
0
 10
54.42123418
 20
-46.33111117
  0
VERTEX
  8
0
 10
54.25145306
 20
-46.30945606
  0
VERTEX
  8
0
 10
54.09343987
 20
-46.25788102
  0
VERTEX
  8
0
 10
53.95044320
 20
-46.16669078
  0
VERTEX
  8
0
 10
53.82571165
 20
-46.02619004
  0
SEQEND
  0
POLYLINE
  8
Livello Standard
 66
   1
 39
0.000000
 70
    0
  0
VERTEX
  8
0
 10
56.83754892
 20
-46.07651896
  0
VERTEX
  8
0
 10
56.91358314
 20
-45.86049953
  0
VERTEX
  8
0
 10
57.01485339
 20
-45.65725695
  0
VERTEX
  8
0
 10
57.13946292
 20
-45.46867185
  0
VERTEX
  8
0
 10
57.28551495
 20
-45.29662492
  0
VERTEX
  8
0
 10
57.45111273
 20
-45.14299679
  0
VERTEX
  8
0
 10
57.63435949
 20
-45.00966815
  0
VERTEX
  8
0
 10
57.83335847
 20
-44.89851965
  0
VERTEX
  8
0
 10
58.04621291
 20
-44.81143194
  0
VERTEX
  8
0
 10
58.14496430
 20
-44.94802825
  0
VERTEX
  8
0
 10
58.21494003
 20
-45.10074374
  0
VERTEX
  8
0
 10
58.25839286
 20
-45.26509717
  0
VERTEX
  8
0
 10
58.27757555
 20
-45.43660728
  0
VERTEX
  8
0
 10
58.27474085
 20
-45.61079280
  0
VERTEX
  8
0
 10
58.25214150
 20
-45.78317248
  0
VERTEX
  8
0
 10
58.21203028
 20
-45.94926507
  0
VERTEX
  8
0
 10
58.15665992
 20
-46.10458930
  0
VERTEX
  8
0
 10
58.18823612
 20
-45.91975662
  0
VERTEX
  8
0
 10
58.24520935
 20
-45.74200332
  0
VERTEX
  8
0
 10
58.32595130
 20
-45.57409707
  0
VERTEX
  8
0
 10
58.42883364
 20
-45.41880556
  0
VERTEX
  8
0
 10
58.55222804
 20
-45.27889649
  0
VERTEX
  8
0
 10
58.69450619
 20
-45.15713754
  0
VERTEX
  8
0
 10
58.85403977
 20
-45.05629640
  0
VERTEX
  8
0
 10
59.02920044
 20
-44.97914075
  0
VERTEX
  8
0
 10
59.11052318
 20
-45.09085080
  0
VERTEX
  8
0
 10
59.15708961
 20
-45.21787080
  0
VERTEX
  8
0
 10
59.17707333
 20
-45.35617614
  0
VERTEX
  8
0
 10
59.17864799
 20
-45.50174217
  0
VERTEX
  8
0
 10
59.15926458
 20
-45.79855781
  0
VERTEX
  8
0
 10
59.15465377
 20
-45.94175816
  0
VERTEX
  8
0
 10
59.16432839
 20
-46.07612069
  0
VERTEX
  8
0
 10
59.20616610
 20
-45.89047782
  0
VERTEX
  8
0
 10
59.27652360
 20
-45.71070907
  0
VERTEX
  8
0
 10
59.37128542
 20
-45.53831290
  0
VERTEX
  8
0
 10
59.48633604
 20
-45.37478777
  0
VERTEX
  8
0
 10
59.61755997
 20
-45.22163216
  0
VERTEX
  8
0
 10
59.76084171
 20
-45.08034452
  0
VERTEX
  8
0
 10
60.06711662
 20
-44.83936699
  0
VERTEX
  8
0
 10
60.15136119
 20
-44.94431781
  0
VERTEX
  8
0
 10
60.22088758
 20
-45.06842020
  0
VERTEX
  8
0
 10
60.27304398
 20
-45.20573169
  0
VERTEX
  8
0
 10
60.30517857
 20
-45.35030979
  0
VERTEX
  8
0
 10
60.31463954
 20
-45.49621204
  0
VERTEX
  8
0
 10
60.29877508
 20
-45.63749594
  0
VERTEX
  8
0
 10
60.25493338
 20
-45.76821902
  0
VERTEX
  8
0
 10
60.18046262
 20
-45.88243879
  0
SEQEND
  0
POLYLINE
  8
Livello Standard
 66
   1
 39
0.000000
 70
    0
  0
VERTEX
  8
0
 10
60.85126225
 20
-45.93612737
  0
VERTEX
  8
0
 10
61.02001434
 20
-45.48269932
  0
VERTEX
  8
0
 10
61.10973826
 20
-45.24921056
  0
VERTEX
  8
0
 10
61.21348939
 20
-45.02352481
  0
VERTEX
  8
0
 10
61.33911423
 20
-44.81488169
  0
VERTEX
  8
0
 10
61.49445925
 20
-44.63252082
  0
VERTEX
  8
0
 10
61.68737094
 20
-44.48568182
  0
VERTEX
  8
0
 10
61.80036631
 20
-44.42847040
  0
VERTEX
  8
0
 10
61.92569578
 20
-44.38360431
  0
VERTEX
  8
0
 10
62.08167666
 20
-44.54508433
  0
VERTEX
  8
0
 10
62.22699722
 20
-44.71882532
  0
VERTEX
  8
0
 10
62.49050926
 20
-45.09368393
  0
VERTEX
  8
0
 10
62.72593556
 20
-45.48936766
  0
VERTEX
  8
0
 10
62.94297977
 20
-45.88706405
  0
VERTEX
  8
0
 10
63.18973080
 20
-45.32288687
  0
VERTEX
  8
0
 10
63.41440001
 20
-44.70240905
  0
VERTEX
  8
0
 10
63.47372091
 20
-44.73167400
  0
VERTEX
  8
0
 10
63.52967428
 20
-44.77672666
  0
VERTEX
  8
0
 10
63.63199800
 20
-44.90674367
  0
VERTEX
  8
0
 10
63.72241036
 20
-45.07755710
  0
VERTEX
  8
0
 10
63.80195056
 20
-45.27426394
  0
VERTEX
  8
0
 10
63.93257118
 20
-45.68574594
  0
VERTEX
  8
0
 10
64.03217334
 20
-46.02196577
  0
VERTEX
  8
0
 10
64.09244233
 20
-45.71888201
  0
VERTEX
  8
0
 10
64.19624361
 20
-45.37979205
  0
VERTEX
  8
0
 10
64.27067206
 20
-45.22037080
  0
VERTEX
  8
0
 10
64.36342742
 20
-45.08029925
  0
VERTEX
  8
0
 10
64.47699097
 20
-44.96902782
  0
VERTEX
  8
0
 10
64.61384400
 20
-44.89600695
  0
VERTEX
  8
0
 10
64.76591354
 20
-45.12104704
  0
VERTEX
  8
0
 10
64.88583562
 20
-45.35265043
  0
VERTEX
  8
0
 10
65.01024140
 20
-45.58036562
  0
VERTEX
  8
0
 10
65.08557291
 20
-45.68949905
  0
VERTEX
  8
0
 10
65.17576202
 20
-45.79374111
  0
SEQEND
  0
POLYLINE
  8
Livello Standard
 66
   1
 39
0.000000
 70
    1
  0
VERTEX
  8
0
 10
11.17200000
 20
-143.42400000
  0
VERTEX
  8
0
 10
83.47400000
 20
-143.42400000
  0
VERTEX
  8
0
 10
83.47400000
 20
-66.60200000
  0
VERTEX
  8
0
 10
11.17200000
 20
-66.60200000
  0
VERTEX
  8
0
 10
11.17200000
 20
-143.42400000
  0
SEQEND
  0
POLYLINE
  8
Livello Standard
 66
   1
 39
0.000000
 70
    0
  0
VERTEX
  8
0
 10
62.81601702
 20
-134.43898401
  0
VERTEX
  8
0
 10
63.15015704
 20
-134.42518747
  0
VERTEX
  8
0
 10
63.43996452
 20
-134.43108871
  0
VERTEX
  8
0
 10
63.69301433
 20
-134.46582453
  0
VERTEX
  8
0
 10
63.91688132
 20
-134.53853174
  0
VERTEX
  8
0
 10
64.11914035
 20
-134.65834712
  0
VERTEX
  8
0
 10
64.30736629
 20
-134.83440748
  0
VERTEX
  8
0
 10
64.48913400
 20
-135.07584961
  0
VERTEX
  8
0
 10
64.67201833
 20
-135.39181032
  0
VERTEX
  8
0
 10
64.76061030
 20
-135.58766341
  0
VERTEX
  8
0
 10
64.81371729
 20
-135.76487247
  0
VERTEX
  8
0
 10
64.83387469
 20
-135.92389692
  0
VERTEX
  8
0
 10
64.82361785
 20
-136.06519617
  0
VERTEX
  8
0
 10
64.78548215
 20
-136.18922965
  0
VERTEX
  8
0
 10
64.72200297
 20
-136.29645676
  0
VERTEX
  8
0
 10
64.63571568
 20
-136.38733693
  0
VERTEX
  8
0
 10
64.52915565
 20
-136.46232956
  0
VERTEX
  8
0
 10
64.40485826
 20
-136.52189408
  0
VERTEX
  8
0
 10
64.26535887
 20
-136.56648989
  0
VERTEX
  8
0
 10
64.11319286
 20
-136.59657643
  0
VERTEX
  8
0
 10
63.95089561
 20
-136.61261309
  0
VERTEX
  8
0
 10
63.60604886
 20
-136.60437447
  0
VERTEX
  8
0
 10
63.25110161
 20
-136.54544936
  0
VERTEX
  8
0
 10
63.18451072
 20
-136.56406026
  0
VERTEX
  8
0
 10
63.09475776
 20
-136.57296828
  0
VERTEX
  8
0
 10
62.93119451
 20
-136.57288391
  0
VERTEX
  8
0
 10
62.90009863
 20
-136.56949566
  0
VERTEX
  8
0
 10
62.93126953
 20
-136.56761279
  0
VERTEX
  8
0
 10
63.26584053
 20
-136.57957145
  0
VERTEX
  8
0
 10
63.49953950
 20
-136.56779680
  0
VERTEX
  8
0
 10
63.72210257
 20
-136.58428736
  0
VERTEX
  8
0
 10
63.93214793
 20
-136.62722318
  0
VERTEX
  8
0
 10
64.12829381
 20
-136.69478432
  0
VERTEX
  8
0
 10
64.30915839
 20
-136.78515086
  0
VERTEX
  8
0
 10
64.47335988
 20
-136.89650285
  0
VERTEX
  8
0
 10
64.61951650
 20
-137.02702036
  0
VERTEX
  8
0
 10
64.74624643
 20
-137.17488345
  0
VERTEX
  8
0
 10
64.85216790
 20
-137.33827218
  0
VERTEX
  8
0
 10
64.93589909
 20
-137.51536663
  0
VERTEX
  8
0
 10
64.99605823
 20
-137.70434684
  0
VERTEX
  8
0
 10
65.03126350
 20
-137.90339289
  0
VERTEX
  8
0
 10
65.04013312
 20
-138.11068484
  0
VERTEX
  8
0
 10
65.02128529
 20
-138.32440275
  0
VERTEX
  8
0
 10
64.97333822
 20
-138.54272669
  0
VERTEX
  8
0
 10
64.89491011
 20
-138.76383672
  0
VERTEX
  8
0
 10
64.79770701
 20
-138.94695444
  0
VERTEX
  8
0
 10
64.68111812
 20
-139.08973131
  0
VERTEX
  8
0
 10
64.54666132
 20
-139.19760362
  0
VERTEX
  8
0
 10
64.39585450
 20
-139.27600767
  0
VERTEX
  8
0
 10
64.23021556
 20
-139.33037974
  0
VERTEX
  8
0
 10
64.05126239
 20
-139.36615612
  0
VERTEX
  8
0
 10
63.65948493
 20
-139.40366699
  0
VERTEX
  8
0
 10
63.38562399
 20
-139.41012922
  0
VERTEX
  8
0
 10
63.13095647
 20
-139.39194423
  0
VERTEX
  8
0
 10
62.89408396
 20
-139.34595134
  0
VERTEX
  8
0
 10
62.67360806
 20
-139.26898985
  0
VERTEX
  8
0
 10
62.46813038
 20
-139.15789908
  0
VERTEX
  8
0
 10
62.27625251
 20
-139.00951832
  0
VERTEX
  8
0
 10
62.09657605
 20
-138.82068688
  0
VERTEX
  8
0
 10
61.92770260
 20
-138.58824408
  0
SEQEND
  0
POLYLINE
  8
Livello Standard
 66
   1
 39
0.000000
 70
    0
  0
VERTEX
  8
0
 10
66.24030392
 20
-139.26845461
  0
VERTEX
  8
0
 10
66.24772381
 20
-139.01130780
  0
VERTEX
  8
0
 10
66.27733817
 20
-138.75020353
  0
VERTEX
  8
0
 10
66.32715821
 20
-138.48783686
  0
VERTEX
  8
0
 10
66.39519514
 20
-138.22690285
  0
VERTEX
  8
0
 10
66.47946015
 20
-137.97009657
  0
VERTEX
  8
0
 10
66.57796445
 20
-137.72011307
  0
VERTEX
  8
0
 10
66.80973575
 20
-137.25139468
  0
VERTEX
  8
0
 10
67.12913288
 20
-136.70601292
  0
VERTEX
  8
0
 10
67.30573450
 20
-136.43570703
  0
VERTEX
  8
0
 10
67.49800015
 20
-136.17601041
  0
VERTEX
  8
0
 10
67.70922632
 20
-135.93368753
  0
VERTEX
  8
0
 10
67.94270951
 20
-135.71550284
  0
VERTEX
  8
0
 10
68.20174620
 20
-135.52822080
  0
VERTEX
  8
0
 10
68.48963288
 20
-135.37860589
  0
VERTEX
  8
0
 10
68.59072141
 20
-135.41381051
  0
VERTEX
  8
0
 10
68.68333462
 20
-135.46384356
  0
VERTEX
  8
0
 10
68.84471034
 20
-135.60261585
  0
VERTEX
  8
0
 10
68.97691053
 20
-135.78336454
  0
VERTEX
  8
0
 10
69.08308571
 20
-135.99453143
  0
VERTEX
  8
0
 10
69.16638638
 20
-136.22455830
  0
VERTEX
  8
0
 10
69.22996303
 20
-136.46188695
  0
VERTEX
  8
0
 10
69.31054634
 20
-136.91221672
  0
VERTEX
  8
0
 10
69.35811992
 20
-137.39639598
  0
VERTEX
  8
0
 10
69.38075618
 20
-137.91293680
  0
VERTEX
  8
0
 10
69.37784042
 20
-138.92640330
  0
VERTEX
  8
0
 10
69.50839400
 20
-138.75384069
  0
VERTEX
  8
0
 10
69.62143952
 20
-138.57034388
  0
VERTEX
  8
0
 10
69.71963583
 20
-138.37765696
  0
VERTEX
  8
0
 10
69.80564178
 20
-138.17752400
  0
VERTEX
  8
0
 10
69.95171796
 20
-137.76189632
  0
VERTEX
  8
0
 10
70.08093881
 20
-137.33741349
  0
VERTEX
  8
0
 10
70.21457509
 20
-136.91802815
  0
VERTEX
  8
0
 10
70.37389753
 20
-136.51769297
  0
VERTEX
  8
0
 10
70.46983818
 20
-136.32902939
  0
VERTEX
  8
0
 10
70.58017691
 20
-136.15036059
  0
VERTEX
  8
0
 10
70.70757256
 20
-135.98343066
  0
VERTEX
  8
0
 10
70.85468397
 20
-135.82998367
  0
VERTEX
  8
0
 10
71.16164080
 20
-136.11678149
  0
VERTEX
  8
0
 10
71.44577892
 20
-136.42069723
  0
VERTEX
  8
0
 10
71.70869273
 20
-136.73957289
  0
VERTEX
  8
0
 10
71.95197661
 20
-137.07125047
  0
VERTEX
  8
0
 10
72.17722495
 20
-137.41357197
  0
VERTEX
  8
0
 10
72.38603213
 20
-137.76437937
  0
VERTEX
  8
0
 10
72.76070056
 20
-138.48281991
  0
VERTEX
  8
0
 10
72.82319655
 20
-137.68660458
  0
VERTEX
  8
0
 10
72.88516096
 20
-137.26071704
  0
VERTEX
  8
0
 10
72.98434867
 20
-136.84105475
  0
VERTEX
  8
0
 10
73.05182602
 20
-136.63935772
  0
VERTEX
  8
0
 10
73.13331890
 20
-136.44617657
  0
VERTEX
  8
0
 10
73.23039724
 20
-136.26383116
  0
VERTEX
  8
0
 10
73.34463093
 20
-136.09464136
  0
VERTEX
  8
0
 10
73.47758987
 20
-135.94092702
  0
VERTEX
  8
0
 10
73.63084398
 20
-135.80500800
  0
VERTEX
  8
0
 10
73.80596316
 20
-135.68920415
  0
VERTEX
  8
0
 10
74.00451732
 20
-135.59583534
  0
VERTEX
  8
0
 10
74.19377288
 20
-135.75451816
  0
VERTEX
  8
0
 10
74.38129193
 20
-135.93436033
  0
VERTEX
  8
0
 10
74.56294933
 20
-136.13182480
  0
VERTEX
  8
0
 10
74.73461989
 20
-136.34337455
  0
VERTEX
  8
0
 10
74.89217846
 20
-136.56547252
  0
VERTEX
  8
0
 10
75.03149988
 20
-136.79458167
  0
VERTEX
  8
0
 10
75.14845897
 20
-137.02716497
  0
VERTEX
  8
0
 10
75.23893057
 20
-137.25968536
  0
VERTEX
  8
0
 10
75.28879145
 20
-137.45650415
  0
VERTEX
  8
0
 10
75.31793016
 20
-137.66680219
  0
VERTEX
  8
0
 10
75.33410818
 20
-138.11181238
  0
VERTEX
  8
0
 10
75.32759894
 20
-138.56266852
  0
VERTEX
  8
0
 10
75.33853672
 20
-138.98732322
  0
SEQEND
  0
POLYLINE
  8
Livello Standard
 66
   1
 39
0.000000
 70
    0
  0
VERTEX
  8
0
 10
75.95180611
 20
-138.98767144
  0
VERTEX
  8
0
 10
75.88904610
 20
-138.63612610
  0
VERTEX
  8
0
 10
75.87812488
 20
-138.33459182
  0
VERTEX
  8
0
 10
75.91030258
 20
-138.06692117
  0
VERTEX
  8
0
 10
75.97683932
 20
-137.81696673
  0
VERTEX
  8
0
 10
76.06899522
 20
-137.56858109
  0
VERTEX
  8
0
 10
76.17803041
 20
-137.30561681
  0
VERTEX
  8
0
 10
76.29520502
 20
-137.01192648
  0
VERTEX
  8
0
 10
76.41177916
 20
-136.67136267
  0
VERTEX
  8
0
 10
76.48539250
 20
-136.46834166
  0
VERTEX
  8
0
 10
76.57253045
 20
-136.29122433
  0
VERTEX
  8
0
 10
76.67143391
 20
-136.14016358
  0
VERTEX
  8
0
 10
76.78034377
 20
-136.01531234
  0
VERTEX
  8
0
 10
76.89750091
 20
-135.91682351
  0
VERTEX
  8
0
 10
77.02114624
 20
-135.84485001
  0
VERTEX
  8
0
 10
77.14952064
 20
-135.79954475
  0
VERTEX
  8
0
 10
77.28086501
 20
-135.78106063
  0
VERTEX
  8
0
 10
77.41342022
 20
-135.78955057
  0
VERTEX
  8
0
 10
77.54542718
 20
-135.82516749
  0
VERTEX
  8
0
 10
77.67512677
 20
-135.88806429
  0
VERTEX
  8
0
 10
77.80075989
 20
-135.97839389
  0
VERTEX
  8
0
 10
77.92056742
 20
-136.09630919
  0
VERTEX
  8
0
 10
78.03279026
 20
-136.24196312
  0
VERTEX
  8
0
 10
78.13566929
 20
-136.41550857
  0
VERTEX
  8
0
 10
78.22744541
 20
-136.61709847
  0
VERTEX
  8
0
 10
78.38345736
 20
-137.03242342
  0
VERTEX
  8
0
 10
78.50017227
 20
-137.39718044
  0
VERTEX
  8
0
 10
78.58235685
 20
-137.72864509
  0
VERTEX
  8
0
 10
78.63477784
 20
-138.04409294
  0
VERTEX
  8
0
 10
78.66220196
 20
-138.36079959
  0
VERTEX
  8
0
 10
78.66939593
 20
-138.69604059
  0
VERTEX
  8
0
 10
78.64216030
 20
-139.49122796
  0
VERTEX
  8
0
 10
78.72743082
 20
-139.27698533
  0
VERTEX
  8
0
 10
78.79452206
 20
-139.06232467
  0
VERTEX
  8
0
 10
78.88465080
 20
-138.63070978
  0
VERTEX
  8
0
 10
78.93351463
 20
-138.19430436
  0
VERTEX
  8
0
 10
78.96208165
 20
-137.75102945
  0
VERTEX
  8
0
 10
78.98646622
 20
-137.49066163
  0
VERTEX
  8
0
 10
79.02903428
 20
-137.23450740
  0
VERTEX
  8
0
 10
79.08862299
 20
-136.98260548
  0
VERTEX
  8
0
 10
79.16406949
 20
-136.73499460
  0
VERTEX
  8
0
 10
79.35788450
 20
-136.25280086
  0
VERTEX
  8
0
 10
79.60117649
 20
-135.78823595
  0
VERTEX
  8
0
 10
79.69994503
 20
-135.75944784
  0
VERTEX
  8
0
 10
79.78470245
 20
-135.74884344
  0
VERTEX
  8
0
 10
79.85682544
 20
-135.75475315
  0
VERTEX
  8
0
 10
79.91769071
 20
-135.77550737
  0
VERTEX
  8
0
 10
80.01115491
 20
-135.85487090
  0
VERTEX
  8
0
 10
80.07610869
 20
-135.97357717
  0
VERTEX
  8
0
 10
80.16453953
 20
-136.27559049
  0
VERTEX
  8
0
 10
80.21004388
 20
-136.43218383
  0
VERTEX
  8
0
 10
80.27109236
 20
-136.57469249
  0
VERTEX
  8
0
 10
80.41427711
 20
-136.86224525
  0
VERTEX
  8
0
 10
80.53041979
 20
-137.15689869
  0
VERTEX
  8
0
 10
80.62050255
 20
-137.45806147
  0
VERTEX
  8
0
 10
80.68550751
 20
-137.76514223
  0
VERTEX
  8
0
 10
80.72641682
 20
-138.07754962
  0
VERTEX
  8
0
 10
80.74421263
 20
-138.39469229
  0
VERTEX
  8
0
 10
80.73987706
 20
-138.71597889
  0
VERTEX
  8
0
 10
80.71439226
 20
-139.04081807
  0
VERTEX
  8
0
 10
80.87377813
 20
-138.60813324
  0
VERTEX
  8
0
 10
81.00909410
 20
-138.23386884
  0
VERTEX
  8
0
 10
81.06037766
 20
-138.04510249
  0
VERTEX
  8
0
 10
81.09682589
 20
-137.84269110
  0
VERTEX
  8
0
 10
81.11549949
 20
-137.61721793
  0
VERTEX
  8
0
 10
81.11345919
 20
-137.35926626
  0
VERTEX
  8
0
 10
81.12078444
 20
-137.16328793
  0
VERTEX
  8
0
 10
81.15988143
 20
-136.99103488
  0
VERTEX
  8
0
 10
81.22637633
 20
-136.84292074
  0
VERTEX
  8
0
 10
81.31589534
 20
-136.71935910
  0
VERTEX
  8
0
 10
81.42406461
 20
-136.62076359
  0
VERTEX
  8
0
 10
81.54651034
 20
-136.54754782
  0
VERTEX
  8
0
 10
81.67885869
 20
-136.50012541
  0
VERTEX
  8
0
 10
81.81673585
 20
-136.47890996
  0
VERTEX
  8
0
 10
81.95576799
 20
-136.48431509
  0
VERTEX
  8
0
 10
82.09158128
 20
-136.51675441
  0
VERTEX
  8
0
 10
82.21980191
 20
-136.57664155
  0
VERTEX
  8
0
 10
82.33605605
 20
-136.66439010
  0
VERTEX
  8
0
 10
82.43596988
 20
-136.78041369
  0
VERTEX
  8
0
 10
82.51516957
 20
-136.92512593
  0
VERTEX
  8
0
 10
82.56928130
 20
-137.09894044
  0
VERTEX
  8
0
 10
82.59393125
 20
-137.30227082
  0
VERTEX
  8
0
 10
82.63290906
 20
-138.21327920
  0
VERTEX
  8
0
 10
82.63889895
 20
-138.60878491
  0
VERTEX
  8
0
 10
82.62877768
 20
-139.09987341
  0
SEQEND
  0
POLYLINE
  8
Livello Standard
 66
   1
 39
0.000000
 70
    1
  0
VERTEX
  8
0
 10
109.97000000
 20
-144.77100000
  0
VERTEX
  8
0
 10
150.38800000
 20
-144.77100000
  0
VERTEX
  8
0
 10
150.38800000
 20
-63.45700000
  0
VERTEX
  8
0
 10
109.97000000
 20
-63.45700000
  0
VERTEX
  8
0
 10
109.97000000
 20
-144.77100000
  0
SEQEND
  0
POLYLINE
  8
Livello Standard
 66
   1
 39
0.000000
 70
    0
  0
VERTEX
  8
0
 10
137.02761176
 20
-95.07318293
  0
VERTEX
  8
0
 10
136.88549144
 20
-95.08362709
  0
VERTEX
  8
0
 10
136.76467565
 20
-95.13609730
  0
VERTEX
  8
0
 10
136.66299665
 20
-95.22218872
  0
VERTEX
  8
0
 10
136.57828672
 20
-95.33349651
  0
VERTEX
  8
0
 10
136.50837813
 20
-95.46161580
  0
VERTEX
  8
0
 10
136.45110316
 20
-95.59814176
  0
VERTEX
  8
0
 10
136.36578317
 20
-95.86279431
  0
VERTEX
  8
0
 10
136.35296303
 20
-96.00065687
  0
VERTEX
  8
0
 10
136.38564056
 20
-96.14468212
  0
VERTEX
  8
0
 10
136.45615237
 20
-96.28536618
  0
VERTEX
  8
0
 10
136.55683508
 20
-96.41320518
  0
VERTEX
  8
0
 10
136.68002530
 20
-96.51869523
  0
VERTEX
  8
0
 10
136.81805965
 20
-96.59233246
  0
VERTEX
  8
0
 10
136.96327474
 20
-96.62461297
  0
VERTEX
  8
0
 10
137.10800718
 20
-96.60603291
  0
VERTEX
  8
0
 10
137.25016516
 20
-96.54681691
  0
VERTEX
  8
0
 10
137.38240726
 20
-96.46785293
  0
VERTEX
  8
0
 10
137.50266931
 20
-96.37115352
  0
VERTEX
  8
0
 10
137.60888714
 20
-96.25873126
  0
VERTEX
  8
0
 10
137.69899658
 20
-96.13259870
  0
VERTEX
  8
0
 10
137.77093345
 20
-95.99476841
  0
VERTEX
  8
0
 10
137.82263358
 20
-95.84725296
  0
VERTEX
  8
0
 10
137.85203280
 20
-95.69206491
  0
VERTEX
  8
0
 10
137.84477128
 20
-95.52537140
  0
VERTEX
  8
0
 10
137.79036963
 20
-95.37239539
  0
VERTEX
  8
0
 10
137.69720899
 20
-95.23703016
  0
VERTEX
  8
0
 10
137.57367051
 20
-95.12316904
  0
VERTEX
  8
0
 10
137.42813534
 20
-95.03470533
  0
VERTEX
  8
0
 10
137.26898461
 20
-94.97553234
  0
VERTEX
  8
0
 10
137.10459947
 20
-94.94954337
  0
VERTEX
  8
0
 10
136.94336108
 20
-94.96063175
  0
SEQEND
  0
POLYLINE
  8
Livello Standard
 66
   1
 39
0.000000
 70
    0
  0
VERTEX
  8
0
 10
138.34680425
 20
-96.16823731
  0
VERTEX
  8
0
 10
138.30572469
 20
-96.31326191
  0
VERTEX
  8
0
 10
138.24565022
 20
-96.45297328
  0
VERTEX
  8
0
 10
138.16841998
 20
-96.58536958
  0
VERTEX
  8
0
 10
138.07587314
 20
-96.70844900
  0
VERTEX
  8
0
 10
137.96984886
 20
-96.82020971
  0
VERTEX
  8
0
 10
137.85218631
 20
-96.91864989
  0
VERTEX
  8
0
 10
137.72472463
 20
-97.00176771
  0
VERTEX
  8
0
 10
137.58930301
 20
-97.06756135
  0
SEQEND
  0
POLYLINE
  8
Livello Standard
 66
   1
 39
0.000000
 70
    0
  0
VERTEX
  8
0
 10
140.73257791
 20
-94.51161658
  0
VERTEX
  8
0
 10
140.27464955
 20
-94.51086929
  0
VERTEX
  8
0
 10
140.04216895
 20
-94.53224864
  0
VERTEX
  8
0
 10
139.93529012
 20
-94.55984084
  0
VERTEX
  8
0
 10
139.83855343
 20
-94.60306871
  0
VERTEX
  8
0
 10
139.72203224
 20
-94.68562145
  0
VERTEX
  8
0
 10
139.61222175
 20
-94.79394834
  0
VERTEX
  8
0
 10
139.51781809
 20
-94.92080287
  0
VERTEX
  8
0
 10
139.44751739
 20
-95.05893850
  0
VERTEX
  8
0
 10
139.41001577
 20
-95.20110872
  0
VERTEX
  8
0
 10
139.41400936
 20
-95.34006699
  0
VERTEX
  8
0
 10
139.46819429
 20
-95.46856678
  0
VERTEX
  8
0
 10
139.51682605
 20
-95.52663021
  0
VERTEX
  8
0
 10
139.58126669
 20
-95.57936157
  0
VERTEX
  8
0
 10
139.82031110
 20
-95.70992617
  0
VERTEX
  8
0
 10
140.05681063
 20
-95.77947020
  0
VERTEX
  8
0
 10
140.30127731
 20
-95.80540647
  0
VERTEX
  8
0
 10
140.56422318
 20
-95.80514781
  0
VERTEX
  8
0
 10
140.87924985
 20
-95.80069695
  0
VERTEX
  8
0
 10
141.02621734
 20
-95.80977323
  0
VERTEX
  8
0
 10
141.16678271
 20
-95.83337027
  0
VERTEX
  8
0
 10
141.30141725
 20
-95.87672776
  0
VERTEX
  8
0
 10
141.43059229
 20
-95.94508542
  0
VERTEX
  8
0
 10
141.55477914
 20
-96.04368296
  0
VERTEX
  8
0
 10
141.67444911
 20
-96.17776007
  0
VERTEX
  8
0
 10
141.73313822
 20
-96.26780140
  0
VERTEX
  8
0
 10
141.77024950
 20
-96.35463801
  0
VERTEX
  8
0
 10
141.78744239
 20
-96.43775455
  0
VERTEX
  8
0
 10
141.78637630
 20
-96.51663571
  0
VERTEX
  8
0
 10
141.76871067
 20
-96.59076612
  0
VERTEX
  8
0
 10
141.73610490
 20
-96.65963045
  0
VERTEX
  8
0
 10
141.63271065
 20
-96.77949951
  0
VERTEX
  8
0
 10
141.48946896
 20
-96.87212016
  0
VERTEX
  8
0
 10
141.31965518
 20
-96.93336967
  0
VERTEX
  8
0
 10
141.13654469
 20
-96.95912532
  0
VERTEX
  8
0
 10
140.95341289
 20
-96.94526438
  0
VERTEX
  8
0
 10
140.68328509
 20
-96.91332391
  0
VERTEX
  8
0
 10
140.41662122
 20
-96.90258363
  0
VERTEX
  8
0
 10
140.15256063
 20
-96.88057502
  0
VERTEX
  8
0
 10
140.02123761
 20
-96.85519868
  0
VERTEX
  8
0
 10
139.89024267
 20
-96.81482957
  0
VERTEX
  8
0
 10
139.61713475
 20
-96.71918234
  0
VERTEX
  8
0
 10
139.35706045
 20
-96.61622209
  0
VERTEX
  8
0
 10
139.23653438
 20
-96.55138710
  0
VERTEX
  8
0
 10
139.12481488
 20
-96.47198887
  0
VERTEX
  8
0
 10
139.02375134
 20
-96.37378241
  0
VERTEX
  8
0
 10
138.93519314
 20
-96.25252272
  0
VERTEX
  8
0
 10
138.94607993
 20
-96.14585615
  0
VERTEX
  8
0
 10
138.98616166
 20
-96.06000771
  0
VERTEX
  8
0
 10
139.04928088
 20
-95.99071041
  0
VERTEX
  8
0
 10
139.12928017
 20
-95.93369729
  0
VERTEX
  8
0
 10
139.31528919
 20
-95.83945570
  0
VERTEX
  8
0
 10
139.49492925
 20
-95.74314714
  0
VERTEX
  8
0
 10
139.61508819
 20
-95.67378378
  0
VERTEX
  8
0
 10
139.74411165
 20
-95.61871493
  0
VERTEX
  8
0
 10
140.01741169
 20
-95.53386186
  0
VERTEX
  8
0
 10
140.29214847
 20
-95.45339024
  0
VERTEX
  8
0
 10
140.42296788
 20
-95.40379819
  0
VERTEX
  8
0
 10
140.54564115
 20
-95.34210236
  0
VERTEX
  8
0
 10
140.63903381
 20
-95.27792573
  0
VERTEX
  8
0
 10
140.72573907
 20
-95.19929614
  0
VERTEX
  8
0
 10
140.80163593
 20
-95.10876387
  0
VERTEX
  8
0
 10
140.86260339
 20
-95.00887923
  0
VERTEX
  8
0
 10
140.90452045
 20
-94.90219249
  0
VERTEX
  8
0
 10
140.92326611
 20
-94.79125396
  0
VERTEX
  8
0
 10
140.91471937
 20
-94.67861392
  0
VERTEX
  8
0
 10
140.87475923
 20
-94.56682266
  0
SEQEND
  0
ENDSEC
  0
EOF
